  0
SECTION
  2
HEADER
  9
$ACADVER
  1
AC1015
  9
$ACADMAINTVER
 70
    13
  9
$DWGCODEPAGE
  3
ANSI_1252
  9
$INSBASE
 10
0.0
 20
0.0
 30
0.0
  9
$EXTMIN
 10
0.0
 20
-0.0000000000000009
 30
0.0
  9
$EXTMAX
 10
700.0
 20
200.0
 30
0.0
  9
$LIMMIN
 10
0.0
 20
0.0
  9
$LIMMAX
 10
12.0
 20
9.0
  9
$ORTHOMODE
 70
     0
  9
$REGENMODE
 70
     1
  9
$FILLMODE
 70
     1
  9
$QTEXTMODE
 70
     0
  9
$MIRRTEXT
 70
     1
  9
$LTSCALE
 40
1.0
  9
$ATTMODE
 70
     1
  9
$TEXTSIZE
 40
0.2
  9
$TRACEWID
 40
0.05
  9
$TEXTSTYLE
  7
Standard
  9
$CLAYER
  8
0
  9
$CELTYPE
  6
Continuous
  9
$CECOLOR
 62
   256
  9
$CELTSCALE
 40
1.0
  9
$DISPSILH
 70
     0
  9
$DIMSCALE
 40
1.0
  9
$DIMASZ
 40
0.18
  9
$DIMEXO
 40
0.0625
  9
$DIMDLI
 40
0.38
  9
$DIMRND
 40
0.0
  9
$DIMDLE
 40
0.0
  9
$DIMEXE
 40
0.18
  9
$DIMTP
 40
0.0
  9
$DIMTM
 40
0.0
  9
$DIMTXT
 40
0.18
  9
$DIMCEN
 40
0.09
  9
$DIMTSZ
 40
0.0
  9
$DIMTOL
 70
     0
  9
$DIMLIM
 70
     0
  9
$DIMTIH
 70
     1
  9
$DIMTOH
 70
     1
  9
$DIMSE1
 70
     0
  9
$DIMSE2
 70
     0
  9
$DIMTAD
 70
     0
  9
$DIMZIN
 70
     0
  9
$DIMBLK
  1

  9
$DIMASO
 70
     1
  9
$DIMSHO
 70
     1
  9
$DIMPOST
  1

  9
$DIMAPOST
  1

  9
$DIMALT
 70
     0
  9
$DIMALTD
 70
     2
  9
$DIMALTF
 40
25.4
  9
$DIMLFAC
 40
1.0
  9
$DIMTOFL
 70
     0
  9
$DIMTVP
 40
0.0
  9
$DIMTIX
 70
     0
  9
$DIMSOXD
 70
     0
  9
$DIMSAH
 70
     0
  9
$DIMBLK1
  1

  9
$DIMBLK2
  1

  9
$DIMSTYLE
  2
Standard
  9
$DIMCLRD
 70
     0
  9
$DIMCLRE
 70
     0
  9
$DIMCLRT
 70
     0
  9
$DIMTFAC
 40
1.0
  9
$DIMGAP
 40
0.09
  9
$DIMJUST
 70
     0
  9
$DIMSD1
 70
     0
  9
$DIMSD2
 70
     0
  9
$DIMTOLJ
 70
     1
  9
$DIMTZIN
 70
     0
  9
$DIMALTZ
 70
     0
  9
$DIMALTTZ
 70
     0
  9
$DIMUPT
 70
     0
  9
$DIMDEC
 70
     4
  9
$DIMTDEC
 70
     4
  9
$DIMALTU
 70
     2
  9
$DIMALTTD
 70
     2
  9
$DIMTXSTY
  7
Standard
  9
$DIMAUNIT
 70
     0
  9
$DIMADEC
 70
     0
  9
$DIMALTRND
 40
0.0
  9
$DIMAZIN
 70
     0
  9
$DIMDSEP
 70
    46
  9
$DIMATFIT
 70
     3
  9
$DIMFRAC
 70
     0
  9
$DIMLDRBLK
  1

  9
$DIMLUNIT
 70
     2
  9
$DIMLWD
 70
    -2
  9
$DIMLWE
 70
    -2
  9
$DIMTMOVE
 70
     0
  9
$LUNITS
 70
     2
  9
$LUPREC
 70
     4
  9
$SKETCHINC
 40
0.1
  9
$FILLETRAD
 40
0.0
  9
$AUNITS
 70
     0
  9
$AUPREC
 70
     0
  9
$MENU
  1
.
  9
$ELEVATION
 40
0.0
  9
$PELEVATION
 40
0.0
  9
$THICKNESS
 40
0.0
  9
$LIMCHECK
 70
     0
  9
$CHAMFERA
 40
0.0
  9
$CHAMFERB
 40
0.0
  9
$CHAMFERC
 40
0.0
  9
$CHAMFERD
 40
0.0
  9
$SKPOLY
 70
     0
  9
$TDCREATE
 40
2454780.574591470
  9
$TDUCREATE
 40
2454780.532924803
  9
$TDUPDATE
 40
2454780.580166192
  9
$TDUUPDATE
 40
2454780.538499525
  9
$TDINDWG
 40
0.0055749074
  9
$TDUSRTIMER
 40
0.0055749074
  9
$USRTIMER
 70
     1
  9
$ANGBASE
 50
0.0
  9
$ANGDIR
 70
     0
  9
$PDMODE
 70
     0
  9
$PDSIZE
 40
0.0
  9
$PLINEWID
 40
0.0
  9
$SPLFRAME
 70
     0
  9
$SPLINETYPE
 70
     6
  9
$SPLINESEGS
 70
     8
  9
$HANDSEED
  5
5D3
  9
$SURFTAB1
 70
     6
  9
$SURFTAB2
 70
     6
  9
$SURFTYPE
 70
     6
  9
$SURFU
 70
     6
  9
$SURFV
 70
     6
  9
$UCSBASE
  2

  9
$UCSNAME
  2

  9
$UCSORG
 10
0.0
 20
0.0
 30
0.0
  9
$UCSXDIR
 10
1.0
 20
0.0
 30
0.0
  9
$UCSYDIR
 10
0.0
 20
1.0
 30
0.0
  9
$UCSORTHOREF
  2

  9
$UCSORTHOVIEW
 70
     1
  9
$UCSORGTOP
 10
0.0
 20
0.0
 30
0.0
  9
$UCSORGBOTTOM
 10
0.0
 20
0.0
 30
0.0
  9
$UCSORGLEFT
 10
0.0
 20
0.0
 30
0.0
  9
$UCSORGRIGHT
 10
0.0
 20
0.0
 30
0.0
  9
$UCSORGFRONT
 10
0.0
 20
0.0
 30
0.0
  9
$UCSORGBACK
 10
0.0
 20
0.0
 30
0.0
  9
$PUCSBASE
  2

  9
$PUCSNAME
  2

  9
$PUCSORG
 10
0.0
 20
0.0
 30
0.0
  9
$PUCSXDIR
 10
1.0
 20
0.0
 30
0.0
  9
$PUCSYDIR
 10
0.0
 20
1.0
 30
0.0
  9
$PUCSORTHOREF
  2

  9
$PUCSORTHOVIEW
 70
     0
  9
$PUCSORGTOP
 10
0.0
 20
0.0
 30
0.0
  9
$PUCSORGBOTTOM
 10
0.0
 20
0.0
 30
0.0
  9
$PUCSORGLEFT
 10
0.0
 20
0.0
 30
0.0
  9
$PUCSORGRIGHT
 10
0.0
 20
0.0
 30
0.0
  9
$PUCSORGFRONT
 10
0.0
 20
0.0
 30
0.0
  9
$PUCSORGBACK
 10
0.0
 20
0.0
 30
0.0
  9
$USERI1
 70
     0
  9
$USERI2
 70
     0
  9
$USERI3
 70
     0
  9
$USERI4
 70
     0
  9
$USERI5
 70
     0
  9
$USERR1
 40
0.0
  9
$USERR2
 40
0.0
  9
$USERR3
 40
0.0
  9
$USERR4
 40
0.0
  9
$USERR5
 40
0.0
  9
$WORLDVIEW
 70
     1
  9
$SHADEDGE
 70
     3
  9
$SHADEDIF
 70
    70
  9
$TILEMODE
 70
     1
  9
$MAXACTVP
 70
    64
  9
$PINSBASE
 10
0.0
 20
0.0
 30
0.0
  9
$PLIMCHECK
 70
     0
  9
$PEXTMIN
 10
1.000000000000000E+20
 20
1.000000000000000E+20
 30
1.000000000000000E+20
  9
$PEXTMAX
 10
-1.000000000000000E+20
 20
-1.000000000000000E+20
 30
-1.000000000000000E+20
  9
$PLIMMIN
 10
0.0
 20
0.0
  9
$PLIMMAX
 10
12.0
 20
9.0
  9
$UNITMODE
 70
     0
  9
$VISRETAIN
 70
     1
  9
$PLINEGEN
 70
     0
  9
$PSLTSCALE
 70
     1
  9
$TREEDEPTH
 70
  3020
  9
$CMLSTYLE
  2
Standard
  9
$CMLJUST
 70
     0
  9
$CMLSCALE
 40
1.0
  9
$PROXYGRAPHICS
 70
     1
  9
$MEASUREMENT
 70
     0
  9
$CELWEIGHT
370
    -1
  9
$ENDCAPS
280
     0
  9
$JOINSTYLE
280
     0
  9
$LWDISPLAY
290
     0
  9
$INSUNITS
 70
     0
  9
$HYPERLINKBASE
  1

  9
$STYLESHEET
  1

  9
$XEDIT
290
     1
  9
$CEPSNTYPE
380
     0
  9
$PSTYLEMODE
290
     1
  9
$FINGERPRINTGUID
  2
{4327FEF9-777E-42DA-8600-3D3ECA62DD73}
  9
$VERSIONGUID
  2
{0F46FE13-A3B3-4D8F-A53D-47CD6AD785EE}
  9
$EXTNAMES
290
     1
  9
$PSVPSCALE
 40
0.0
  9
$OLESTARTUP
290
     0
  0
ENDSEC
  0
SECTION
  2
CLASSES
  0
CLASS
  1
ACDBDICTIONARYWDFLT
  2
AcDbDictionaryWithDefault
  3
AutoCAD 2000
 90
        0
280
     0
281
     0
  0
CLASS
  1
ACDBPLACEHOLDER
  2
AcDbPlaceHolder
  3
AutoCAD 2000
 90
        0
280
     0
281
     0
  0
CLASS
  1
LAYOUT
  2
AcDbLayout
  3
AutoCAD 2000
 90
        0
280
     0
281
     0
  0
CLASS
  1
DICTIONARYVAR
  2
AcDbDictionaryVar
  3
AutoCAD 2000
 90
        0
280
     0
281
     0
  0
ENDSEC
  0
SECTION
  2
TABLES
  0
TABLE
  2
VPORT
  5
8
330
0
100
AcDbSymbolTable
 70
     2
  0
VPORT
  5
5D2
330
8
100
AcDbSymbolTableRecord
100
AcDbViewportTableRecord
  2
*Active
 70
     0
 10
0.0
 20
0.0
 11
1.0
 21
1.0
 12
350.0
 22
100.0
 13
0.0
 23
0.0
 14
1.0
 24
1.0
 15
0.0
 25
0.0
 16
0.0
 26
0.0
 36
1.0
 17
0.0
 27
0.0
 37
0.0
 40
338.0898506384515
 41
2.078104993597951
 42
50.0
 43
0.0
 44
0.0
 50
0.0
 51
0.0
 71
     0
 72
   100
 73
     1
 74
     3
 75
     0
 76
     0
 77
     0
 78
     0
281
     0
 65
     1
110
0.0
120
0.0
130
0.0
111
1.0
121
0.0
131
0.0
112
0.0
122
1.0
132
0.0
 79
     1
146
0.0
  0
ENDTAB
  0
TABLE
  2
LTYPE
  5
5
330
0
100
AcDbSymbolTable
 70
     1
  0
LTYPE
  5
13
330
5
100
AcDbSymbolTableRecord
100
AcDbLinetypeTableRecord
  2
ByBlock
 70
     0
  3

 72
    65
 73
     0
 40
0.0
  0
LTYPE
  5
14
330
5
100
AcDbSymbolTableRecord
100
AcDbLinetypeTableRecord
  2
ByLayer
 70
     0
  3

 72
    65
 73
     0
 40
0.0
  0
LTYPE
  5
15
330
5
100
AcDbSymbolTableRecord
100
AcDbLinetypeTableRecord
  2
Continuous
 70
     0
  3
Solid line
 72
    65
 73
     0
 40
0.0
  0
ENDTAB
  0
TABLE
  2
LAYER
  5
2
330
0
100
AcDbSymbolTable
 70
     1
  0
LAYER
  5
10
330
2
100
AcDbSymbolTableRecord
100
AcDbLayerTableRecord
  2
0
 70
     0
 62
     7
  6
Continuous
370
    -3
390
F
  0
ENDTAB
  0
TABLE
  2
STYLE
  5
3
330
0
100
AcDbSymbolTable
 70
     1
  0
STYLE
  5
11
330
3
100
AcDbSymbolTableRecord
100
AcDbTextStyleTableRecord
  2
Standard
 70
     0
 40
0.0
 41
1.0
 50
0.0
 71
     0
 42
0.2
  3
txt
  4

  0
ENDTAB
  0
TABLE
  2
VIEW
  5
6
330
0
100
AcDbSymbolTable
 70
     0
  0
ENDTAB
  0
TABLE
  2
UCS
  5
7
330
0
100
AcDbSymbolTable
 70
     0
  0
ENDTAB
  0
TABLE
  2
APPID
  5
9
330
0
100
AcDbSymbolTable
 70
     1
  0
APPID
  5
12
330
9
100
AcDbSymbolTableRecord
100
AcDbRegAppTableRecord
  2
ACAD
 70
     0
  0
ENDTAB
  0
TABLE
  2
DIMSTYLE
  5
A
330
0
100
AcDbSymbolTable
 70
     1
100
AcDbDimStyleTable
 71
     0
  0
DIMSTYLE
105
5C6
330
A
100
AcDbSymbolTableRecord
100
AcDbDimStyleTableRecord
  2
Standard
 70
     0
340
11
  0
ENDTAB
  0
TABLE
  2
BLOCK_RECORD
  5
1
330
0
100
AcDbSymbolTable
 70
     0
  0
BLOCK_RECORD
  5
1E
330
1
100
AcDbSymbolTableRecord
100
AcDbBlockTableRecord
  2
*Model_Space
340
21
  0
BLOCK_RECORD
  5
1A
330
1
100
AcDbSymbolTableRecord
100
AcDbBlockTableRecord
  2
*Paper_Space
340
1D
  0
ENDTAB
  0
ENDSEC
  0
SECTION
  2
BLOCKS
  0
BLOCK
  5
1F
330
1E
100
AcDbEntity
  8
0
100
AcDbBlockBegin
  2
*Model_Space
 70
     0
 10
0.0
 20
0.0
 30
0.0
  3
*Model_Space
  1

  0
ENDBLK
  5
20
330
1E
100
AcDbEntity
  8
0
100
AcDbBlockEnd
  0
BLOCK
  5
1B
330
1A
100
AcDbEntity
 67
     1
  8
0
100
AcDbBlockBegin
  2
*Paper_Space
 70
     0
 10
0.0
 20
0.0
 30
0.0
  3
*Paper_Space
  1

  0
ENDBLK
  5
1C
330
1A
100
AcDbEntity
 67
     1
  8
0
100
AcDbBlockEnd
  0
ENDSEC
  0
SECTION
  2
ENTITIES
  0
LINE
  5
22
330
1E
100
AcDbEntity
  8
0
100
AcDbLine
 10
0.0
 20
-0.0000000000000009
 30
0.0
 11
700.0
 21
-0.0000000000000009
 31
0.0
  0
LINE
  5
23
330
1E
100
AcDbEntity
  8
0
100
AcDbLine
 10
0.0
 20
0.0
 30
0.0
 11
149.0
 21
50.0
 31
0.0
  0
LINE
  5
24
330
1E
100
AcDbEntity
  8
0
100
AcDbLine
 10
149.0
 20
50.0
 30
0.0
 11
149.0
 21
150.0
 31
0.0
  0
LINE
  5
25
330
1E
100
AcDbEntity
  8
0
100
AcDbLine
 10
149.0
 20
50.0
 30
0.0
 11
149.0
 21
150.0
 31
0.0
  0
LINE
  5
26
330
1E
100
AcDbEntity
  8
0
100
AcDbLine
 10
149.0
 20
50.0
 30
0.0
 11
551.0
 21
50.0
 31
0.0
  0
LINE
  5
27
330
1E
100
AcDbEntity
  8
0
100
AcDbLine
 10
0.0000000000000003
 20
0.0000000000000022
 30
0.0
 11
0.0000000000000003
 21
200.0
 31
0.0
  0
LINE
  5
28
330
1E
100
AcDbEntity
  8
0
100
AcDbLine
 10
0.0000000000000003
 20
0.0000000000000022
 30
0.0
 11
149.0
 21
50.0
 31
0.0
  0
LINE
  5
29
330
1E
100
AcDbEntity
  8
0
100
AcDbLine
 10
0.0000000000000003
 20
-0.0000000000000009
 30
0.0
 11
0.0000000000000003
 21
200.0
 31
0.0
  0
LINE
  5
2A
330
1E
100
AcDbEntity
  8
0
100
AcDbLine
 10
0.0000000000000003
 20
-0.0000000000000009
 30
0.0
 11
700.0
 21
-0.0000000000000009
 31
0.0
  0
LINE
  5
3A
330
1E
100
AcDbEntity
  8
0
100
AcDbLine
 10
173.8459999999999
 20
66.49370000000001
 30
0.0
 11
176.6699999999999
 21
66.8304
 31
0.0
  0
LINE
  5
3B
330
1E
100
AcDbEntity
  8
0
100
AcDbLine
 10
176.6699999999999
 20
66.8304
 30
0.0
 11
179.3779999999999
 21
67.9269
 31
0.0
  0
LINE
  5
3C
330
1E
100
AcDbEntity
  8
0
100
AcDbLine
 10
171.0239999999999
 20
66.84000000000001
 30
0.0
 11
173.8459999999999
 21
66.49370000000001
 31
0.0
  0
LINE
  5
50
330
1E
100
AcDbEntity
  8
0
100
AcDbLine
 10
164.3319999999999
 20
71.95820000000001
 30
0.0
 11
166.129
 21
69.6546
 31
0.0
  0
LINE
  5
51
330
1E
100
AcDbEntity
  8
0
100
AcDbLine
 10
166.129
 20
69.6546
 30
0.0
 11
168.4059999999999
 21
67.9513
 31
0.0
  0
LINE
  5
52
330
1E
100
AcDbEntity
  8
0
100
AcDbLine
 10
168.4059999999999
 20
67.9513
 30
0.0
 11
171.0239999999999
 21
66.84000000000001
 31
0.0
  0
LINE
  5
53
330
1E
100
AcDbEntity
  8
0
100
AcDbLine
 10
168.4059999999999
 20
67.9513
 30
0.0
 11
171.0239999999999
 21
66.84000000000001
 31
0.0
  0
LINE
  5
67
330
1E
100
AcDbEntity
  8
0
100
AcDbLine
 10
184.1047606120289
 20
73.1590749005354
 30
0.0
 11
187.5329999999999
 21
74.0776
 31
0.0
  0
LINE
  5
6A
330
1E
100
AcDbEntity
  8
0
100
AcDbLine
 10
183.3849999999999
 20
72.0006
 30
0.0
 11
184.496
 21
74.6182
 31
0.0
  0
LINE
  5
6B
330
1E
100
AcDbEntity
  8
0
100
AcDbLine
 10
181.6809999999999
 20
69.7239
 30
0.0
 11
183.3849999999999
 21
72.0006
 31
0.0
  0
LINE
  5
6C
330
1E
100
AcDbEntity
  8
0
100
AcDbLine
 10
176.6699999999999
 20
66.8304
 30
0.0
 11
179.3779999999999
 21
67.9269
 31
0.0
  0
LINE
  5
75
330
1E
100
AcDbEntity
  8
0
100
AcDbLine
 10
162.8989999999999
 20
77.48969999999999
 30
0.0
 11
163.246
 21
80.31220000000001
 31
0.0
  0
LINE
  5
76
330
1E
100
AcDbEntity
  8
0
100
AcDbLine
 10
163.236
 20
74.66630000000001
 30
0.0
 11
164.3319999999999
 21
71.95820000000001
 31
0.0
  0
LINE
  5
77
330
1E
100
AcDbEntity
  8
0
100
AcDbLine
 10
163.246
 20
80.31220000000001
 30
0.0
 11
163.369
 21
80.77290000000001
 31
0.0
  0
LINE
  5
78
330
1E
100
AcDbEntity
  8
0
100
AcDbLine
 10
163.369
 20
80.77290000000001
 30
0.0
 11
163.731
 21
82.1239
 31
0.0
  0
LINE
  5
7D
330
1E
100
AcDbEntity
  8
0
100
AcDbLine
 10
163.731
 20
82.1239
 30
0.0
 11
165.9309999999999
 21
90.33509999999999
 31
0.0
  0
LINE
  5
7F
330
1E
100
AcDbEntity
  8
0
100
AcDbLine
 10
166.869
 20
93.8352
 30
0.0
 11
170.092893390748
 21
105.865787671317
 31
0.0
  0
LINE
  5
80
330
1E
100
AcDbEntity
  8
0
100
AcDbLine
 10
165.9309999999999
 20
90.33509999999999
 30
0.0
 11
166.869
 21
93.8352
 31
0.0
  0
LINE
  5
82
330
1E
100
AcDbEntity
  8
0
100
AcDbLine
 10
184.619
 20
75.0789
 30
0.0
 11
184.9809999999999
 21
76.42990000000001
 31
0.0
  0
LINE
  5
83
330
1E
100
AcDbEntity
  8
0
100
AcDbLine
 10
184.496
 20
74.6182
 30
0.0
 11
184.619
 21
75.0789
 31
0.0
  0
LINE
  5
88
330
1E
100
AcDbEntity
  8
0
100
AcDbLine
 10
196.1349999999999
 20
76.38259999999999
 30
0.0
 11
206.152
 21
79.0667
 31
0.0
  0
LINE
  5
89
330
1E
100
AcDbEntity
  8
0
100
AcDbLine
 10
187.5329999999999
 20
74.0776
 30
0.0
 11
196.1349999999999
 21
76.38259999999999
 31
0.0
  0
LINE
  5
8B
330
1E
100
AcDbEntity
  8
0
100
AcDbLine
 10
188.288630260633
 20
88.77411892440528
 30
0.0
 11
192.511
 21
89.9055
 31
0.0
  0
LINE
  5
8C
330
1E
100
AcDbEntity
  8
0
100
AcDbLine
 10
190.625729483814
 20
96.63887989886241
 30
0.0
 11
190.789
 21
96.0771
 31
0.0
  0
LINE
  5
8D
330
1E
100
AcDbEntity
  8
0
100
AcDbLine
 10
190.789
 20
96.0771
 30
0.0
 11
191.2409999999999
 21
95.0543
 31
0.0
  0
LINE
  5
8E
330
1E
100
AcDbEntity
  8
0
100
AcDbLine
 10
191.2409999999999
 20
95.0543
 30
0.0
 11
192.279
 21
93.57229999999999
 31
0.0
  0
LINE
  5
8F
330
1E
100
AcDbEntity
  8
0
100
AcDbLine
 10
192.279
 20
93.57229999999999
 30
0.0
 11
193.7089999999999
 21
92.3835
 31
0.0
  0
LINE
  5
90
330
1E
100
AcDbEntity
  8
0
100
AcDbLine
 10
193.7089999999999
 20
92.3835
 30
0.0
 11
195.41
 21
91.6323
 31
0.0
  0
LINE
  5
91
330
1E
100
AcDbEntity
  8
0
100
AcDbLine
 10
195.41
 20
91.6323
 30
0.0
 11
197.199
 21
91.362
 31
0.0
  0
LINE
  5
92
330
1E
100
AcDbEntity
  8
0
100
AcDbLine
 10
200.427
 20
91.86109999999999
 30
0.0
 11
204.6089999999999
 21
92.8428
 31
0.0
  0
LINE
  5
93
330
1E
100
AcDbEntity
  8
0
100
AcDbLine
 10
199.0009999999999
 20
91.5262
 30
0.0
 11
200.427
 21
91.86109999999999
 31
0.0
  0
LINE
  5
94
330
1E
100
AcDbEntity
  8
0
100
AcDbLine
 10
197.199
 20
91.362
 30
0.0
 11
199.0009999999999
 21
91.5262
 31
0.0
  0
LINE
  5
95
330
1E
100
AcDbEntity
  8
0
100
AcDbLine
 10
192.511
 20
89.9055
 30
0.0
 11
198.332422156605
 21
91.46527853391491
 31
0.0
  0
LINE
  5
96
330
1E
100
AcDbEntity
  8
0
100
AcDbLine
 10
184.9809999999999
 20
76.42990000000001
 30
0.0
 11
191.342827859977
 21
100.171642408946
 31
0.0
  0
LINE
  5
99
330
1E
100
AcDbEntity
  8
0
100
AcDbLine
 10
190.089
 20
99.664
 30
0.0
 11
195.013
 21
101.6576
 31
0.0
  0
LINE
  5
9A
330
1E
100
AcDbEntity
  8
0
100
AcDbLine
 10
184.9559999999999
 20
99.05180000000001
 30
0.0
 11
190.089
 21
99.664
 31
0.0
  0
LINE
  5
9B
330
1E
100
AcDbEntity
  8
0
100
AcDbLine
 10
165.052
 20
119.0439999999999
 30
0.0
 11
165.664
 21
113.9110999999999
 31
0.0
  0
LINE
  5
9C
330
1E
100
AcDbEntity
  8
0
100
AcDbLine
 10
165.052
 20
119.0439999999999
 30
0.0
 11
165.6809999999999
 21
124.1759999999999
 31
0.0
  0
LINE
  5
9D
330
1E
100
AcDbEntity
  8
0
100
AcDbLine
 10
164.569
 20
123.215
 30
0.0
 11
164.7159999999999
 21
124.435
 31
0.0
  0
LINE
  5
9E
330
1E
100
AcDbEntity
  8
0
100
AcDbLine
 10
164.569
 20
123.215
 30
0.0
 11
164.724
 21
121.994
 31
0.0
  0
LINE
  5
9F
330
1E
100
AcDbEntity
  8
0
100
AcDbLine
 10
165.212
 20
120.821
 30
0.0
 11
165.2523992871429
 21
120.679054279203
 31
0.0
  0
LINE
  5
A0
330
1E
100
AcDbEntity
  8
0
100
AcDbLine
 10
164.724
 20
121.994
 30
0.0
 11
165.212
 21
120.821
 31
0.0
  0
LINE
  5
A1
330
1E
100
AcDbEntity
  8
0
100
AcDbLine
 10
164.6209999999999
 20
123.665
 30
0.0
 11
164.7159999999999
 21
124.434999999999
 31
0.0
  0
LINE
  5
A2
330
1E
100
AcDbEntity
  8
0
100
AcDbLine
 10
164.6209999999999
 20
123.665
 30
0.0
 11
164.7159999999999
 21
124.435
 31
0.0
  0
LINE
  5
A3
330
1E
100
AcDbEntity
  8
0
100
AcDbLine
 10
165.052
 20
119.0439999999999
 30
0.0
 11
165.664
 21
113.9110999999999
 31
0.0
  0
LINE
  5
A4
330
1E
100
AcDbEntity
  8
0
100
AcDbLine
 10
165.052
 20
119.0439999999999
 30
0.0
 11
165.6809999999999
 21
124.1759999999999
 31
0.0
  0
LINE
  5
A5
330
1E
100
AcDbEntity
  8
0
100
AcDbLine
 10
165.664
 20
113.9110999999999
 30
0.0
 11
167.6579999999999
 21
108.9874
 31
0.0
  0
LINE
  5
A6
330
1E
100
AcDbEntity
  8
0
100
AcDbLine
 10
167.6579999999999
 20
108.9874
 30
0.0
 11
170.925
 21
104.7989999999999
 31
0.0
  0
LINE
  5
A7
330
1E
100
AcDbEntity
  8
0
100
AcDbLine
 10
174.0459999999999
 20
112.6756
 30
0.0
 11
176.083
 21
110.0303
 31
0.0
  0
LINE
  5
A8
330
1E
100
AcDbEntity
  8
0
100
AcDbLine
 10
176.083
 20
110.0303
 30
0.0
 11
178.673
 21
108.0443
 31
0.0
  0
LINE
  5
AA
330
1E
100
AcDbEntity
  8
0
100
AcDbLine
 10
178.673
 20
108.0443
 30
0.0
 11
181.7159999999999
 21
106.7442999999999
 31
0.0
  0
LINE
  5
AC
330
1E
100
AcDbEntity
  8
0
100
AcDbLine
 10
177.455
 20
111.4103
 30
0.0
 11
179.6459999999999
 21
109.7298
 31
0.0
  0
LINE
  5
AE
330
1E
100
AcDbEntity
  8
0
100
AcDbLine
 10
178.589
 20
112.7762
 30
0.0
 11
180.337
 21
111.0557
 31
0.0
  0
LINE
  5
B0
330
1E
100
AcDbEntity
  8
0
100
AcDbLine
 10
179.6459999999999
 20
109.7298
 30
0.0
 11
182.2209999999999
 21
108.6297999999999
 31
0.0
  0
LINE
  5
B4
330
1E
100
AcDbEntity
  8
0
100
AcDbLine
 10
172.773
 20
115.762
 30
0.0
 11
174.0459999999999
 21
112.6756
 31
0.0
  0
LINE
  5
B6
330
1E
100
AcDbEntity
  8
0
100
AcDbLine
 10
174.654
 20
116.26
 30
0.0
 11
175.7309999999999
 21
113.6486
 31
0.0
  0
LINE
  5
B8
330
1E
100
AcDbEntity
  8
0
100
AcDbLine
 10
175.7309999999999
 20
113.6486
 30
0.0
 11
177.455
 21
111.4103
 31
0.0
  0
LINE
  5
BB
330
1E
100
AcDbEntity
  8
0
100
AcDbLine
 10
176.8319999999999
 20
114.5062999999999
 30
0.0
 11
178.589
 21
112.7762
 31
0.0
  0
LINE
  5
BD
330
1E
100
AcDbEntity
  8
0
100
AcDbLine
 10
175.602
 20
115.7179999999999
 30
0.0
 11
176.8319999999999
 21
114.5062999999999
 31
0.0
  0
LINE
  5
C3
330
1E
100
AcDbEntity
  8
0
100
AcDbLine
 10
175.16
 20
116.1529999999999
 30
0.0
 11
175.602
 21
115.7179999999999
 31
0.0
  0
LINE
  5
C4
330
1E
100
AcDbEntity
  8
0
100
AcDbLine
 10
175.009
 20
116.487
 30
0.0
 11
175.164
 21
117.066
 31
0.0
  0
LINE
  5
C5
330
1E
100
AcDbEntity
  8
0
100
AcDbLine
 10
175.009
 20
116.487
 30
0.0
 11
175.16
 21
116.1529999999999
 31
0.0
  0
LINE
  5
C8
330
1E
100
AcDbEntity
  8
0
100
AcDbLine
 10
172.3479999999999
 20
118.998
 30
0.0
 11
172.773
 21
115.762
 31
0.0
  0
LINE
  5
C9
330
1E
100
AcDbEntity
  8
0
100
AcDbLine
 10
172.3479999999999
 20
118.998
 30
0.0
 11
172.744
 21
122.2839999999999
 31
0.0
  0
LINE
  5
CA
330
1E
100
AcDbEntity
  8
0
100
AcDbLine
 10
174.2949999999999
 20
118.9989999999999
 30
0.0
 11
174.654
 21
116.26
 31
0.0
  0
LINE
  5
CB
330
1E
100
AcDbEntity
  8
0
100
AcDbLine
 10
174.2949999999999
 20
118.9989999999999
 30
0.0
 11
174.6299999999999
 21
121.7789999999999
 31
0.0
  0
LINE
  5
CC
330
1E
100
AcDbEntity
  8
0
100
AcDbLine
 10
175.164
 20
117.066
 30
0.0
 11
175.714
 21
119.117
 31
0.0
  0
LINE
  5
CE
330
1E
100
AcDbEntity
  8
0
100
AcDbLine
 10
177.214
 20
118.9989999999999
 30
0.0
 11
177.476
 21
117.007
 31
0.0
  0
LINE
  5
CF
330
1E
100
AcDbEntity
  8
0
100
AcDbLine
 10
177.214
 20
118.9989999999999
 30
0.0
 11
177.458
 21
121.021
 31
0.0
  0
LINE
  5
D0
330
1E
100
AcDbEntity
  8
0
100
AcDbLine
 10
177.476
 20
117.007
 30
0.0
 11
178.259
 21
115.1079999999999
 31
0.0
  0
LINE
  5
D1
330
1E
100
AcDbEntity
  8
0
100
AcDbLine
 10
177.2659999999999
 20
116.964
 30
0.0
 11
178.0629999999999
 21
114.9949
 31
0.0
  0
LINE
  5
D2
330
1E
100
AcDbEntity
  8
0
100
AcDbLine
 10
178.259
 20
115.1079999999999
 30
0.0
 11
179.512
 21
113.4802
 31
0.0
  0
LINE
  5
D3
330
1E
100
AcDbEntity
  8
0
100
AcDbLine
 10
179.512
 20
113.4802
 30
0.0
 11
181.1059999999999
 21
112.2579999999999
 31
0.0
  0
LINE
  5
D4
330
1E
100
AcDbEntity
  8
0
100
AcDbLine
 10
178.0629999999999
 20
114.9949
 30
0.0
 11
179.37
 21
113.3195999999999
 31
0.0
  0
LINE
  5
D5
330
1E
100
AcDbEntity
  8
0
100
AcDbLine
 10
179.37
 20
113.3195999999999
 30
0.0
 11
181.0259999999999
 21
112.0808
 31
0.0
  0
LINE
  5
D6
330
1E
100
AcDbEntity
  8
0
100
AcDbLine
 10
180.134
 20
118.9989999999999
 30
0.0
 11
180.297
 21
117.7549999999999
 31
0.0
  0
LINE
  5
D7
330
1E
100
AcDbEntity
  8
0
100
AcDbLine
 10
180.134
 20
118.9989999999999
 30
0.0
 11
180.2859999999999
 21
120.2629999999999
 31
0.0
  0
LINE
  5
DE
330
1E
100
AcDbEntity
  8
0
100
AcDbLine
 10
175.714
 20
119.117
 30
0.0
 11
176.307
 21
121.3289999999999
 31
0.0
  0
LINE
  5
E2
330
1E
100
AcDbEntity
  8
0
100
AcDbLine
 10
177.0209999999999
 20
119.0179999999999
 30
0.0
 11
177.2659999999999
 21
116.964
 31
0.0
  0
LINE
  5
E3
330
1E
100
AcDbEntity
  8
0
100
AcDbLine
 10
177.0209999999999
 20
119.0179999999999
 30
0.0
 11
177.2729999999999
 21
121.0709999999999
 31
0.0
  0
LINE
  5
E8
330
1E
100
AcDbEntity
  8
0
100
AcDbLine
 10
176.307
 20
121.3289999999999
 30
0.0
 11
176.9
 21
123.5419999999999
 31
0.0
  0
LINE
  5
E9
330
1E
100
AcDbEntity
  8
0
100
AcDbLine
 10
177.2729999999999
 20
121.0709999999999
 30
0.0
 11
178.0809999999999
 21
122.9739999999999
 31
0.0
  0
LINE
  5
EA
330
1E
100
AcDbEntity
  8
0
100
AcDbLine
 10
177.458
 20
121.021
 30
0.0
 11
178.2579999999999
 21
122.8939999999999
 31
0.0
  0
LINE
  5
ED
330
1E
100
AcDbEntity
  8
0
100
AcDbLine
 10
180.337
 20
111.0557
 30
0.0
 11
181.4359999999999
 21
109.9980999999999
 31
0.0
  0
LINE
  5
F0
330
1E
100
AcDbEntity
  8
0
100
AcDbLine
 10
180.297
 20
117.7549999999999
 30
0.0
 11
180.787
 21
116.568
 31
0.0
  0
LINE
  5
F2
330
1E
100
AcDbEntity
  8
0
100
AcDbLine
 10
180.2859999999999
 20
120.2629999999999
 30
0.0
 11
180.7859999999999
 21
121.4339999999999
 31
0.0
  0
LINE
  5
F4
330
1E
100
AcDbEntity
  8
0
100
AcDbLine
 10
172.744
 20
122.2839999999999
 30
0.0
 11
174.044
 21
125.327
 31
0.0
  0
LINE
  5
F6
330
1E
100
AcDbEntity
  8
0
100
AcDbLine
 10
174.6299999999999
 20
121.7789999999999
 30
0.0
 11
175.7299999999999
 21
124.354
 31
0.0
  0
LINE
  5
F9
330
1E
100
AcDbEntity
  8
0
100
AcDbLine
 10
181.4359999999999
 20
109.9980999999999
 30
0.0
 11
182.4709999999999
 21
109.5603
 31
0.0
  0
LINE
  5
FA
330
1E
100
AcDbEntity
  8
0
100
AcDbLine
 10
181.1059999999999
 20
112.2579999999999
 30
0.0
 11
182.979
 21
111.4581
 31
0.0
  0
LINE
  5
FB
330
1E
100
AcDbEntity
  8
0
100
AcDbLine
 10
181.0259999999999
 20
112.0808
 30
0.0
 11
182.929
 21
111.2726
 31
0.0
  0
LINE
  5
FC
330
1E
100
AcDbEntity
  8
0
100
AcDbLine
 10
180.787
 20
116.568
 30
0.0
 11
181.5699999999999
 21
115.5499999999999
 31
0.0
  0
LINE
  5
FD
330
1E
100
AcDbEntity
  8
0
100
AcDbLine
 10
180.7859999999999
 20
121.4339999999999
 30
0.0
 11
181.55
 21
122.43
 31
0.0
  0
LINE
  5
FF
330
1E
100
AcDbEntity
  8
0
100
AcDbLine
 10
178.2579999999999
 20
122.8939999999999
 30
0.0
 11
179.4799999999999
 21
124.4879999999999
 31
0.0
  0
LINE
  5
100
330
1E
100
AcDbEntity
  8
0
100
AcDbLine
 10
178.0809999999999
 20
122.9739999999999
 30
0.0
 11
179.3199999999999
 21
124.6299999999999
 31
0.0
  0
LINE
  5
102
330
1E
100
AcDbEntity
  8
0
100
AcDbLine
 10
181.7159999999999
 20
106.7442999999999
 30
0.0
 11
185.002
 21
106.3485
 31
0.0
  0
LINE
  5
103
330
1E
100
AcDbEntity
  8
0
100
AcDbLine
 10
182.2209999999999
 20
108.6297999999999
 30
0.0
 11
185.0009999999999
 21
108.2948999999999
 31
0.0
  0
LINE
  5
108
330
1E
100
AcDbEntity
  8
0
100
AcDbLine
 10
182.4709999999999
 20
109.5603
 30
0.0
 11
183.585
 21
109.4223
 31
0.0
  0
LINE
  5
10A
330
1E
100
AcDbEntity
  8
0
100
AcDbLine
 10
181.5699999999999
 20
115.5499999999999
 30
0.0
 11
182.5659999999999
 21
114.7863
 31
0.0
  0
LINE
  5
10B
330
1E
100
AcDbEntity
  8
0
100
AcDbLine
 10
182.5659999999999
 20
114.7863
 30
0.0
 11
183.7369999999999
 21
114.2862999999999
 31
0.0
  0
LINE
  5
10D
330
1E
100
AcDbEntity
  8
0
100
AcDbLine
 10
181.55
 20
122.43
 30
0.0
 11
182.568
 21
123.2129999999999
 31
0.0
  0
LINE
  5
10E
330
1E
100
AcDbEntity
  8
0
100
AcDbLine
 10
176.9
 20
123.5419999999999
 30
0.0
 11
177.449
 21
125.592
 31
0.0
  0
LINE
  5
115
330
1E
100
AcDbEntity
  8
0
100
AcDbLine
 10
183.585
 20
109.4223
 30
0.0
 11
185.0659999999999
 21
109.7884999999999
 31
0.0
  0
LINE
  5
118
330
1E
100
AcDbEntity
  8
0
100
AcDbLine
 10
184.982
 20
111.0207
 30
0.0
 11
187.0359999999999
 21
111.2656
 31
0.0
  0
LINE
  5
119
330
1E
100
AcDbEntity
  8
0
100
AcDbLine
 10
182.979
 20
111.4581
 30
0.0
 11
185.0009999999999
 21
111.2144999999999
 31
0.0
  0
LINE
  5
11A
330
1E
100
AcDbEntity
  8
0
100
AcDbLine
 10
182.929
 20
111.2726
 30
0.0
 11
184.982
 21
111.0207
 31
0.0
  0
LINE
  5
11B
330
1E
100
AcDbEntity
  8
0
100
AcDbLine
 10
185.002
 20
106.3485
 30
0.0
 11
188.2379999999999
 21
106.7733999999999
 31
0.0
  0
LINE
  5
11C
330
1E
100
AcDbEntity
  8
0
100
AcDbLine
 10
185.0009999999999
 20
108.2948999999999
 30
0.0
 11
187.74
 21
108.6543999999999
 31
0.0
  0
LINE
  5
11E
330
1E
100
AcDbEntity
  8
0
100
AcDbLine
 10
185.0659999999999
 20
109.7884999999999
 30
0.0
 11
187.4399999999999
 21
110.4047999999999
 31
0.0
  0
LINE
  5
121
330
1E
100
AcDbEntity
  8
0
100
AcDbLine
 10
186.993
 20
111.4759
 30
0.0
 11
188.8919999999999
 21
112.2589999999999
 31
0.0
  0
LINE
  5
122
330
1E
100
AcDbEntity
  8
0
100
AcDbLine
 10
185.0009999999999
 20
111.2144999999999
 30
0.0
 11
186.993
 21
111.4759
 31
0.0
  0
LINE
  5
125
330
1E
100
AcDbEntity
  8
0
100
AcDbLine
 10
187.0359999999999
 20
111.2656
 30
0.0
 11
189.005
 21
112.063
 31
0.0
  0
LINE
  5
126
330
1E
100
AcDbEntity
  8
0
100
AcDbLine
 10
185.0009999999999
 20
114.134
 30
0.0
 11
186.245
 21
114.2973999999999
 31
0.0
  0
LINE
  5
128
330
1E
100
AcDbEntity
  8
0
100
AcDbLine
 10
187.432
 20
114.7869
 30
0.0
 11
188.4499999999999
 21
115.5699999999999
 31
0.0
  0
LINE
  5
129
330
1E
100
AcDbEntity
  8
0
100
AcDbLine
 10
186.245
 20
114.2973999999999
 30
0.0
 11
187.432
 21
114.7869
 31
0.0
  0
LINE
  5
12A
330
1E
100
AcDbEntity
  8
0
100
AcDbLine
 10
183.7369999999999
 20
114.2862999999999
 30
0.0
 11
185.0009999999999
 21
114.134
 31
0.0
  0
LINE
  5
12C
330
1E
100
AcDbEntity
  8
0
100
AcDbLine
 10
182.568
 20
123.2129999999999
 30
0.0
 11
183.755
 21
123.7029999999999
 31
0.0
  0
LINE
  5
12D
330
1E
100
AcDbEntity
  8
0
100
AcDbLine
 10
183.755
 20
123.7029999999999
 30
0.0
 11
184.999
 21
123.866
 31
0.0
  0
LINE
  5
12E
330
1E
100
AcDbEntity
  8
0
100
AcDbLine
 10
188.2379999999999
 20
106.7733999999999
 30
0.0
 11
191.324
 21
108.0459
 31
0.0
  0
LINE
  5
130
330
1E
100
AcDbEntity
  8
0
100
AcDbLine
 10
187.74
 20
108.6543999999999
 30
0.0
 11
190.3509999999999
 21
109.7310999999999
 31
0.0
  0
LINE
  5
131
330
1E
100
AcDbEntity
  8
0
100
AcDbLine
 10
187.4399999999999
 20
110.4047999999999
 30
0.0
 11
189.827
 21
111.0245
 31
0.0
  0
LINE
  5
133
330
1E
100
AcDbEntity
  8
0
100
AcDbLine
 10
188.8919999999999
 20
112.2589999999999
 30
0.0
 11
190.52
 21
113.5124
 31
0.0
  0
LINE
  5
134
330
1E
100
AcDbEntity
  8
0
100
AcDbLine
 10
189.005
 20
112.063
 30
0.0
 11
190.68
 21
113.37
 31
0.0
  0
LINE
  5
135
330
1E
100
AcDbEntity
  8
0
100
AcDbLine
 10
188.4499999999999
 20
115.5699999999999
 30
0.0
 11
189.214
 21
116.566
 31
0.0
  0
LINE
  5
138
330
1E
100
AcDbEntity
  8
0
100
AcDbLine
 10
189.214
 20
116.566
 30
0.0
 11
189.714
 21
117.737
 31
0.0
  0
LINE
  5
13B
330
1E
100
AcDbEntity
  8
0
100
AcDbLine
 10
189.827
 20
111.0245
 30
0.0
 11
191.4979999999999
 21
111.4584999999999
 31
0.0
  0
LINE
  5
13F
330
1E
100
AcDbEntity
  8
0
100
AcDbLine
 10
189.714
 20
117.737
 30
0.0
 11
189.8659999999999
 21
119.001
 31
0.0
  0
LINE
  5
141
330
1E
100
AcDbEntity
  8
0
100
AcDbLine
 10
189.7029999999999
 20
120.245
 30
0.0
 11
189.8659999999999
 21
119.001
 31
0.0
  0
LINE
  5
142
330
1E
100
AcDbEntity
  8
0
100
AcDbLine
 10
190.3509999999999
 20
109.7310999999999
 30
0.0
 11
192.59
 21
111.4544999999999
 31
0.0
  0
LINE
  5
143
330
1E
100
AcDbEntity
  8
0
100
AcDbLine
 10
191.324
 20
108.0459
 30
0.0
 11
193.97
 21
110.0826
 31
0.0
  0
LINE
  5
149
330
1E
100
AcDbEntity
  8
0
100
AcDbLine
 10
192.099
 20
111.6143
 30
0.0
 11
192.3959999999999
 21
111.8287
 31
0.0
  0
LINE
  5
14E
330
1E
100
AcDbEntity
  8
0
100
AcDbLine
 10
192.3959999999999
 20
111.8287
 30
0.0
 11
192.5509999999999
 21
112.4076
 31
0.0
  0
LINE
  5
14F
330
1E
100
AcDbEntity
  8
0
100
AcDbLine
 10
191.4979999999999
 20
111.4584999999999
 30
0.0
 11
192.099
 21
111.6143
 31
0.0
  0
LINE
  5
152
330
1E
100
AcDbEntity
  8
0
100
AcDbLine
 10
191.742
 20
115.106
 30
0.0
 11
192.542
 21
116.979
 31
0.0
  0
LINE
  5
153
330
1E
100
AcDbEntity
  8
0
100
AcDbLine
 10
190.52
 20
113.5124
 30
0.0
 11
191.742
 21
115.106
 31
0.0
  0
LINE
  5
154
330
1E
100
AcDbEntity
  8
0
100
AcDbLine
 10
191.919
 20
115.026
 30
0.0
 11
192.727
 21
116.9289999999999
 31
0.0
  0
LINE
  5
155
330
1E
100
AcDbEntity
  8
0
100
AcDbLine
 10
190.68
 20
113.37
 30
0.0
 11
191.919
 21
115.026
 31
0.0
  0
LINE
  5
156
330
1E
100
AcDbEntity
  8
0
100
AcDbLine
 10
192.59
 20
111.4544999999999
 30
0.0
 11
194.27
 21
113.6463
 31
0.0
  0
LINE
  5
158
330
1E
100
AcDbEntity
  8
0
100
AcDbLine
 10
192.5509999999999
 20
112.4076
 30
0.0
 11
193.1
 21
114.4578
 31
0.0
  0
LINE
  5
15B
330
1E
100
AcDbEntity
  8
0
100
AcDbLine
 10
193.1
 20
114.4578
 30
0.0
 11
193.6929999999999
 21
116.671
 31
0.0
  0
LINE
  5
15C
330
1E
100
AcDbEntity
  8
0
100
AcDbLine
 10
193.97
 20
110.0826
 30
0.0
 11
195.9559999999999
 21
112.6729
 31
0.0
  0
LINE
  5
15E
330
1E
100
AcDbEntity
  8
0
100
AcDbLine
 10
194.27
 20
113.6463
 30
0.0
 11
195.3699999999999
 21
116.2209999999999
 31
0.0
  0
LINE
  5
160
330
1E
100
AcDbEntity
  8
0
100
AcDbLine
 10
193.6929999999999
 20
116.671
 30
0.0
 11
194.2859999999999
 21
118.883
 31
0.0
  0
LINE
  5
162
330
1E
100
AcDbEntity
  8
0
100
AcDbLine
 10
194.8359999999999
 20
120.934
 30
0.0
 11
194.9909999999999
 21
121.5119999999999
 31
0.0
  0
LINE
  5
163
330
1E
100
AcDbEntity
  8
0
100
AcDbLine
 10
194.2859999999999
 20
118.883
 30
0.0
 11
194.8359999999999
 21
120.934
 31
0.0
  0
LINE
  5
164
330
1E
100
AcDbEntity
  8
0
100
AcDbLine
 10
192.542
 20
116.979
 30
0.0
 11
192.7859999999999
 21
119.001
 31
0.0
  0
LINE
  5
165
330
1E
100
AcDbEntity
  8
0
100
AcDbLine
 10
192.727
 20
116.9289999999999
 30
0.0
 11
192.979
 21
118.982
 31
0.0
  0
LINE
  5
166
330
1E
100
AcDbEntity
  8
0
100
AcDbLine
 10
192.524
 20
120.9929999999999
 30
0.0
 11
192.7859999999999
 21
119.001
 31
0.0
  0
LINE
  5
16D
330
1E
100
AcDbEntity
  8
0
100
AcDbLine
 10
192.734
 20
121.036
 30
0.0
 11
192.979
 21
118.982
 31
0.0
  0
LINE
  5
16F
330
1E
100
AcDbEntity
  8
0
100
AcDbLine
 10
194.84
 20
121.847
 30
0.0
 11
194.9909999999999
 21
121.5119999999999
 31
0.0
  0
LINE
  5
170
330
1E
100
AcDbEntity
  8
0
100
AcDbLine
 10
194.3979999999999
 20
122.282
 30
0.0
 11
194.84
 21
121.847
 31
0.0
  0
LINE
  5
174
330
1E
100
AcDbEntity
  8
0
100
AcDbLine
 10
189.2129999999999
 20
121.432
 30
0.0
 11
189.7029999999999
 21
120.245
 31
0.0
  0
LINE
  5
176
330
1E
100
AcDbEntity
  8
0
100
AcDbLine
 10
193.168
 20
123.4939999999999
 30
0.0
 11
194.3979999999999
 21
122.282
 31
0.0
  0
LINE
  5
179
330
1E
100
AcDbEntity
  8
0
100
AcDbLine
 10
191.937
 20
123.005
 30
0.0
 11
192.734
 21
121.036
 31
0.0
  0
LINE
  5
17A
330
1E
100
AcDbEntity
  8
0
100
AcDbLine
 10
191.7409999999999
 20
122.892
 30
0.0
 11
192.524
 21
120.9929999999999
 31
0.0
  0
LINE
  5
17C
330
1E
100
AcDbEntity
  8
0
100
AcDbLine
 10
188.4299999999999
 20
122.45
 30
0.0
 11
189.2129999999999
 21
121.432
 31
0.0
  0
LINE
  5
17D
330
1E
100
AcDbEntity
  8
0
100
AcDbLine
 10
187.434
 20
123.214
 30
0.0
 11
188.4299999999999
 21
122.45
 31
0.0
  0
LINE
  5
17F
330
1E
100
AcDbEntity
  8
0
100
AcDbLine
 10
184.999
 20
123.866
 30
0.0
 11
186.263
 21
123.7139999999999
 31
0.0
  0
LINE
  5
181
330
1E
100
AcDbEntity
  8
0
100
AcDbLine
 10
186.263
 20
123.7139999999999
 30
0.0
 11
187.434
 21
123.214
 31
0.0
  0
LINE
  5
182
330
1E
100
AcDbEntity
  8
0
100
AcDbLine
 10
170.925
 20
104.7989999999999
 30
0.0
 11
175.064
 21
101.7020999999999
 31
0.0
  0
LINE
  5
183
330
1E
100
AcDbEntity
  8
0
100
AcDbLine
 10
175.064
 20
101.7020999999999
 30
0.0
 11
179.824
 21
99.68150000000001
 31
0.0
  0
LINE
  5
184
330
1E
100
AcDbEntity
  8
0
100
AcDbLine
 10
200.1347293702929
 20
106.172937690774
 30
0.0
 11
201.41
 21
106.4723
 31
0.0
  0
LINE
  5
185
330
1E
100
AcDbEntity
  8
0
100
AcDbLine
 10
195.9559999999999
 20
112.6729
 30
0.0
 11
197.2559999999999
 21
115.716
 31
0.0
  0
LINE
  5
187
330
1E
100
AcDbEntity
  8
0
100
AcDbLine
 10
197.2559999999999
 20
115.716
 30
0.0
 11
197.652
 21
119.002
 31
0.0
  0
LINE
  5
18A
330
1E
100
AcDbEntity
  8
0
100
AcDbLine
 10
195.3699999999999
 20
116.2209999999999
 30
0.0
 11
195.705
 21
119.001
 31
0.0
  0
LINE
  5
18B
330
1E
100
AcDbEntity
  8
0
100
AcDbLine
 10
195.3459999999999
 20
121.74
 30
0.0
 11
195.705
 21
119.001
 31
0.0
  0
LINE
  5
18D
330
1E
100
AcDbEntity
  8
0
100
AcDbLine
 10
197.227
 20
122.238
 30
0.0
 11
197.652
 21
119.002
 31
0.0
  0
LINE
  5
18F
330
1E
100
AcDbEntity
  8
0
100
AcDbLine
 10
201.41
 20
106.4723
 30
0.0
 11
208.0629999999999
 21
108.0339999999999
 31
0.0
  0
LINE
  5
191
330
1E
100
AcDbEntity
  8
0
100
AcDbLine
 10
202.9419192899399
 20
110.580748681189
 30
0.0
 11
203.047
 21
110.6825999999999
 31
0.0
  0
LINE
  5
192
330
1E
100
AcDbEntity
  8
0
100
AcDbLine
 10
204.057
 20
111.4546
 30
0.0
 11
204.801
 21
112.4354
 31
0.0
  0
LINE
  5
193
330
1E
100
AcDbEntity
  8
0
100
AcDbLine
 10
203.047
 20
110.6825999999999
 30
0.0
 11
204.057
 21
111.4546
 31
0.0
  0
LINE
  5
194
330
1E
100
AcDbEntity
  8
0
100
AcDbLine
 10
202.298
 20
109.0644
 30
0.0
 11
204.319
 21
113.8236
 31
0.0
  0
LINE
  5
195
330
1E
100
AcDbEntity
  8
0
100
AcDbLine
 10
199.201
 20
104.9248999999999
 30
0.0
 11
202.298
 21
109.0644
 31
0.0
  0
LINE
  5
196
330
1E
100
AcDbEntity
  8
0
100
AcDbLine
 10
195.013
 20
101.6576
 30
0.0
 11
199.201
 21
104.9248999999999
 31
0.0
  0
LINE
  5
197
330
1E
100
AcDbEntity
  8
0
100
AcDbLine
 10
179.824
 20
99.68150000000001
 30
0.0
 11
184.9559999999999
 21
99.05180000000001
 31
0.0
  0
LINE
  5
198
330
1E
100
AcDbEntity
  8
0
100
AcDbLine
 10
204.6089999999999
 20
92.8428
 30
0.0
 11
211.262
 21
94.4045
 31
0.0
  0
LINE
  5
199
330
1E
100
AcDbEntity
  8
0
100
AcDbLine
 10
204.7879999999999
 20
117.179
 30
0.0
 11
205.2759999999999
 21
116.006
 31
0.0
  0
LINE
  5
19A
330
1E
100
AcDbEntity
  8
0
100
AcDbLine
 10
204.747611630176
 20
117.320907362031
 30
0.0
 11
204.7879999999999
 21
117.179
 31
0.0
  0
LINE
  5
19B
330
1E
100
AcDbEntity
  8
0
100
AcDbLine
 10
211.262
 20
94.4045
 30
0.0
 11
219.932
 21
96.4398
 31
0.0
  0
LINE
  5
19C
330
1E
100
AcDbEntity
  8
0
100
AcDbLine
 10
230.0279999999999
 20
98.8098
 30
0.0
 11
240.863
 21
101.3533
 31
0.0
  0
LINE
  5
19D
330
1E
100
AcDbEntity
  8
0
100
AcDbLine
 10
219.932
 20
96.4398
 30
0.0
 11
230.0279999999999
 21
98.8098
 31
0.0
  0
LINE
  5
19E
330
1E
100
AcDbEntity
  8
0
100
AcDbLine
 10
216.902
 20
81.9472
 30
0.0
 11
286.868568354427
 21
100.8837754830659
 31
0.0
  0
LINE
  5
19F
330
1E
100
AcDbEntity
  8
0
100
AcDbLine
 10
206.152
 20
79.0667
 30
0.0
 11
216.902
 21
81.9472
 31
0.0
  0
LINE
  5
1A0
330
1E
100
AcDbEntity
  8
0
100
AcDbLine
 10
244.368
 20
100.9334
 30
0.0
 11
259.1400445485569
 21
103.538127855166
 31
0.0
  0
LINE
  5
1A1
330
1E
100
AcDbEntity
  8
0
100
AcDbLine
 10
259.606
 20
100.8947
 30
0.0
 11
259.762
 21
100.6013999999999
 31
0.0
  0
LINE
  5
1A5
330
1E
100
AcDbEntity
  8
0
100
AcDbLine
 10
259.762
 20
100.6013999999999
 30
0.0
 11
263.62
 21
101.2817999999999
 31
0.0
  0
LINE
  5
1A6
330
1E
100
AcDbEntity
  8
0
100
AcDbLine
 10
240.863
 20
101.3533
 30
0.0
 11
244.1578604678219
 21
102.12678273814
 31
0.0
  0
LINE
  5
1A7
330
1E
100
AcDbEntity
  8
0
100
AcDbLine
 10
244.3119999999999
 20
101.2524999999999
 30
0.0
 11
244.368
 21
100.9334
 31
0.0
  0
LINE
  5
1A9
330
1E
100
AcDbEntity
  8
0
100
AcDbLine
 10
259.5289999999999
 20
101.3301
 30
0.0
 11
259.606
 21
100.8947
 31
0.0
  0
LINE
  5
1AA
330
1E
100
AcDbEntity
  8
0
100
AcDbLine
 10
244.1619999999999
 20
102.1033
 30
0.0
 11
244.3119999999999
 21
101.2524999999999
 31
0.0
  0
LINE
  5
1AB
330
1E
100
AcDbEntity
  8
0
100
AcDbLine
 10
243.9119999999999
 20
103.5214999999999
 30
0.0
 11
244.1619999999999
 21
102.1033
 31
0.0
  0
LINE
  5
1AC
330
1E
100
AcDbEntity
  8
0
100
AcDbLine
 10
243.5799999999999
 20
105.4004999999999
 30
0.0
 11
243.9119999999999
 21
103.5214999999999
 31
0.0
  0
LINE
  5
1AD
330
1E
100
AcDbEntity
  8
0
100
AcDbLine
 10
208.0629999999999
 20
108.0339999999999
 30
0.0
 11
216.732
 21
110.0692999999999
 31
0.0
  0
LINE
  5
1AE
330
1E
100
AcDbEntity
  8
0
100
AcDbLine
 10
243.205
 20
107.5276
 30
0.0
 11
243.5799999999999
 21
105.4004999999999
 31
0.0
  0
LINE
  5
1BA
330
1E
100
AcDbEntity
  8
0
100
AcDbLine
 10
242.805
 20
109.7965999999999
 30
0.0
 11
243.205
 21
107.5276
 31
0.0
  0
LINE
  5
1C8
330
1E
100
AcDbEntity
  8
0
100
AcDbLine
 10
216.732
 20
110.0692999999999
 30
0.0
 11
226.8289999999999
 21
112.4392999999999
 31
0.0
  0
LINE
  5
1C9
330
1E
100
AcDbEntity
  8
0
100
AcDbLine
 10
242.405
 20
112.0656
 30
0.0
 11
242.805
 21
109.7965999999999
 31
0.0
  0
LINE
  5
1CA
330
1E
100
AcDbEntity
  8
0
100
AcDbLine
 10
226.8289999999999
 20
112.4392999999999
 30
0.0
 11
237.663
 21
114.9828
 31
0.0
  0
LINE
  5
1DE
330
1E
100
AcDbEntity
  8
0
100
AcDbLine
 10
263.62
 20
101.2817999999999
 30
0.0
 11
264.625
 21
101.459
 31
0.0
  0
LINE
  5
1E1
330
1E
100
AcDbEntity
  8
0
100
AcDbLine
 10
264.625
 20
101.459
 30
0.0
 11
281.400549945784
 21
104.416943437145
 31
0.0
  0
LINE
  5
1E4
330
1E
100
AcDbEntity
  8
0
100
AcDbLine
 10
204.9809999999999
 20
112.8508999999999
 30
0.0
 11
205.284
 21
113.5647999999999
 31
0.0
  0
LINE
  5
1E5
330
1E
100
AcDbEntity
  8
0
100
AcDbLine
 10
242.03
 20
114.1928
 30
0.0
 11
242.405
 21
112.0656
 31
0.0
  0
LINE
  5
1EA
330
1E
100
AcDbEntity
  8
0
100
AcDbLine
 10
237.663
 20
114.9828
 30
0.0
 11
241.723000744637
 21
115.9357395790899
 31
0.0
  0
LINE
  5
1EB
330
1E
100
AcDbEntity
  8
0
100
AcDbLine
 10
241.299
 20
118.341
 30
0.0
 11
241.449
 21
117.49
 31
0.0
  0
LINE
  5
1EC
330
1E
100
AcDbEntity
  8
0
100
AcDbLine
 10
241.449
 20
117.49
 30
0.0
 11
241.699
 21
116.0719999999999
 31
0.0
  0
LINE
  5
1ED
330
1E
100
AcDbEntity
  8
0
100
AcDbLine
 10
241.699
 20
116.0719999999999
 30
0.0
 11
241.723000744637
 21
115.9357395790899
 31
0.0
  0
LINE
  5
1EE
330
1E
100
AcDbEntity
  8
0
100
AcDbLine
 10
241.699
 20
116.0719999999999
 30
0.0
 11
242.03
 21
114.1928
 31
0.0
  0
LINE
  5
1EF
330
1E
100
AcDbEntity
  8
0
100
AcDbLine
 10
256.5679999999999
 20
118.124
 30
0.0
 11
259.5289999999999
 21
101.3301
 31
0.0
  0
LINE
  5
1F7
330
1E
100
AcDbEntity
  8
0
100
AcDbLine
 10
241.242
 20
118.66
 30
0.0
 11
256.014749753768
 21
121.264626403522
 31
0.0
  0
LINE
  5
1F8
330
1E
100
AcDbEntity
  8
0
100
AcDbLine
 10
241.242
 20
118.66
 30
0.0
 11
241.299
 21
118.341
 31
0.0
  0
LINE
  5
205
330
1E
100
AcDbEntity
  8
0
100
AcDbLine
 10
205.2759999999999
 20
116.006
 30
0.0
 11
205.431
 21
114.7845
 31
0.0
  0
LINE
  5
206
330
1E
100
AcDbEntity
  8
0
100
AcDbLine
 10
205.284
 20
113.5647999999999
 30
0.0
 11
205.431
 21
114.7845
 31
0.0
  0
LINE
  5
207
330
1E
100
AcDbEntity
  8
0
100
AcDbLine
 10
205.284
 20
113.5647999999999
 30
0.0
 11
205.379
 21
114.3345999999999
 31
0.0
  0
LINE
  5
208
330
1E
100
AcDbEntity
  8
0
100
AcDbLine
 10
204.801
 20
112.4354
 30
0.0
 11
205.284
 21
113.5647999999999
 31
0.0
  0
LINE
  5
20F
330
1E
100
AcDbEntity
  8
0
100
AcDbLine
 10
405.044
 20
99.05180000000001
 30
0.0
 11
410.1759999999999
 21
99.68150000000001
 31
0.0
  0
LINE
  5
210
330
1E
100
AcDbEntity
  8
0
100
AcDbLine
 10
293.3059999999999
 20
99.1238
 30
0.0
 11
298.473
 21
99.30379999999999
 31
0.0
  0
LINE
  5
21B
330
1E
100
AcDbEntity
  8
0
100
AcDbLine
 10
282.9639999999999
 20
106.9639999999999
 30
0.0
 11
286.5679999999999
 21
104.244
 31
0.0
  0
LINE
  5
21C
330
1E
100
AcDbEntity
  8
0
100
AcDbLine
 10
280.244
 20
110.5679999999999
 30
0.0
 11
282.9639999999999
 21
106.9639999999999
 31
0.0
  0
LINE
  5
21D
330
1E
100
AcDbEntity
  8
0
100
AcDbLine
 10
278.0
 20
119.0
 30
0.0
 11
278.612
 21
123.352
 31
0.0
  0
LINE
  5
21E
330
1E
100
AcDbEntity
  8
0
100
AcDbLine
 10
278.0
 20
119.0
 30
0.0
 11
278.612
 21
114.6479999999999
 31
0.0
  0
LINE
  5
21F
330
1E
100
AcDbEntity
  8
0
100
AcDbLine
 10
278.612
 20
114.6479999999999
 30
0.0
 11
280.244
 21
110.5679999999999
 31
0.0
  0
LINE
  5
220
330
1E
100
AcDbEntity
  8
0
100
AcDbLine
 10
276.9019999999999
 20
110.6098
 30
0.0
 11
279.6259999999999
 21
106.2162
 31
0.0
  0
LINE
  5
221
330
1E
100
AcDbEntity
  8
0
100
AcDbLine
 10
279.6259999999999
 20
106.2162
 30
0.0
 11
283.5139999999999
 21
102.5962999999999
 31
0.0
  0
LINE
  5
224
330
1E
100
AcDbEntity
  8
0
100
AcDbLine
 10
295.0
 20
102.0
 30
0.0
 11
299.352
 21
102.612
 31
0.0
  0
LINE
  5
225
330
1E
100
AcDbEntity
  8
0
100
AcDbLine
 10
290.6479999999999
 20
102.612
 30
0.0
 11
295.0
 21
102.0
 31
0.0
  0
LINE
  5
226
330
1E
100
AcDbEntity
  8
0
100
AcDbLine
 10
286.5679999999999
 20
104.244
 30
0.0
 11
290.6479999999999
 21
102.612
 31
0.0
  0
LINE
  5
227
330
1E
100
AcDbEntity
  8
0
100
AcDbLine
 10
299.352
 20
102.612
 30
0.0
 11
303.432
 21
104.244
 31
0.0
  0
LINE
  5
228
330
1E
100
AcDbEntity
  8
0
100
AcDbLine
 10
283.5139999999999
 20
102.5962999999999
 30
0.0
 11
288.245
 21
100.1811
 31
0.0
  0
LINE
  5
229
330
1E
100
AcDbEntity
  8
0
100
AcDbLine
 10
288.245
 20
100.1811
 30
0.0
 11
293.3059999999999
 21
99.1238
 31
0.0
  0
LINE
  5
22C
330
1E
100
AcDbEntity
  8
0
100
AcDbLine
 10
394.9869999999999
 20
101.6576
 30
0.0
 11
399.9109999999999
 21
99.664
 31
0.0
  0
LINE
  5
22D
330
1E
100
AcDbEntity
  8
0
100
AcDbLine
 10
414.9359999999999
 20
101.7020999999999
 30
0.0
 11
419.0749999999999
 21
104.7989999999999
 31
0.0
  0
LINE
  5
22E
330
1E
100
AcDbEntity
  8
0
100
AcDbLine
 10
410.1759999999999
 20
99.68150000000001
 30
0.0
 11
414.9359999999999
 21
101.7020999999999
 31
0.0
  0
LINE
  5
22F
330
1E
100
AcDbEntity
  8
0
100
AcDbLine
 10
399.9109999999999
 20
99.664
 30
0.0
 11
405.044
 21
99.05180000000001
 31
0.0
  0
LINE
  5
230
330
1E
100
AcDbEntity
  8
0
100
AcDbLine
 10
303.432
 20
104.244
 30
0.0
 11
307.0359999999999
 21
106.9639999999999
 31
0.0
  0
LINE
  5
232
330
1E
100
AcDbEntity
  8
0
100
AcDbLine
 10
310.330209975825
 20
106.3608029069109
 30
0.0
 11
384.6296171864819
 21
115.262202537339
 31
0.0
  0
LINE
  5
234
330
1E
100
AcDbEntity
  8
0
100
AcDbLine
 10
307.0359999999999
 20
106.9639999999999
 30
0.0
 11
309.7559999999999
 21
110.5679999999999
 31
0.0
  0
LINE
  5
235
330
1E
100
AcDbEntity
  8
0
100
AcDbLine
 10
311.3879999999999
 20
114.6479999999999
 30
0.0
 11
312.0
 21
119.0
 31
0.0
  0
LINE
  5
236
330
1E
100
AcDbEntity
  8
0
100
AcDbLine
 10
309.7559999999999
 20
110.5679999999999
 30
0.0
 11
311.3879999999999
 21
114.6479999999999
 31
0.0
  0
LINE
  5
239
330
1E
100
AcDbEntity
  8
0
100
AcDbLine
 10
312.9963006863719
 20
110.6334588022209
 30
0.0
 11
313.047
 21
110.6825999999999
 31
0.0
  0
LINE
  5
23A
330
1E
100
AcDbEntity
  8
0
100
AcDbLine
 10
314.057
 20
111.4546
 30
0.0
 11
314.8009999999999
 21
112.4354
 31
0.0
  0
LINE
  5
23B
330
1E
100
AcDbEntity
  8
0
100
AcDbLine
 10
313.047
 20
110.6825999999999
 30
0.0
 11
314.057
 21
111.4546
 31
0.0
  0
LINE
  5
23C
330
1E
100
AcDbEntity
  8
0
100
AcDbLine
 10
386.953
 20
110.6825999999999
 30
0.0
 11
387.05808071006
 21
110.580748681189
 31
0.0
  0
LINE
  5
23D
330
1E
100
AcDbEntity
  8
0
100
AcDbLine
 10
385.943
 20
111.4546
 30
0.0
 11
386.953
 21
110.6825999999999
 31
0.0
  0
LINE
  5
23E
330
1E
100
AcDbEntity
  8
0
100
AcDbLine
 10
312.702509791356
 20
109.936274478391
 30
0.0
 11
334.2649999999999
 21
113.7383999999999
 31
0.0
  0
LINE
  5
240
330
1E
100
AcDbEntity
  8
0
100
AcDbLine
 10
387.7019999999999
 20
109.0644
 30
0.0
 11
390.799
 21
104.9248999999999
 31
0.0
  0
LINE
  5
241
330
1E
100
AcDbEntity
  8
0
100
AcDbLine
 10
404.998
 20
106.3485
 30
0.0
 11
408.284
 21
106.7442999999999
 31
0.0
  0
LINE
  5
242
330
1E
100
AcDbEntity
  8
0
100
AcDbLine
 10
398.6759999999999
 20
108.0459
 30
0.0
 11
401.7619999999999
 21
106.7733999999999
 31
0.0
  0
LINE
  5
243
330
1E
100
AcDbEntity
  8
0
100
AcDbLine
 10
401.7619999999999
 20
106.7733999999999
 30
0.0
 11
404.998
 21
106.3485
 31
0.0
  0
LINE
  5
246
330
1E
100
AcDbEntity
  8
0
100
AcDbLine
 10
404.999
 20
108.2948999999999
 30
0.0
 11
407.779
 21
108.6297999999999
 31
0.0
  0
LINE
  5
247
330
1E
100
AcDbEntity
  8
0
100
AcDbLine
 10
402.2599999999999
 20
108.6543999999999
 30
0.0
 11
404.999
 21
108.2948999999999
 31
0.0
  0
LINE
  5
249
330
1E
100
AcDbEntity
  8
0
100
AcDbLine
 10
408.284
 20
106.7442999999999
 30
0.0
 11
411.3269999999999
 21
108.0443
 31
0.0
  0
LINE
  5
24B
330
1E
100
AcDbEntity
  8
0
100
AcDbLine
 10
407.779
 20
108.6297999999999
 30
0.0
 11
410.354
 21
109.7298
 31
0.0
  0
LINE
  5
24D
330
1E
100
AcDbEntity
  8
0
100
AcDbLine
 10
396.0299999999999
 20
110.0826
 30
0.0
 11
398.6759999999999
 21
108.0459
 31
0.0
  0
LINE
  5
24F
330
1E
100
AcDbEntity
  8
0
100
AcDbLine
 10
399.649
 20
109.7310999999999
 30
0.0
 11
402.2599999999999
 21
108.6543999999999
 31
0.0
  0
LINE
  5
251
330
1E
100
AcDbEntity
  8
0
100
AcDbLine
 10
406.415
 20
109.4223
 30
0.0
 11
407.5289999999999
 21
109.5603
 31
0.0
  0
LINE
  5
255
330
1E
100
AcDbEntity
  8
0
100
AcDbLine
 10
404.9339999999999
 20
109.7884999999999
 30
0.0
 11
406.415
 21
109.4223
 31
0.0
  0
LINE
  5
258
330
1E
100
AcDbEntity
  8
0
100
AcDbLine
 10
402.5599999999999
 20
110.4047999999999
 30
0.0
 11
404.9339999999999
 21
109.7884999999999
 31
0.0
  0
LINE
  5
25C
330
1E
100
AcDbEntity
  8
0
100
AcDbLine
 10
407.5289999999999
 20
109.5603
 30
0.0
 11
408.564
 21
109.9980999999999
 31
0.0
  0
LINE
  5
260
330
1E
100
AcDbEntity
  8
0
100
AcDbLine
 10
411.3269999999999
 20
108.0443
 30
0.0
 11
413.917
 21
110.0303
 31
0.0
  0
LINE
  5
261
330
1E
100
AcDbEntity
  8
0
100
AcDbLine
 10
413.917
 20
110.0303
 30
0.0
 11
415.9539999999999
 21
112.6756
 31
0.0
  0
LINE
  5
263
330
1E
100
AcDbEntity
  8
0
100
AcDbLine
 10
410.354
 20
109.7298
 30
0.0
 11
412.5449999999999
 21
111.4103
 31
0.0
  0
LINE
  5
265
330
1E
100
AcDbEntity
  8
0
100
AcDbLine
 10
408.564
 20
109.9980999999999
 30
0.0
 11
409.663
 21
111.0557
 31
0.0
  0
LINE
  5
266
330
1E
100
AcDbEntity
  8
0
100
AcDbLine
 10
397.41
 20
111.4544999999999
 30
0.0
 11
399.649
 21
109.7310999999999
 31
0.0
  0
LINE
  5
26A
330
1E
100
AcDbEntity
  8
0
100
AcDbLine
 10
397.604
 20
111.8287
 30
0.0
 11
397.901
 21
111.6143
 31
0.0
  0
LINE
  5
26D
330
1E
100
AcDbEntity
  8
0
100
AcDbLine
 10
400.173
 20
111.0245
 30
0.0
 11
402.5599999999999
 21
110.4047999999999
 31
0.0
  0
LINE
  5
271
330
1E
100
AcDbEntity
  8
0
100
AcDbLine
 10
398.5019999999999
 20
111.4584999999999
 30
0.0
 11
400.173
 21
111.0245
 31
0.0
  0
LINE
  5
272
330
1E
100
AcDbEntity
  8
0
100
AcDbLine
 10
397.901
 20
111.6143
 30
0.0
 11
398.5019999999999
 21
111.4584999999999
 31
0.0
  0
LINE
  5
273
330
1E
100
AcDbEntity
  8
0
100
AcDbLine
 10
400.9949999999999
 20
112.063
 30
0.0
 11
402.9639999999999
 21
111.2656
 31
0.0
  0
LINE
  5
276
330
1E
100
AcDbEntity
  8
0
100
AcDbLine
 10
409.663
 20
111.0557
 30
0.0
 11
411.411
 21
112.7762
 31
0.0
  0
LINE
  5
277
330
1E
100
AcDbEntity
  8
0
100
AcDbLine
 10
404.999
 20
111.2144999999999
 30
0.0
 11
407.0209999999999
 21
111.4581
 31
0.0
  0
LINE
  5
278
330
1E
100
AcDbEntity
  8
0
100
AcDbLine
 10
407.0209999999999
 20
111.4581
 30
0.0
 11
408.894
 21
112.2579999999999
 31
0.0
  0
LINE
  5
279
330
1E
100
AcDbEntity
  8
0
100
AcDbLine
 10
403.0069999999999
 20
111.4759
 30
0.0
 11
404.999
 21
111.2144999999999
 31
0.0
  0
LINE
  5
27A
330
1E
100
AcDbEntity
  8
0
100
AcDbLine
 10
412.5449999999999
 20
111.4103
 30
0.0
 11
414.2689999999999
 21
113.6486
 31
0.0
  0
LINE
  5
27D
330
1E
100
AcDbEntity
  8
0
100
AcDbLine
 10
408.9739999999999
 20
112.0808
 30
0.0
 11
410.63
 21
113.3195999999999
 31
0.0
  0
LINE
  5
27E
330
1E
100
AcDbEntity
  8
0
100
AcDbLine
 10
407.071
 20
111.2726
 30
0.0
 11
408.9739999999999
 21
112.0808
 31
0.0
  0
LINE
  5
27F
330
1E
100
AcDbEntity
  8
0
100
AcDbLine
 10
402.9639999999999
 20
111.2656
 30
0.0
 11
405.018
 21
111.0207
 31
0.0
  0
LINE
  5
280
330
1E
100
AcDbEntity
  8
0
100
AcDbLine
 10
405.018
 20
111.0207
 30
0.0
 11
407.071
 21
111.2726
 31
0.0
  0
LINE
  5
281
330
1E
100
AcDbEntity
  8
0
100
AcDbLine
 10
422.3419999999999
 20
108.9874
 30
0.0
 11
424.336
 21
113.9110999999999
 31
0.0
  0
LINE
  5
282
330
1E
100
AcDbEntity
  8
0
100
AcDbLine
 10
419.0749999999999
 20
104.7989999999999
 30
0.0
 11
422.3419999999999
 21
108.9874
 31
0.0
  0
LINE
  5
283
330
1E
100
AcDbEntity
  8
0
100
AcDbLine
 10
390.799
 20
104.9248999999999
 30
0.0
 11
394.9869999999999
 21
101.6576
 31
0.0
  0
LINE
  5
284
330
1E
100
AcDbEntity
  8
0
100
AcDbLine
 10
314.9809999999999
 20
112.8508999999999
 30
0.0
 11
315.2839999999999
 21
113.5647999999999
 31
0.0
  0
LINE
  5
285
330
1E
100
AcDbEntity
  8
0
100
AcDbLine
 10
314.8009999999999
 20
112.4354
 30
0.0
 11
315.2839999999999
 21
113.5647999999999
 31
0.0
  0
LINE
  5
28D
330
1E
100
AcDbEntity
  8
0
100
AcDbLine
 10
314.8289276393239
 20
117.080622703018
 30
0.0
 11
315.276
 21
116.006
 31
0.0
  0
LINE
  5
28F
330
1E
100
AcDbEntity
  8
0
100
AcDbLine
 10
315.2839999999999
 20
113.5647999999999
 30
0.0
 11
315.4309999999999
 21
114.7845
 31
0.0
  0
LINE
  5
290
330
1E
100
AcDbEntity
  8
0
100
AcDbLine
 10
315.2839999999999
 20
113.5647999999999
 30
0.0
 11
315.379
 21
114.3345999999999
 31
0.0
  0
LINE
  5
291
330
1E
100
AcDbEntity
  8
0
100
AcDbLine
 10
315.276
 20
116.006
 30
0.0
 11
315.4309999999999
 21
114.7845
 31
0.0
  0
LINE
  5
29E
330
1E
100
AcDbEntity
  8
0
100
AcDbLine
 10
384.716
 20
113.5647999999999
 30
0.0
 11
385.199
 21
112.4354
 31
0.0
  0
LINE
  5
29F
330
1E
100
AcDbEntity
  8
0
100
AcDbLine
 10
384.716
 20
113.5647999999999
 30
0.0
 11
385.0189999999999
 21
112.8508999999999
 31
0.0
  0
LINE
  5
2A0
330
1E
100
AcDbEntity
  8
0
100
AcDbLine
 10
384.6209999999999
 20
114.3345999999999
 30
0.0
 11
384.716
 21
113.5647999999999
 31
0.0
  0
LINE
  5
2A1
330
1E
100
AcDbEntity
  8
0
100
AcDbLine
 10
384.7239999999999
 20
116.006
 30
0.0
 11
385.2119999999999
 21
117.179
 31
0.0
  0
LINE
  5
2A2
330
1E
100
AcDbEntity
  8
0
100
AcDbLine
 10
384.569
 20
114.7845
 30
0.0
 11
384.716
 21
113.5647999999999
 31
0.0
  0
LINE
  5
2A3
330
1E
100
AcDbEntity
  8
0
100
AcDbLine
 10
384.569
 20
114.7845
 30
0.0
 11
384.7239999999999
 21
116.006
 31
0.0
  0
LINE
  5
2A4
330
1E
100
AcDbEntity
  8
0
100
AcDbLine
 10
334.406
 20
113.7631999999999
 30
0.0
 11
334.452
 21
114.0919
 31
0.0
  0
LINE
  5
2A5
330
1E
100
AcDbEntity
  8
0
100
AcDbLine
 10
334.2649999999999
 20
113.7383999999999
 30
0.0
 11
334.406
 21
113.7631999999999
 31
0.0
  0
LINE
  5
2AE
330
1E
100
AcDbEntity
  8
0
100
AcDbLine
 10
333.9853416668229
 20
116.7353297148709
 30
0.0
 11
348.758
 21
119.34
 31
0.0
  0
LINE
  5
2B4
330
1E
100
AcDbEntity
  8
0
100
AcDbLine
 10
348.7009999999999
 20
119.659
 30
0.0
 11
348.758
 21
119.34
 31
0.0
  0
LINE
  5
2B5
330
1E
100
AcDbEntity
  8
0
100
AcDbLine
 10
348.551
 20
120.51
 30
0.0
 11
348.7009999999999
 21
119.659
 31
0.0
  0
LINE
  5
2BF
330
1E
100
AcDbEntity
  8
0
100
AcDbLine
 10
397.449
 20
112.4076
 30
0.0
 11
397.604
 21
111.8287
 31
0.0
  0
LINE
  5
2C2
330
1E
100
AcDbEntity
  8
0
100
AcDbLine
 10
408.894
 20
112.2579999999999
 30
0.0
 11
410.488
 21
113.4802
 31
0.0
  0
LINE
  5
2C3
330
1E
100
AcDbEntity
  8
0
100
AcDbLine
 10
401.1079999999999
 20
112.2589999999999
 30
0.0
 11
403.0069999999999
 21
111.4759
 31
0.0
  0
LINE
  5
2C4
330
1E
100
AcDbEntity
  8
0
100
AcDbLine
 10
394.044
 20
112.6729
 30
0.0
 11
396.0299999999999
 21
110.0826
 31
0.0
  0
LINE
  5
2C5
330
1E
100
AcDbEntity
  8
0
100
AcDbLine
 10
395.73
 20
113.6463
 30
0.0
 11
397.41
 21
111.4544999999999
 31
0.0
  0
LINE
  5
2C8
330
1E
100
AcDbEntity
  8
0
100
AcDbLine
 10
415.9539999999999
 20
112.6756
 30
0.0
 11
417.227
 21
115.762
 31
0.0
  0
LINE
  5
2C9
330
1E
100
AcDbEntity
  8
0
100
AcDbLine
 10
411.411
 20
112.7762
 30
0.0
 11
413.168
 21
114.5062999999999
 31
0.0
  0
LINE
  5
2CD
330
1E
100
AcDbEntity
  8
0
100
AcDbLine
 10
414.2689999999999
 20
113.6486
 30
0.0
 11
415.3459999999999
 21
116.26
 31
0.0
  0
LINE
  5
2CF
330
1E
100
AcDbEntity
  8
0
100
AcDbLine
 10
410.488
 20
113.4802
 30
0.0
 11
411.7409999999999
 21
115.1079999999999
 31
0.0
  0
LINE
  5
2D0
330
1E
100
AcDbEntity
  8
0
100
AcDbLine
 10
399.48
 20
113.5124
 30
0.0
 11
401.1079999999999
 21
112.2589999999999
 31
0.0
  0
LINE
  5
2D1
330
1E
100
AcDbEntity
  8
0
100
AcDbLine
 10
410.63
 20
113.3195999999999
 30
0.0
 11
411.9369999999999
 21
114.9949
 31
0.0
  0
LINE
  5
2D2
330
1E
100
AcDbEntity
  8
0
100
AcDbLine
 10
399.3199999999999
 20
113.37
 30
0.0
 11
400.9949999999999
 21
112.063
 31
0.0
  0
LINE
  5
2D3
330
1E
100
AcDbEntity
  8
0
100
AcDbLine
 10
423.828161536416
 20
112.657115926205
 30
0.0
 11
435.859
 21
115.881
 31
0.0
  0
LINE
  5
2D4
330
1E
100
AcDbEntity
  8
0
100
AcDbLine
 10
385.199
 20
112.4354
 30
0.0
 11
385.943
 21
111.4546
 31
0.0
  0
LINE
  5
2D5
330
1E
100
AcDbEntity
  8
0
100
AcDbLine
 10
396.8999999999999
 20
114.4578
 30
0.0
 11
397.449
 21
112.4076
 31
0.0
  0
LINE
  5
2D9
330
1E
100
AcDbEntity
  8
0
100
AcDbLine
 10
392.744
 20
115.716
 30
0.0
 11
394.044
 21
112.6729
 31
0.0
  0
LINE
  5
2DB
330
1E
100
AcDbEntity
  8
0
100
AcDbLine
 10
394.6299999999999
 20
116.2209999999999
 30
0.0
 11
395.73
 21
113.6463
 31
0.0
  0
LINE
  5
2DE
330
1E
100
AcDbEntity
  8
0
100
AcDbLine
 10
398.258
 20
115.106
 30
0.0
 11
399.48
 21
113.5124
 31
0.0
  0
LINE
  5
2DF
330
1E
100
AcDbEntity
  8
0
100
AcDbLine
 10
398.0809999999999
 20
115.026
 30
0.0
 11
399.3199999999999
 21
113.37
 31
0.0
  0
LINE
  5
2E1
330
1E
100
AcDbEntity
  8
0
100
AcDbLine
 10
396.3069999999999
 20
116.671
 30
0.0
 11
396.8999999999999
 21
114.4578
 31
0.0
  0
LINE
  5
2E2
330
1E
100
AcDbEntity
  8
0
100
AcDbLine
 10
397.458
 20
116.979
 30
0.0
 11
398.258
 21
115.106
 31
0.0
  0
LINE
  5
2E3
330
1E
100
AcDbEntity
  8
0
100
AcDbLine
 10
397.273
 20
116.9289999999999
 30
0.0
 11
398.0809999999999
 21
115.026
 31
0.0
  0
LINE
  5
2E4
330
1E
100
AcDbEntity
  8
0
100
AcDbLine
 10
400.7859999999999
 20
116.566
 30
0.0
 11
401.55
 21
115.5699999999999
 31
0.0
  0
LINE
  5
2E6
330
1E
100
AcDbEntity
  8
0
100
AcDbLine
 10
401.55
 20
115.5699999999999
 30
0.0
 11
402.568
 21
114.7869
 31
0.0
  0
LINE
  5
2E7
330
1E
100
AcDbEntity
  8
0
100
AcDbLine
 10
402.568
 20
114.7869
 30
0.0
 11
403.755
 21
114.2973999999999
 31
0.0
  0
LINE
  5
2EA
330
1E
100
AcDbEntity
  8
0
100
AcDbLine
 10
403.755
 20
114.2973999999999
 30
0.0
 11
404.999
 21
114.134
 31
0.0
  0
LINE
  5
2EB
330
1E
100
AcDbEntity
  8
0
100
AcDbLine
 10
411.7409999999999
 20
115.1079999999999
 30
0.0
 11
412.5239999999999
 21
117.007
 31
0.0
  0
LINE
  5
2ED
330
1E
100
AcDbEntity
  8
0
100
AcDbLine
 10
413.168
 20
114.5062999999999
 30
0.0
 11
414.3979999999999
 21
115.7179999999999
 31
0.0
  0
LINE
  5
2F0
330
1E
100
AcDbEntity
  8
0
100
AcDbLine
 10
411.9369999999999
 20
114.9949
 30
0.0
 11
412.734
 21
116.964
 31
0.0
  0
LINE
  5
2F1
330
1E
100
AcDbEntity
  8
0
100
AcDbLine
 10
417.227
 20
115.762
 30
0.0
 11
417.652
 21
118.998
 31
0.0
  0
LINE
  5
2F3
330
1E
100
AcDbEntity
  8
0
100
AcDbLine
 10
415.3459999999999
 20
116.26
 30
0.0
 11
415.7049999999999
 21
118.9989999999999
 31
0.0
  0
LINE
  5
2F5
330
1E
100
AcDbEntity
  8
0
100
AcDbLine
 10
414.8399999999999
 20
116.1529999999999
 30
0.0
 11
414.991
 21
116.487
 31
0.0
  0
LINE
  5
2F6
330
1E
100
AcDbEntity
  8
0
100
AcDbLine
 10
414.3979999999999
 20
115.7179999999999
 30
0.0
 11
414.8399999999999
 21
116.1529999999999
 31
0.0
  0
LINE
  5
2F9
330
1E
100
AcDbEntity
  8
0
100
AcDbLine
 10
408.4299999999999
 20
115.5499999999999
 30
0.0
 11
409.213
 21
116.568
 31
0.0
  0
LINE
  5
2FA
330
1E
100
AcDbEntity
  8
0
100
AcDbLine
 10
407.434
 20
114.7863
 30
0.0
 11
408.4299999999999
 21
115.5499999999999
 31
0.0
  0
LINE
  5
2FB
330
1E
100
AcDbEntity
  8
0
100
AcDbLine
 10
406.263
 20
114.2862999999999
 30
0.0
 11
407.434
 21
114.7863
 31
0.0
  0
LINE
  5
2FC
330
1E
100
AcDbEntity
  8
0
100
AcDbLine
 10
404.999
 20
114.134
 30
0.0
 11
406.263
 21
114.2862999999999
 31
0.0
  0
LINE
  5
304
330
1E
100
AcDbEntity
  8
0
100
AcDbLine
 10
414.836
 20
117.066
 30
0.0
 11
414.991
 21
116.487
 31
0.0
  0
LINE
  5
305
330
1E
100
AcDbEntity
  8
0
100
AcDbLine
 10
412.5239999999999
 20
117.007
 30
0.0
 11
412.786
 21
118.9989999999999
 31
0.0
  0
LINE
  5
306
330
1E
100
AcDbEntity
  8
0
100
AcDbLine
 10
412.734
 20
116.964
 30
0.0
 11
412.979
 21
119.0179999999999
 31
0.0
  0
LINE
  5
307
330
1E
100
AcDbEntity
  8
0
100
AcDbLine
 10
409.213
 20
116.568
 30
0.0
 11
409.703
 21
117.7549999999999
 31
0.0
  0
LINE
  5
30B
330
1E
100
AcDbEntity
  8
0
100
AcDbLine
 10
385.618
 20
114.3367999999999
 30
0.0
 11
385.6809999999999
 21
113.8236
 31
0.0
  0
LINE
  5
312
330
1E
100
AcDbEntity
  8
0
100
AcDbLine
 10
395.7139999999999
 20
118.883
 30
0.0
 11
396.3069999999999
 21
116.671
 31
0.0
  0
LINE
  5
314
330
1E
100
AcDbEntity
  8
0
100
AcDbLine
 10
394.295
 20
119.001
 30
0.0
 11
394.654
 21
121.74
 31
0.0
  0
LINE
  5
315
330
1E
100
AcDbEntity
  8
0
100
AcDbLine
 10
394.295
 20
119.001
 30
0.0
 11
394.6299999999999
 21
116.2209999999999
 31
0.0
  0
LINE
  5
316
330
1E
100
AcDbEntity
  8
0
100
AcDbLine
 10
397.2139999999999
 20
119.001
 30
0.0
 11
397.476
 21
120.9929999999999
 31
0.0
  0
LINE
  5
317
330
1E
100
AcDbEntity
  8
0
100
AcDbLine
 10
397.2139999999999
 20
119.001
 30
0.0
 11
397.458
 21
116.979
 31
0.0
  0
LINE
  5
318
330
1E
100
AcDbEntity
  8
0
100
AcDbLine
 10
397.0209999999999
 20
118.982
 30
0.0
 11
397.2659999999999
 21
121.036
 31
0.0
  0
LINE
  5
319
330
1E
100
AcDbEntity
  8
0
100
AcDbLine
 10
397.0209999999999
 20
118.982
 30
0.0
 11
397.273
 21
116.9289999999999
 31
0.0
  0
LINE
  5
31A
330
1E
100
AcDbEntity
  8
0
100
AcDbLine
 10
400.286
 20
117.737
 30
0.0
 11
400.7859999999999
 21
116.566
 31
0.0
  0
LINE
  5
31E
330
1E
100
AcDbEntity
  8
0
100
AcDbLine
 10
392.3479999999999
 20
119.002
 30
0.0
 11
392.773
 21
122.238
 31
0.0
  0
LINE
  5
31F
330
1E
100
AcDbEntity
  8
0
100
AcDbLine
 10
392.3479999999999
 20
119.002
 30
0.0
 11
392.744
 21
115.716
 31
0.0
  0
LINE
  5
320
330
1E
100
AcDbEntity
  8
0
100
AcDbLine
 10
400.1339999999999
 20
119.001
 30
0.0
 11
400.2969999999999
 21
120.245
 31
0.0
  0
LINE
  5
321
330
1E
100
AcDbEntity
  8
0
100
AcDbLine
 10
400.1339999999999
 20
119.001
 30
0.0
 11
400.286
 21
117.737
 31
0.0
  0
LINE
  5
323
330
1E
100
AcDbEntity
  8
0
100
AcDbLine
 10
414.2859999999999
 20
119.117
 30
0.0
 11
414.836
 21
117.066
 31
0.0
  0
LINE
  5
324
330
1E
100
AcDbEntity
  8
0
100
AcDbLine
 10
409.714
 20
120.2629999999999
 30
0.0
 11
409.8659999999999
 21
118.9989999999999
 31
0.0
  0
LINE
  5
325
330
1E
100
AcDbEntity
  8
0
100
AcDbLine
 10
409.703
 20
117.7549999999999
 30
0.0
 11
409.8659999999999
 21
118.9989999999999
 31
0.0
  0
LINE
  5
327
330
1E
100
AcDbEntity
  8
0
100
AcDbLine
 10
400.2969999999999
 20
120.245
 30
0.0
 11
400.7869999999999
 21
121.432
 31
0.0
  0
LINE
  5
328
330
1E
100
AcDbEntity
  8
0
100
AcDbLine
 10
385.2119999999999
 20
117.179
 30
0.0
 11
385.2523883698239
 21
117.320907362031
 31
0.0
  0
LINE
  5
331
330
1E
100
AcDbEntity
  8
0
100
AcDbLine
 10
439.359
 20
116.8179999999999
 30
0.0
 11
442.62
 21
117.692
 31
0.0
  0
LINE
  5
332
330
1E
100
AcDbEntity
  8
0
100
AcDbLine
 10
435.859
 20
115.881
 30
0.0
 11
439.359
 21
116.8179999999999
 31
0.0
  0
LINE
  5
339
330
1E
100
AcDbEntity
  8
0
100
AcDbLine
 10
447.5699999999999
 20
119.0189999999999
 30
0.0
 11
448.9209999999999
 21
119.381
 31
0.0
  0
LINE
  5
33A
330
1E
100
AcDbEntity
  8
0
100
AcDbLine
 10
445.4209999999999
 20
118.443
 30
0.0
 11
447.5699999999999
 21
119.0189999999999
 31
0.0
  0
LINE
  5
33B
330
1E
100
AcDbEntity
  8
0
100
AcDbLine
 10
442.62
 20
117.692
 30
0.0
 11
445.4209999999999
 21
118.443
 31
0.0
  0
LINE
  5
33C
330
1E
100
AcDbEntity
  8
0
100
AcDbLine
 10
484.5119999999999
 20
116.396
 30
0.0
 11
485.2319999999999
 21
116.1079999999999
 31
0.0
  0
LINE
  5
33D
330
1E
100
AcDbEntity
  8
0
100
AcDbLine
 10
483.8759999999999
 20
116.876
 30
0.0
 11
484.5119999999999
 21
116.396
 31
0.0
  0
LINE
  5
33E
330
1E
100
AcDbEntity
  8
0
100
AcDbLine
 10
484.453
 20
113.9251
 30
0.0
 11
485.896441049724
 21
112.625308090853
 31
0.0
  0
LINE
  5
33F
330
1E
100
AcDbEntity
  8
0
100
AcDbLine
 10
483.109
 20
115.4449999999999
 30
0.0
 11
484.453
 21
113.9251
 31
0.0
  0
LINE
  5
340
330
1E
100
AcDbEntity
  8
0
100
AcDbLine
 10
482.1439999999999
 20
117.9759999999999
 30
0.0
 11
482.185674074074
 21
117.871814814815
 31
0.0
  0
LINE
  5
341
330
1E
100
AcDbEntity
  8
0
100
AcDbLine
 10
483.3959999999999
 20
117.5119999999999
 30
0.0
 11
483.8759999999999
 21
116.876
 31
0.0
  0
LINE
  5
342
330
1E
100
AcDbEntity
  8
0
100
AcDbLine
 10
483.108
 20
118.232
 30
0.0
 11
483.3959999999999
 21
117.5119999999999
 31
0.0
  0
LINE
  5
343
330
1E
100
AcDbEntity
  8
0
100
AcDbLine
 10
483.0
 20
119.0
 30
0.0
 11
483.108
 21
118.232
 31
0.0
  0
LINE
  5
344
330
1E
100
AcDbEntity
  8
0
100
AcDbLine
 10
483.0
 20
119.0
 30
0.0
 11
483.108
 21
119.7679999999999
 31
0.0
  0
LINE
  5
345
330
1E
100
AcDbEntity
  8
0
100
AcDbLine
 10
482.3019999999999
 20
117.165
 30
0.0
 11
483.109
 21
115.4449999999999
 31
0.0
  0
LINE
  5
346
330
1E
100
AcDbEntity
  8
0
100
AcDbLine
 10
482.0
 20
119.0
 30
0.0
 11
482.3019999999999
 21
117.165
 31
0.0
  0
LINE
  5
347
330
1E
100
AcDbEntity
  8
0
100
AcDbLine
 10
482.0
 20
119.0
 30
0.0
 11
482.3019999999999
 21
120.835
 31
0.0
  0
LINE
  5
348
330
1E
100
AcDbEntity
  8
0
100
AcDbLine
 10
482.0
 20
119.0
 30
0.0
 11
482.1439999999999
 21
117.9759999999999
 31
0.0
  0
LINE
  5
349
330
1E
100
AcDbEntity
  8
0
100
AcDbLine
 10
482.0
 20
119.0
 30
0.0
 11
482.1439999999999
 21
120.0239999999999
 31
0.0
  0
LINE
  5
34D
330
1E
100
AcDbEntity
  8
0
100
AcDbLine
 10
448.9209999999999
 20
119.381
 30
0.0
 11
449.3819999999999
 21
119.5039999999999
 31
0.0
  0
LINE
  5
34F
330
1E
100
AcDbEntity
  8
0
100
AcDbLine
 10
424.7476007128569
 20
120.679054279203
 30
0.0
 11
424.788
 21
120.821
 31
0.0
  0
LINE
  5
350
330
1E
100
AcDbEntity
  8
0
100
AcDbLine
 10
482.1439999999999
 20
120.0239999999999
 30
0.0
 11
482.185674074074
 21
120.1281851851849
 31
0.0
  0
LINE
  5
351
330
1E
100
AcDbEntity
  8
0
100
AcDbLine
 10
483.3959999999999
 20
120.4879999999999
 30
0.0
 11
483.8759999999999
 21
121.1239999999999
 31
0.0
  0
LINE
  5
352
330
1E
100
AcDbEntity
  8
0
100
AcDbLine
 10
483.108
 20
119.7679999999999
 30
0.0
 11
483.3959999999999
 21
120.4879999999999
 31
0.0
  0
LINE
  5
353
330
1E
100
AcDbEntity
  8
0
100
AcDbLine
 10
424.336
 20
113.9110999999999
 30
0.0
 11
424.948
 21
119.0439999999999
 31
0.0
  0
LINE
  5
354
330
1E
100
AcDbEntity
  8
0
100
AcDbLine
 10
385.6809999999999
 20
113.8236
 30
0.0
 11
387.7019999999999
 21
109.0644
 31
0.0
  0
LINE
  5
355
330
1E
100
AcDbEntity
  8
0
100
AcDbLine
 10
385.0519999999999
 20
118.9559999999999
 30
0.0
 11
385.664
 21
124.089
 31
0.0
  0
LINE
  5
356
330
1E
100
AcDbEntity
  8
0
100
AcDbLine
 10
385.0519999999999
 20
118.9559999999999
 30
0.0
 11
385.6809999999999
 21
113.8236
 31
0.0
  0
LINE
  5
357
330
1E
100
AcDbEntity
  8
0
100
AcDbLine
 10
313.819
 20
112.2452
 30
0.0
 11
314.8759999999999
 21
117.3059999999999
 31
0.0
  0
LINE
  5
358
330
1E
100
AcDbEntity
  8
0
100
AcDbLine
 10
311.404
 20
107.5139999999999
 30
0.0
 11
313.819
 21
112.2452
 31
0.0
  0
LINE
  5
359
330
1E
100
AcDbEntity
  8
0
100
AcDbLine
 10
307.784
 20
103.6262999999999
 30
0.0
 11
311.404
 21
107.5139999999999
 31
0.0
  0
LINE
  5
35A
330
1E
100
AcDbEntity
  8
0
100
AcDbLine
 10
303.39
 20
100.902
 30
0.0
 11
307.784
 21
103.6262999999999
 31
0.0
  0
LINE
  5
35B
330
1E
100
AcDbEntity
  8
0
100
AcDbLine
 10
298.473
 20
99.30379999999999
 30
0.0
 11
303.39
 21
100.902
 31
0.0
  0
LINE
  5
35C
330
1E
100
AcDbEntity
  8
0
100
AcDbLine
 10
275.304
 20
115.527
 30
0.0
 11
276.9019999999999
 21
110.6098
 31
0.0
  0
LINE
  5
35F
330
1E
100
AcDbEntity
  8
0
100
AcDbLine
 10
255.823
 20
122.353
 30
0.0
 11
255.990177142858
 21
121.404611428565
 31
0.0
  0
LINE
  5
360
330
1E
100
AcDbEntity
  8
0
100
AcDbLine
 10
255.9930930232529
 20
121.3880697674589
 30
0.0
 11
256.5679999999999
 21
118.124
 31
0.0
  0
LINE
  5
367
330
1E
100
AcDbEntity
  8
0
100
AcDbLine
 10
274.724
 20
121.994
 30
0.0
 11
275.1710711222069
 21
120.919380273876
 31
0.0
  0
LINE
  5
36D
330
1E
100
AcDbEntity
  8
0
100
AcDbLine
 10
274.569
 20
123.215
 30
0.0
 11
274.724
 21
121.994
 31
0.0
  0
LINE
  5
371
330
1E
100
AcDbEntity
  8
0
100
AcDbLine
 10
311.3879999999999
 20
123.352
 30
0.0
 11
312.0
 21
119.0
 31
0.0
  0
LINE
  5
372
330
1E
100
AcDbEntity
  8
0
100
AcDbLine
 10
255.548
 20
123.9079999999999
 30
0.0
 11
255.823
 21
122.353
 31
0.0
  0
LINE
  5
373
330
1E
100
AcDbEntity
  8
0
100
AcDbLine
 10
255.548
 20
123.9079999999999
 30
0.0
 11
255.594
 21
124.237
 31
0.0
  0
LINE
  5
377
330
1E
100
AcDbEntity
  8
0
100
AcDbLine
 10
274.569
 20
123.215
 30
0.0
 11
274.716
 21
124.435
 31
0.0
  0
LINE
  5
37C
330
1E
100
AcDbEntity
  8
0
100
AcDbLine
 10
278.612
 20
123.352
 30
0.0
 11
280.244
 21
127.432
 31
0.0
  0
LINE
  5
380
330
1E
100
AcDbEntity
  8
0
100
AcDbLine
 10
424.788
 20
120.821
 30
0.0
 11
425.276
 21
121.994
 31
0.0
  0
LINE
  5
382
330
1E
100
AcDbEntity
  8
0
100
AcDbLine
 10
395.1639999999999
 20
120.934
 30
0.0
 11
395.7139999999999
 21
118.883
 31
0.0
  0
LINE
  5
387
330
1E
100
AcDbEntity
  8
0
100
AcDbLine
 10
412.542
 20
121.021
 30
0.0
 11
412.786
 21
118.9989999999999
 31
0.0
  0
LINE
  5
389
330
1E
100
AcDbEntity
  8
0
100
AcDbLine
 10
413.693
 20
121.3289999999999
 30
0.0
 11
414.2859999999999
 21
119.117
 31
0.0
  0
LINE
  5
38A
330
1E
100
AcDbEntity
  8
0
100
AcDbLine
 10
412.727
 20
121.0709999999999
 30
0.0
 11
412.979
 21
119.0179999999999
 31
0.0
  0
LINE
  5
38B
330
1E
100
AcDbEntity
  8
0
100
AcDbLine
 10
397.476
 20
120.9929999999999
 30
0.0
 11
398.259
 21
122.892
 31
0.0
  0
LINE
  5
38C
330
1E
100
AcDbEntity
  8
0
100
AcDbLine
 10
397.2659999999999
 20
121.036
 30
0.0
 11
398.063
 21
123.005
 31
0.0
  0
LINE
  5
38D
330
1E
100
AcDbEntity
  8
0
100
AcDbLine
 10
409.2139999999999
 20
121.4339999999999
 30
0.0
 11
409.714
 21
120.2629999999999
 31
0.0
  0
LINE
  5
38E
330
1E
100
AcDbEntity
  8
0
100
AcDbLine
 10
400.7869999999999
 20
121.432
 30
0.0
 11
401.5699999999999
 21
122.45
 31
0.0
  0
LINE
  5
392
330
1E
100
AcDbEntity
  8
0
100
AcDbLine
 10
394.654
 20
121.74
 30
0.0
 11
395.731
 21
124.351
 31
0.0
  0
LINE
  5
393
330
1E
100
AcDbEntity
  8
0
100
AcDbLine
 10
395.009
 20
121.5119999999999
 30
0.0
 11
395.1639999999999
 21
120.934
 31
0.0
  0
LINE
  5
394
330
1E
100
AcDbEntity
  8
0
100
AcDbLine
 10
395.009
 20
121.5119999999999
 30
0.0
 11
395.16
 21
121.847
 31
0.0
  0
LINE
  5
397
330
1E
100
AcDbEntity
  8
0
100
AcDbLine
 10
415.3699999999999
 20
121.7789999999999
 30
0.0
 11
415.7049999999999
 21
118.9989999999999
 31
0.0
  0
LINE
  5
399
330
1E
100
AcDbEntity
  8
0
100
AcDbLine
 10
395.16
 20
121.847
 30
0.0
 11
395.6019999999999
 21
122.282
 31
0.0
  0
LINE
  5
39D
330
1E
100
AcDbEntity
  8
0
100
AcDbLine
 10
348.410091688811
 20
121.309231941063
 30
0.0
 11
352.35
 21
122.004
 31
0.0
  0
LINE
  5
39E
330
1E
100
AcDbEntity
  8
0
100
AcDbLine
 10
348.301
 20
121.9279999999999
 30
0.0
 11
348.551
 21
120.51
 31
0.0
  0
LINE
  5
39F
330
1E
100
AcDbEntity
  8
0
100
AcDbLine
 10
352.35
 20
122.004
 30
0.0
 11
363.31
 21
123.937
 31
0.0
  0
LINE
  5
3A1
330
1E
100
AcDbEntity
  8
0
100
AcDbLine
 10
425.276
 20
121.994
 30
0.0
 11
425.431
 21
123.215
 31
0.0
  0
LINE
  5
3A5
330
1E
100
AcDbEntity
  8
0
100
AcDbLine
 10
392.773
 20
122.238
 30
0.0
 11
394.0459999999999
 21
125.3239999999999
 31
0.0
  0
LINE
  5
3A6
330
1E
100
AcDbEntity
  8
0
100
AcDbLine
 10
417.2559999999999
 20
122.2839999999999
 30
0.0
 11
417.652
 21
118.998
 31
0.0
  0
LINE
  5
3A8
330
1E
100
AcDbEntity
  8
0
100
AcDbLine
 10
395.6019999999999
 20
122.282
 30
0.0
 11
396.8319999999999
 21
123.4939999999999
 31
0.0
  0
LINE
  5
3AB
330
1E
100
AcDbEntity
  8
0
100
AcDbLine
 10
408.45
 20
122.43
 30
0.0
 11
409.2139999999999
 21
121.4339999999999
 31
0.0
  0
LINE
  5
3AE
330
1E
100
AcDbEntity
  8
0
100
AcDbLine
 10
401.5699999999999
 20
122.45
 30
0.0
 11
402.566
 21
123.214
 31
0.0
  0
LINE
  5
3B1
330
1E
100
AcDbEntity
  8
0
100
AcDbLine
 10
454.276
 20
122.3189999999999
 30
0.0
 11
456.073
 21
124.622
 31
0.0
  0
LINE
  5
3B6
330
1E
100
AcDbEntity
  8
0
100
AcDbLine
 10
398.259
 20
122.892
 30
0.0
 11
399.5119999999999
 21
124.52
 31
0.0
  0
LINE
  5
3B7
330
1E
100
AcDbEntity
  8
0
100
AcDbLine
 10
398.063
 20
123.005
 30
0.0
 11
399.37
 21
124.68
 31
0.0
  0
LINE
  5
3B8
330
1E
100
AcDbEntity
  8
0
100
AcDbLine
 10
396.8319999999999
 20
123.4939999999999
 30
0.0
 11
398.5889999999999
 21
125.224
 31
0.0
  0
LINE
  5
3BB
330
1E
100
AcDbEntity
  8
0
100
AcDbLine
 10
411.919
 20
122.9739999999999
 30
0.0
 11
412.727
 21
121.0709999999999
 31
0.0
  0
LINE
  5
3BC
330
1E
100
AcDbEntity
  8
0
100
AcDbLine
 10
411.742
 20
122.8939999999999
 30
0.0
 11
412.542
 21
121.021
 31
0.0
  0
LINE
  5
3BF
330
1E
100
AcDbEntity
  8
0
100
AcDbLine
 10
413.1
 20
123.5419999999999
 30
0.0
 11
413.693
 21
121.3289999999999
 31
0.0
  0
LINE
  5
3C1
330
1E
100
AcDbEntity
  8
0
100
AcDbLine
 10
407.4319999999999
 20
123.2129999999999
 30
0.0
 11
408.45
 21
122.43
 31
0.0
  0
LINE
  5
3C2
330
1E
100
AcDbEntity
  8
0
100
AcDbLine
 10
402.566
 20
123.214
 30
0.0
 11
403.737
 21
123.7139999999999
 31
0.0
  0
LINE
  5
3C3
330
1E
100
AcDbEntity
  8
0
100
AcDbLine
 10
347.97
 20
123.807
 30
0.0
 11
348.301
 21
121.9279999999999
 31
0.0
  0
LINE
  5
3C4
330
1E
100
AcDbEntity
  8
0
100
AcDbLine
 10
406.245
 20
123.7029999999999
 30
0.0
 11
407.4319999999999
 21
123.2129999999999
 31
0.0
  0
LINE
  5
3C7
330
1E
100
AcDbEntity
  8
0
100
AcDbLine
 10
405.0009999999999
 20
123.866
 30
0.0
 11
406.245
 21
123.7029999999999
 31
0.0
  0
LINE
  5
3C8
330
1E
100
AcDbEntity
  8
0
100
AcDbLine
 10
403.737
 20
123.7139999999999
 30
0.0
 11
405.0009999999999
 21
123.866
 31
0.0
  0
LINE
  5
3C9
330
1E
100
AcDbEntity
  8
0
100
AcDbLine
 10
363.31
 20
123.937
 30
0.0
 11
373.523
 21
125.7379999999999
 31
0.0
  0
LINE
  5
3D5
330
1E
100
AcDbEntity
  8
0
100
AcDbLine
 10
484.5119999999999
 20
121.604
 30
0.0
 11
485.2319999999999
 21
121.892
 31
0.0
  0
LINE
  5
3D6
330
1E
100
AcDbEntity
  8
0
100
AcDbLine
 10
483.8759999999999
 20
121.1239999999999
 30
0.0
 11
484.5119999999999
 21
121.604
 31
0.0
  0
LINE
  5
3D7
330
1E
100
AcDbEntity
  8
0
100
AcDbLine
 10
484.453
 20
124.075
 30
0.0
 11
485.8964235818019
 21
125.374567692811
 31
0.0
  0
LINE
  5
3D8
330
1E
100
AcDbEntity
  8
0
100
AcDbLine
 10
483.109
 20
122.555
 30
0.0
 11
484.453
 21
124.075
 31
0.0
  0
LINE
  5
3D9
330
1E
100
AcDbEntity
  8
0
100
AcDbLine
 10
482.3019999999999
 20
120.835
 30
0.0
 11
483.109
 21
122.555
 31
0.0
  0
LINE
  5
3DB
330
1E
100
AcDbEntity
  8
0
100
AcDbLine
 10
385.664
 20
124.089
 30
0.0
 11
387.658
 21
129.0129999999999
 31
0.0
  0
LINE
  5
3DC
330
1E
100
AcDbEntity
  8
0
100
AcDbLine
 10
314.6959999999999
 20
122.473
 30
0.0
 11
314.8759999999999
 21
117.3059999999999
 31
0.0
  0
LINE
  5
3DD
330
1E
100
AcDbEntity
  8
0
100
AcDbLine
 10
275.124
 20
120.694
 30
0.0
 11
276.181
 21
125.7549999999999
 31
0.0
  0
LINE
  5
3DE
330
1E
100
AcDbEntity
  8
0
100
AcDbLine
 10
275.124
 20
120.694
 30
0.0
 11
275.304
 21
115.527
 31
0.0
  0
LINE
  5
3DF
330
1E
100
AcDbEntity
  8
0
100
AcDbLine
 10
204.319
 20
113.8236
 30
0.0
 11
204.9479999999999
 21
118.9559999999999
 31
0.0
  0
LINE
  5
3E0
330
1E
100
AcDbEntity
  8
0
100
AcDbLine
 10
164.7159999999999
 20
124.435
 30
0.0
 11
165.019
 21
125.1489999999999
 31
0.0
  0
LINE
  5
3E1
330
1E
100
AcDbEntity
  8
0
100
AcDbLine
 10
164.7159999999999
 20
124.435
 30
0.0
 11
165.199
 21
125.5649999999999
 31
0.0
  0
LINE
  5
3E2
330
1E
100
AcDbEntity
  8
0
100
AcDbLine
 10
165.199
 20
125.5649999999999
 30
0.0
 11
165.9429999999999
 21
126.5449999999999
 31
0.0
  0
LINE
  5
3E6
330
1E
100
AcDbEntity
  8
0
100
AcDbLine
 10
175.7299999999999
 20
124.354
 30
0.0
 11
177.4099999999999
 21
126.5449999999999
 31
0.0
  0
LINE
  5
3E7
330
1E
100
AcDbEntity
  8
0
100
AcDbLine
 10
194.2689999999999
 20
124.351
 30
0.0
 11
195.3459999999999
 21
121.74
 31
0.0
  0
LINE
  5
3E8
330
1E
100
AcDbEntity
  8
0
100
AcDbLine
 10
255.594
 20
124.237
 30
0.0
 11
260.4579999999999
 21
125.0939999999999
 31
0.0
  0
LINE
  5
3ED
330
1E
100
AcDbEntity
  8
0
100
AcDbLine
 10
179.4799999999999
 20
124.4879999999999
 30
0.0
 11
181.108
 21
125.7409999999999
 31
0.0
  0
LINE
  5
3EE
330
1E
100
AcDbEntity
  8
0
100
AcDbLine
 10
179.3199999999999
 20
124.6299999999999
 30
0.0
 11
180.995
 21
125.937
 31
0.0
  0
LINE
  5
3EF
330
1E
100
AcDbEntity
  8
0
100
AcDbLine
 10
190.6299999999999
 20
124.68
 30
0.0
 11
191.937
 21
123.005
 31
0.0
  0
LINE
  5
3F0
330
1E
100
AcDbEntity
  8
0
100
AcDbLine
 10
190.488
 20
124.52
 30
0.0
 11
191.7409999999999
 21
122.892
 31
0.0
  0
LINE
  5
3FA
330
1E
100
AcDbEntity
  8
0
100
AcDbLine
 10
274.716
 20
124.435
 30
0.0
 11
275.199
 21
125.5649999999999
 31
0.0
  0
LINE
  5
401
330
1E
100
AcDbEntity
  8
0
100
AcDbLine
 10
174.044
 20
125.327
 30
0.0
 11
176.0299999999999
 21
127.917
 31
0.0
  0
LINE
  5
404
330
1E
100
AcDbEntity
  8
0
100
AcDbLine
 10
177.449
 20
125.592
 30
0.0
 11
177.604
 21
126.171
 31
0.0
  0
LINE
  5
406
330
1E
100
AcDbEntity
  8
0
100
AcDbLine
 10
181.108
 20
125.7409999999999
 30
0.0
 11
183.007
 21
126.524
 31
0.0
  0
LINE
  5
407
330
1E
100
AcDbEntity
  8
0
100
AcDbLine
 10
195.954
 20
125.3239999999999
 30
0.0
 11
197.227
 21
122.238
 31
0.0
  0
LINE
  5
408
330
1E
100
AcDbEntity
  8
0
100
AcDbLine
 10
191.4109999999999
 20
125.224
 30
0.0
 11
193.168
 21
123.4939999999999
 31
0.0
  0
LINE
  5
40A
330
1E
100
AcDbEntity
  8
0
100
AcDbLine
 10
188.894
 20
125.7419999999999
 30
0.0
 11
190.488
 21
124.52
 31
0.0
  0
LINE
  5
40B
330
1E
100
AcDbEntity
  8
0
100
AcDbLine
 10
275.199
 20
125.5649999999999
 30
0.0
 11
275.943
 21
126.5449999999999
 31
0.0
  0
LINE
  5
40C
330
1E
100
AcDbEntity
  8
0
100
AcDbLine
 10
260.4579999999999
 20
125.0939999999999
 30
0.0
 11
277.297291747421
 21
128.063229368553
 31
0.0
  0
LINE
  5
40E
330
1E
100
AcDbEntity
  8
0
100
AcDbLine
 10
414.2699999999999
 20
124.354
 30
0.0
 11
415.3699999999999
 21
121.7789999999999
 31
0.0
  0
LINE
  5
40F
330
1E
100
AcDbEntity
  8
0
100
AcDbLine
 10
395.731
 20
124.351
 30
0.0
 11
397.4549999999999
 21
126.59
 31
0.0
  0
LINE
  5
412
330
1E
100
AcDbEntity
  8
0
100
AcDbLine
 10
410.6799999999999
 20
124.6299999999999
 30
0.0
 11
411.919
 21
122.9739999999999
 31
0.0
  0
LINE
  5
413
330
1E
100
AcDbEntity
  8
0
100
AcDbLine
 10
410.5199999999999
 20
124.4879999999999
 30
0.0
 11
411.742
 21
122.8939999999999
 31
0.0
  0
LINE
  5
414
330
1E
100
AcDbEntity
  8
0
100
AcDbLine
 10
399.5119999999999
 20
124.52
 30
0.0
 11
401.1059999999999
 21
125.7419999999999
 31
0.0
  0
LINE
  5
41A
330
1E
100
AcDbEntity
  8
0
100
AcDbLine
 10
399.37
 20
124.68
 30
0.0
 11
401.026
 21
125.919
 31
0.0
  0
LINE
  5
421
330
1E
100
AcDbEntity
  8
0
100
AcDbLine
 10
394.0459999999999
 20
125.3239999999999
 30
0.0
 11
396.083
 21
127.97
 31
0.0
  0
LINE
  5
422
330
1E
100
AcDbEntity
  8
0
100
AcDbLine
 10
398.5889999999999
 20
125.224
 30
0.0
 11
400.337
 21
126.944
 31
0.0
  0
LINE
  5
424
330
1E
100
AcDbEntity
  8
0
100
AcDbLine
 10
415.9559999999999
 20
125.327
 30
0.0
 11
417.2559999999999
 21
122.2839999999999
 31
0.0
  0
LINE
  5
427
330
1E
100
AcDbEntity
  8
0
100
AcDbLine
 10
412.551
 20
125.592
 30
0.0
 11
413.1
 21
123.5419999999999
 31
0.0
  0
LINE
  5
42A
330
1E
100
AcDbEntity
  8
0
100
AcDbLine
 10
408.8919999999999
 20
125.7409999999999
 30
0.0
 11
410.5199999999999
 21
124.4879999999999
 31
0.0
  0
LINE
  5
42B
330
1E
100
AcDbEntity
  8
0
100
AcDbLine
 10
401.1059999999999
 20
125.7419999999999
 30
0.0
 11
402.979
 21
126.5419999999999
 31
0.0
  0
LINE
  5
42C
330
1E
100
AcDbEntity
  8
0
100
AcDbLine
 10
373.523
 20
125.7379999999999
 30
0.0
 11
382.2929999999999
 21
127.2839999999999
 31
0.0
  0
LINE
  5
433
330
1E
100
AcDbEntity
  8
0
100
AcDbLine
 10
456.073
 20
124.622
 30
0.0
 11
457.1699999999999
 21
127.33
 31
0.0
  0
LINE
  5
436
330
1E
100
AcDbEntity
  8
0
100
AcDbLine
 10
424.981
 20
125.1489999999999
 30
0.0
 11
425.2839999999999
 21
124.435
 31
0.0
  0
LINE
  5
437
330
1E
100
AcDbEntity
  8
0
100
AcDbLine
 10
424.8009999999999
 20
125.5649999999999
 30
0.0
 11
425.2839999999999
 21
124.435
 31
0.0
  0
LINE
  5
438
330
1E
100
AcDbEntity
  8
0
100
AcDbLine
 10
425.2839999999999
 20
124.435
 30
0.0
 11
425.431
 21
123.215
 31
0.0
  0
LINE
  5
439
330
1E
100
AcDbEntity
  8
0
100
AcDbLine
 10
425.2839999999999
 20
124.435
 30
0.0
 11
425.379
 21
123.665
 31
0.0
  0
LINE
  5
43A
330
1E
100
AcDbEntity
  8
0
100
AcDbLine
 10
424.319
 20
124.1759999999999
 30
0.0
 11
424.948
 21
119.0439999999999
 31
0.0
  0
LINE
  5
43B
330
1E
100
AcDbEntity
  8
0
100
AcDbLine
 10
424.319
 20
124.1759999999999
 30
0.0
 11
424.3819999999999
 21
123.6629999999999
 31
0.0
  0
LINE
  5
441
330
1E
100
AcDbEntity
  8
0
100
AcDbLine
 10
177.604
 20
126.171
 30
0.0
 11
177.9009999999999
 21
126.386
 31
0.0
  0
LINE
  5
444
330
1E
100
AcDbEntity
  8
0
100
AcDbLine
 10
180.995
 20
125.937
 30
0.0
 11
182.964
 21
126.7339999999999
 31
0.0
  0
LINE
  5
447
330
1E
100
AcDbEntity
  8
0
100
AcDbLine
 10
188.974
 20
125.919
 30
0.0
 11
190.6299999999999
 21
124.68
 31
0.0
  0
LINE
  5
449
330
1E
100
AcDbEntity
  8
0
100
AcDbLine
 10
401.026
 20
125.919
 30
0.0
 11
402.929
 21
126.727
 31
0.0
  0
LINE
  5
44D
330
1E
100
AcDbEntity
  8
0
100
AcDbLine
 10
412.3959999999999
 20
126.171
 30
0.0
 11
412.551
 21
125.592
 31
0.0
  0
LINE
  5
450
330
1E
100
AcDbEntity
  8
0
100
AcDbLine
 10
409.0049999999999
 20
125.937
 30
0.0
 11
410.6799999999999
 21
124.6299999999999
 31
0.0
  0
LINE
  5
452
330
1E
100
AcDbEntity
  8
0
100
AcDbLine
 10
347.595
 20
125.9339999999999
 30
0.0
 11
347.97
 21
123.807
 31
0.0
  0
LINE
  5
454
330
1E
100
AcDbEntity
  8
0
100
AcDbLine
 10
177.9009999999999
 20
126.386
 30
0.0
 11
178.502
 21
126.5409999999999
 31
0.0
  0
LINE
  5
455
330
1E
100
AcDbEntity
  8
0
100
AcDbLine
 10
177.4099999999999
 20
126.5449999999999
 30
0.0
 11
179.649
 21
128.269
 31
0.0
  0
LINE
  5
456
330
1E
100
AcDbEntity
  8
0
100
AcDbLine
 10
178.502
 20
126.5409999999999
 30
0.0
 11
180.173
 21
126.9759999999999
 31
0.0
  0
LINE
  5
457
330
1E
100
AcDbEntity
  8
0
100
AcDbLine
 10
183.007
 20
126.524
 30
0.0
 11
184.999
 21
126.7859999999999
 31
0.0
  0
LINE
  5
458
330
1E
100
AcDbEntity
  8
0
100
AcDbLine
 10
187.0209999999999
 20
126.5419999999999
 30
0.0
 11
188.894
 21
125.7419999999999
 31
0.0
  0
LINE
  5
459
330
1E
100
AcDbEntity
  8
0
100
AcDbLine
 10
192.5449999999999
 20
126.59
 30
0.0
 11
194.2689999999999
 21
124.351
 31
0.0
  0
LINE
  5
45A
330
1E
100
AcDbEntity
  8
0
100
AcDbLine
 10
275.943
 20
126.5449999999999
 30
0.0
 11
276.9529999999999
 21
127.317
 31
0.0
  0
LINE
  5
45B
330
1E
100
AcDbEntity
  8
0
100
AcDbLine
 10
412.0989999999999
 20
126.386
 30
0.0
 11
412.3959999999999
 21
126.171
 31
0.0
  0
LINE
  5
45C
330
1E
100
AcDbEntity
  8
0
100
AcDbLine
 10
412.5899999999999
 20
126.5449999999999
 30
0.0
 11
414.2699999999999
 21
124.354
 31
0.0
  0
LINE
  5
45D
330
1E
100
AcDbEntity
  8
0
100
AcDbLine
 10
411.498
 20
126.5409999999999
 30
0.0
 11
412.0989999999999
 21
126.386
 31
0.0
  0
LINE
  5
460
330
1E
100
AcDbEntity
  8
0
100
AcDbLine
 10
406.993
 20
126.524
 30
0.0
 11
408.8919999999999
 21
125.7409999999999
 31
0.0
  0
LINE
  5
461
330
1E
100
AcDbEntity
  8
0
100
AcDbLine
 10
402.979
 20
126.5419999999999
 30
0.0
 11
405.0009999999999
 21
126.7859999999999
 31
0.0
  0
LINE
  5
462
330
1E
100
AcDbEntity
  8
0
100
AcDbLine
 10
397.4549999999999
 20
126.59
 30
0.0
 11
399.6459999999999
 21
128.27
 31
0.0
  0
LINE
  5
463
330
1E
100
AcDbEntity
  8
0
100
AcDbLine
 10
424.0569999999999
 20
126.5449999999999
 30
0.0
 11
424.8009999999999
 21
125.5649999999999
 31
0.0
  0
LINE
  5
469
330
1E
100
AcDbEntity
  8
0
100
AcDbLine
 10
165.9429999999999
 20
126.5449999999999
 30
0.0
 11
166.9529999999999
 21
127.317
 31
0.0
  0
LINE
  5
46A
330
1E
100
AcDbEntity
  8
0
100
AcDbLine
 10
276.181
 20
125.7549999999999
 30
0.0
 11
278.596
 21
130.4859999999999
 31
0.0
  0
LINE
  5
46B
330
1E
100
AcDbEntity
  8
0
100
AcDbLine
 10
165.6809999999999
 20
124.1759999999999
 30
0.0
 11
167.7019999999999
 21
128.936
 31
0.0
  0
LINE
  5
46C
330
1E
100
AcDbEntity
  8
0
100
AcDbLine
 10
204.3359999999999
 20
124.089
 30
0.0
 11
204.9479999999999
 21
118.9559999999999
 31
0.0
  0
LINE
  5
46D
330
1E
100
AcDbEntity
  8
0
100
AcDbLine
 10
485.2319999999999
 20
121.892
 30
0.0
 11
485.410211706102
 21
121.9170610211709
 31
0.0
  0
LINE
  5
46E
330
1E
100
AcDbEntity
  8
0
100
AcDbLine
 10
485.2319999999999
 20
116.1079999999999
 30
0.0
 11
485.410211706102
 21
116.0829389788289
 31
0.0
  0
LINE
  5
46F
330
1E
100
AcDbEntity
  8
0
100
AcDbLine
 10
486.08
 20
111.3199999999999
 30
0.0
 11
488.9599999999999
 21
104.12
 31
0.0
  0
LINE
  5
470
330
1E
100
AcDbEntity
  8
0
100
AcDbLine
 10
488.9599999999999
 20
104.12
 30
0.0
 11
493.7599999999999
 21
97.76000000000001
 31
0.0
  0
LINE
  5
471
330
1E
100
AcDbEntity
  8
0
100
AcDbLine
 10
485.0
 20
119.0
 30
0.0
 11
486.08
 21
126.68
 31
0.0
  0
LINE
  5
472
330
1E
100
AcDbEntity
  8
0
100
AcDbLine
 10
485.0
 20
119.0
 30
0.0
 11
486.08
 21
111.3199999999999
 31
0.0
  0
LINE
  5
473
330
1E
100
AcDbEntity
  8
0
100
AcDbLine
 10
166.9529999999999
 20
127.317
 30
0.0
 11
167.057723508963
 21
127.418555122545
 31
0.0
  0
LINE
  5
474
330
1E
100
AcDbEntity
  8
0
100
AcDbLine
 10
167.7019999999999
 20
128.936
 30
0.0
 11
170.799
 21
133.0749999999999
 31
0.0
  0
LINE
  5
476
330
1E
100
AcDbEntity
  8
0
100
AcDbLine
 10
176.0299999999999
 20
127.917
 30
0.0
 11
178.6759999999999
 21
129.954
 31
0.0
  0
LINE
  5
478
330
1E
100
AcDbEntity
  8
0
100
AcDbLine
 10
178.6759999999999
 20
129.954
 30
0.0
 11
181.7619999999999
 21
131.227
 31
0.0
  0
LINE
  5
47A
330
1E
100
AcDbEntity
  8
0
100
AcDbLine
 10
179.649
 20
128.269
 30
0.0
 11
182.2599999999999
 21
129.346
 31
0.0
  0
LINE
  5
47B
330
1E
100
AcDbEntity
  8
0
100
AcDbLine
 10
170.799
 20
133.0749999999999
 30
0.0
 11
174.987
 21
136.342
 31
0.0
  0
LINE
  5
47C
330
1E
100
AcDbEntity
  8
0
100
AcDbLine
 10
174.987
 20
136.342
 30
0.0
 11
179.9109999999999
 21
138.336
 31
0.0
  0
LINE
  5
480
330
1E
100
AcDbEntity
  8
0
100
AcDbLine
 10
182.2599999999999
 20
129.346
 30
0.0
 11
184.999
 21
129.705
 31
0.0
  0
LINE
  5
482
330
1E
100
AcDbEntity
  8
0
100
AcDbLine
 10
181.7619999999999
 20
131.227
 30
0.0
 11
184.998
 21
131.652
 31
0.0
  0
LINE
  5
484
330
1E
100
AcDbEntity
  8
0
100
AcDbLine
 10
184.998
 20
131.652
 30
0.0
 11
188.284
 21
131.2559999999999
 31
0.0
  0
LINE
  5
485
330
1E
100
AcDbEntity
  8
0
100
AcDbLine
 10
184.999
 20
129.705
 30
0.0
 11
187.779
 21
129.37
 31
0.0
  0
LINE
  5
486
330
1E
100
AcDbEntity
  8
0
100
AcDbLine
 10
184.934
 20
128.212
 30
0.0
 11
186.415
 21
128.578
 31
0.0
  0
LINE
  5
489
330
1E
100
AcDbEntity
  8
0
100
AcDbLine
 10
182.56
 20
127.5949999999999
 30
0.0
 11
184.934
 21
128.212
 31
0.0
  0
LINE
  5
48B
330
1E
100
AcDbEntity
  8
0
100
AcDbLine
 10
180.173
 20
126.9759999999999
 30
0.0
 11
182.56
 21
127.5949999999999
 31
0.0
  0
LINE
  5
48D
330
1E
100
AcDbEntity
  8
0
100
AcDbLine
 10
182.964
 20
126.7339999999999
 30
0.0
 11
185.0179999999999
 21
126.9789999999999
 31
0.0
  0
LINE
  5
48E
330
1E
100
AcDbEntity
  8
0
100
AcDbLine
 10
189.6629999999999
 20
126.944
 30
0.0
 11
191.4109999999999
 21
125.224
 31
0.0
  0
LINE
  5
492
330
1E
100
AcDbEntity
  8
0
100
AcDbLine
 10
188.564
 20
128.002
 30
0.0
 11
189.6629999999999
 21
126.944
 31
0.0
  0
LINE
  5
494
330
1E
100
AcDbEntity
  8
0
100
AcDbLine
 10
187.529
 20
128.4399999999999
 30
0.0
 11
188.564
 21
128.002
 31
0.0
  0
LINE
  5
499
330
1E
100
AcDbEntity
  8
0
100
AcDbLine
 10
188.284
 20
131.2559999999999
 30
0.0
 11
191.3269999999999
 21
129.956
 31
0.0
  0
LINE
  5
49A
330
1E
100
AcDbEntity
  8
0
100
AcDbLine
 10
187.779
 20
129.37
 30
0.0
 11
190.354
 21
128.27
 31
0.0
  0
LINE
  5
49D
330
1E
100
AcDbEntity
  8
0
100
AcDbLine
 10
186.415
 20
128.578
 30
0.0
 11
187.529
 21
128.4399999999999
 31
0.0
  0
LINE
  5
49E
330
1E
100
AcDbEntity
  8
0
100
AcDbLine
 10
185.0179999999999
 20
126.9789999999999
 30
0.0
 11
187.071
 21
126.727
 31
0.0
  0
LINE
  5
49F
330
1E
100
AcDbEntity
  8
0
100
AcDbLine
 10
184.999
 20
126.7859999999999
 30
0.0
 11
187.0209999999999
 21
126.5419999999999
 31
0.0
  0
LINE
  5
4A0
330
1E
100
AcDbEntity
  8
0
100
AcDbLine
 10
187.071
 20
126.727
 30
0.0
 11
188.974
 21
125.919
 31
0.0
  0
LINE
  5
4A1
330
1E
100
AcDbEntity
  8
0
100
AcDbLine
 10
179.9109999999999
 20
138.336
 30
0.0
 11
185.044
 21
138.9479999999999
 31
0.0
  0
LINE
  5
4A2
330
1E
100
AcDbEntity
  8
0
100
AcDbLine
 10
185.044
 20
138.9479999999999
 30
0.0
 11
190.1759999999999
 21
138.3189999999999
 31
0.0
  0
LINE
  5
4A4
330
1E
100
AcDbEntity
  8
0
100
AcDbLine
 10
193.917
 20
127.97
 30
0.0
 11
195.954
 21
125.3239999999999
 31
0.0
  0
LINE
  5
4A7
330
1E
100
AcDbEntity
  8
0
100
AcDbLine
 10
191.3269999999999
 20
129.956
 30
0.0
 11
193.917
 21
127.97
 31
0.0
  0
LINE
  5
4A9
330
1E
100
AcDbEntity
  8
0
100
AcDbLine
 10
190.354
 20
128.27
 30
0.0
 11
192.5449999999999
 21
126.59
 31
0.0
  0
LINE
  5
4AA
330
1E
100
AcDbEntity
  8
0
100
AcDbLine
 10
276.9529999999999
 20
127.317
 30
0.0
 11
277.003186154674
 21
127.365667783752
 31
0.0
  0
LINE
  5
4AB
330
1E
100
AcDbEntity
  8
0
100
AcDbLine
 10
309.7559999999999
 20
127.432
 30
0.0
 11
311.3879999999999
 21
123.352
 31
0.0
  0
LINE
  5
4AF
330
1E
100
AcDbEntity
  8
0
100
AcDbLine
 10
280.244
 20
127.432
 30
0.0
 11
282.9639999999999
 21
131.0359999999999
 31
0.0
  0
LINE
  5
4B1
330
1E
100
AcDbEntity
  8
0
100
AcDbLine
 10
407.0359999999999
 20
126.7339999999999
 30
0.0
 11
409.0049999999999
 21
125.937
 31
0.0
  0
LINE
  5
4B2
330
1E
100
AcDbEntity
  8
0
100
AcDbLine
 10
405.0009999999999
 20
126.7859999999999
 30
0.0
 11
406.993
 21
126.524
 31
0.0
  0
LINE
  5
4B3
330
1E
100
AcDbEntity
  8
0
100
AcDbLine
 10
402.929
 20
126.727
 30
0.0
 11
404.9819999999999
 21
126.9789999999999
 31
0.0
  0
LINE
  5
4B7
330
1E
100
AcDbEntity
  8
0
100
AcDbLine
 10
400.337
 20
126.944
 30
0.0
 11
401.4359999999999
 21
128.002
 31
0.0
  0
LINE
  5
4B8
330
1E
100
AcDbEntity
  8
0
100
AcDbLine
 10
409.827
 20
126.9759999999999
 30
0.0
 11
411.498
 21
126.5409999999999
 31
0.0
  0
LINE
  5
4BB
330
1E
100
AcDbEntity
  8
0
100
AcDbLine
 10
404.9819999999999
 20
126.9789999999999
 30
0.0
 11
407.0359999999999
 21
126.7339999999999
 31
0.0
  0
LINE
  5
4C3
330
1E
100
AcDbEntity
  8
0
100
AcDbLine
 10
396.083
 20
127.97
 30
0.0
 11
398.673
 21
129.956
 31
0.0
  0
LINE
  5
4C5
330
1E
100
AcDbEntity
  8
0
100
AcDbLine
 10
399.6459999999999
 20
128.27
 30
0.0
 11
402.221
 21
129.37
 31
0.0
  0
LINE
  5
4C7
330
1E
100
AcDbEntity
  8
0
100
AcDbLine
 10
401.4359999999999
 20
128.002
 30
0.0
 11
402.4709999999999
 21
128.4399999999999
 31
0.0
  0
LINE
  5
4CB
330
1E
100
AcDbEntity
  8
0
100
AcDbLine
 10
402.4709999999999
 20
128.4399999999999
 30
0.0
 11
403.5849999999999
 21
128.578
 31
0.0
  0
LINE
  5
4CD
330
1E
100
AcDbEntity
  8
0
100
AcDbLine
 10
403.5849999999999
 20
128.578
 30
0.0
 11
405.0659999999999
 21
128.212
 31
0.0
  0
LINE
  5
4CF
330
1E
100
AcDbEntity
  8
0
100
AcDbLine
 10
413.97
 20
127.917
 30
0.0
 11
415.9559999999999
 21
125.327
 31
0.0
  0
LINE
  5
4D1
330
1E
100
AcDbEntity
  8
0
100
AcDbLine
 10
410.3509999999999
 20
128.269
 30
0.0
 11
412.5899999999999
 21
126.5449999999999
 31
0.0
  0
LINE
  5
4D2
330
1E
100
AcDbEntity
  8
0
100
AcDbLine
 10
405.0659999999999
 20
128.212
 30
0.0
 11
407.4399999999999
 21
127.5949999999999
 31
0.0
  0
LINE
  5
4D5
330
1E
100
AcDbEntity
  8
0
100
AcDbLine
 10
407.4399999999999
 20
127.5949999999999
 30
0.0
 11
409.827
 21
126.9759999999999
 31
0.0
  0
LINE
  5
4D7
330
1E
100
AcDbEntity
  8
0
100
AcDbLine
 10
347.195
 20
128.2029999999999
 30
0.0
 11
347.595
 21
125.9339999999999
 31
0.0
  0
LINE
  5
4D8
330
1E
100
AcDbEntity
  8
0
100
AcDbLine
 10
382.2929999999999
 20
127.2839999999999
 30
0.0
 11
387.316639519139
 21
128.1700416209829
 31
0.0
  0
LINE
  5
4DF
330
1E
100
AcDbEntity
  8
0
100
AcDbLine
 10
457.1699999999999
 20
127.33
 30
0.0
 11
457.5059999999999
 21
130.1539999999999
 31
0.0
  0
LINE
  5
4E0
330
1E
100
AcDbEntity
  8
0
100
AcDbLine
 10
422.942276491037
 20
127.418555122546
 30
0.0
 11
423.0469999999999
 21
127.317
 31
0.0
  0
LINE
  5
4E1
330
1E
100
AcDbEntity
  8
0
100
AcDbLine
 10
423.0469999999999
 20
127.317
 30
0.0
 11
424.0569999999999
 21
126.5449999999999
 31
0.0
  0
LINE
  5
4E2
330
1E
100
AcDbEntity
  8
0
100
AcDbLine
 10
422.2979999999999
 20
128.936
 30
0.0
 11
424.319
 21
124.1759999999999
 31
0.0
  0
LINE
  5
4E3
330
1E
100
AcDbEntity
  8
0
100
AcDbLine
 10
387.658
 20
129.0129999999999
 30
0.0
 11
390.925
 21
133.2009999999999
 31
0.0
  0
LINE
  5
4E4
330
1E
100
AcDbEntity
  8
0
100
AcDbLine
 10
313.098
 20
127.39
 30
0.0
 11
314.6959999999999
 21
122.473
 31
0.0
  0
LINE
  5
4E7
330
1E
100
AcDbEntity
  8
0
100
AcDbLine
 10
303.432
 20
133.756
 30
0.0
 11
307.0359999999999
 21
131.0359999999999
 31
0.0
  0
LINE
  5
4E8
330
1E
100
AcDbEntity
  8
0
100
AcDbLine
 10
286.5679999999999
 20
133.756
 30
0.0
 11
290.6479999999999
 21
135.3879999999999
 31
0.0
  0
LINE
  5
4E9
330
1E
100
AcDbEntity
  8
0
100
AcDbLine
 10
282.9639999999999
 20
131.0359999999999
 30
0.0
 11
286.5679999999999
 21
133.756
 31
0.0
  0
LINE
  5
4EA
330
1E
100
AcDbEntity
  8
0
100
AcDbLine
 10
278.596
 20
130.4859999999999
 30
0.0
 11
282.216
 21
134.3739999999999
 31
0.0
  0
LINE
  5
4EC
330
1E
100
AcDbEntity
  8
0
100
AcDbLine
 10
295.0
 20
136.0
 30
0.0
 11
299.352
 21
135.3879999999999
 31
0.0
  0
LINE
  5
4ED
330
1E
100
AcDbEntity
  8
0
100
AcDbLine
 10
299.352
 20
135.3879999999999
 30
0.0
 11
303.432
 21
133.756
 31
0.0
  0
LINE
  5
4EE
330
1E
100
AcDbEntity
  8
0
100
AcDbLine
 10
290.6479999999999
 20
135.3879999999999
 30
0.0
 11
295.0
 21
136.0
 31
0.0
  0
LINE
  5
4EF
330
1E
100
AcDbEntity
  8
0
100
AcDbLine
 10
282.216
 20
134.3739999999999
 30
0.0
 11
286.61
 21
137.0979999999999
 31
0.0
  0
LINE
  5
4F0
330
1E
100
AcDbEntity
  8
0
100
AcDbLine
 10
407.7399999999999
 20
129.346
 30
0.0
 11
410.3509999999999
 21
128.269
 31
0.0
  0
LINE
  5
4F1
330
1E
100
AcDbEntity
  8
0
100
AcDbLine
 10
402.221
 20
129.37
 30
0.0
 11
405.0009999999999
 21
129.705
 31
0.0
  0
LINE
  5
4F2
330
1E
100
AcDbEntity
  8
0
100
AcDbLine
 10
398.673
 20
129.956
 30
0.0
 11
401.716
 21
131.2559999999999
 31
0.0
  0
LINE
  5
4F6
330
1E
100
AcDbEntity
  8
0
100
AcDbLine
 10
411.324
 20
129.954
 30
0.0
 11
413.97
 21
127.917
 31
0.0
  0
LINE
  5
4F7
330
1E
100
AcDbEntity
  8
0
100
AcDbLine
 10
405.0009999999999
 20
129.705
 30
0.0
 11
407.7399999999999
 21
129.346
 31
0.0
  0
LINE
  5
4FA
330
1E
100
AcDbEntity
  8
0
100
AcDbLine
 10
346.795
 20
130.472
 30
0.0
 11
347.195
 21
128.2029999999999
 31
0.0
  0
LINE
  5
4FC
330
1E
100
AcDbEntity
  8
0
100
AcDbLine
 10
408.238
 20
131.227
 30
0.0
 11
411.324
 21
129.954
 31
0.0
  0
LINE
  5
4FD
330
1E
100
AcDbEntity
  8
0
100
AcDbLine
 10
401.716
 20
131.2559999999999
 30
0.0
 11
405.0019999999999
 21
131.652
 31
0.0
  0
LINE
  5
504
330
1E
100
AcDbEntity
  8
0
100
AcDbLine
 10
405.0019999999999
 20
131.652
 30
0.0
 11
408.238
 21
131.227
 31
0.0
  0
LINE
  5
50E
330
1E
100
AcDbEntity
  8
0
100
AcDbLine
 10
307.0359999999999
 20
131.0359999999999
 30
0.0
 11
309.7559999999999
 21
127.432
 31
0.0
  0
LINE
  5
50F
330
1E
100
AcDbEntity
  8
0
100
AcDbLine
 10
346.42
 20
132.6
 30
0.0
 11
346.795
 21
130.472
 31
0.0
  0
LINE
  5
511
330
1E
100
AcDbEntity
  8
0
100
AcDbLine
 10
308.599384617083
 20
133.5831059493709
 30
0.0
 11
325.375
 21
136.541
 31
0.0
  0
LINE
  5
515
330
1E
100
AcDbEntity
  8
0
100
AcDbLine
 10
345.979005510528
 20
135.097216744283
 30
0.0
 11
349.919
 21
135.792
 31
0.0
  0
LINE
  5
516
330
1E
100
AcDbEntity
  8
0
100
AcDbLine
 10
346.088
 20
134.4789999999999
 30
0.0
 11
346.42
 21
132.6
 31
0.0
  0
LINE
  5
517
330
1E
100
AcDbEntity
  8
0
100
AcDbLine
 10
330.86005691313
 20
134.4618100372389
 30
0.0
 11
345.6319999999999
 21
137.067
 31
0.0
  0
LINE
  5
51D
330
1E
100
AcDbEntity
  8
0
100
AcDbLine
 10
349.919
 20
135.792
 30
0.0
 11
360.879
 21
137.724
 31
0.0
  0
LINE
  5
51E
330
1E
100
AcDbEntity
  8
0
100
AcDbLine
 10
345.838
 20
135.897
 30
0.0
 11
346.088
 21
134.4789999999999
 31
0.0
  0
LINE
  5
525
330
1E
100
AcDbEntity
  8
0
100
AcDbLine
 10
390.925
 20
133.2009999999999
 30
0.0
 11
395.064
 21
136.298
 31
0.0
  0
LINE
  5
527
330
1E
100
AcDbEntity
  8
0
100
AcDbLine
 10
457.16
 20
132.976
 30
0.0
 11
457.5059999999999
 21
130.1539999999999
 31
0.0
  0
LINE
  5
530
330
1E
100
AcDbEntity
  8
0
100
AcDbLine
 10
456.049
 20
135.5939999999999
 30
0.0
 11
456.855
 21
134.197
 31
0.0
  0
LINE
  5
533
330
1E
100
AcDbEntity
  8
0
100
AcDbLine
 10
418.134313819872
 20
133.9071069127209
 30
0.0
 11
430.165
 21
137.131
 31
0.0
  0
LINE
  5
534
330
1E
100
AcDbEntity
  8
0
100
AcDbLine
 10
419.2009999999999
 20
133.0749999999999
 30
0.0
 11
422.2979999999999
 21
128.936
 31
0.0
  0
LINE
  5
535
330
1E
100
AcDbEntity
  8
0
100
AcDbLine
 10
395.064
 20
136.298
 30
0.0
 11
399.824
 21
138.3189999999999
 31
0.0
  0
LINE
  5
536
330
1E
100
AcDbEntity
  8
0
100
AcDbLine
 10
310.374
 20
131.7839999999999
 30
0.0
 11
313.098
 21
127.39
 31
0.0
  0
LINE
  5
537
330
1E
100
AcDbEntity
  8
0
100
AcDbLine
 10
306.4859999999999
 20
135.4039999999999
 30
0.0
 11
310.374
 21
131.7839999999999
 31
0.0
  0
LINE
  5
538
330
1E
100
AcDbEntity
  8
0
100
AcDbLine
 10
202.342
 20
129.0129999999999
 30
0.0
 11
204.3359999999999
 21
124.089
 31
0.0
  0
LINE
  5
539
330
1E
100
AcDbEntity
  8
0
100
AcDbLine
 10
199.075
 20
133.2009999999999
 30
0.0
 11
202.342
 21
129.0129999999999
 31
0.0
  0
LINE
  5
53D
330
1E
100
AcDbEntity
  8
0
100
AcDbLine
 10
286.61
 20
137.0979999999999
 30
0.0
 11
291.5269999999999
 21
138.6959999999999
 31
0.0
  0
LINE
  5
546
330
1E
100
AcDbEntity
  8
0
100
AcDbLine
 10
345.688
 20
136.748
 30
0.0
 11
345.838
 21
135.897
 31
0.0
  0
LINE
  5
54A
330
1E
100
AcDbEntity
  8
0
100
AcDbLine
 10
345.6319999999999
 20
137.067
 30
0.0
 11
345.688
 21
136.748
 31
0.0
  0
LINE
  5
54B
330
1E
100
AcDbEntity
  8
0
100
AcDbLine
 10
330.394
 20
137.1049999999999
 30
0.0
 11
334.452
 21
114.0919
 31
0.0
  0
LINE
  5
54E
330
1E
100
AcDbEntity
  8
0
100
AcDbLine
 10
360.879
 20
137.724
 30
0.0
 11
371.0919999999999
 21
139.525
 31
0.0
  0
LINE
  5
54F
330
1E
100
AcDbEntity
  8
0
100
AcDbLine
 10
330.238
 20
137.399
 30
0.0
 11
330.394
 21
137.1049999999999
 31
0.0
  0
LINE
  5
550
330
1E
100
AcDbEntity
  8
0
100
AcDbLine
 10
325.375
 20
136.541
 30
0.0
 11
330.238
 21
137.399
 31
0.0
  0
LINE
  5
55E
330
1E
100
AcDbEntity
  8
0
100
AcDbLine
 10
454.3449999999999
 20
137.871
 30
0.0
 11
456.049
 21
135.5939999999999
 31
0.0
  0
LINE
  5
55F
330
1E
100
AcDbEntity
  8
0
100
AcDbLine
 10
433.665
 20
138.0689999999999
 30
0.0
 11
436.9259999999999
 21
138.9429999999999
 31
0.0
  0
LINE
  5
560
330
1E
100
AcDbEntity
  8
0
100
AcDbLine
 10
430.165
 20
137.131
 30
0.0
 11
433.665
 21
138.0689999999999
 31
0.0
  0
LINE
  5
561
330
1E
100
AcDbEntity
  8
0
100
AcDbLine
 10
415.013
 20
136.342
 30
0.0
 11
419.2009999999999
 21
133.0749999999999
 31
0.0
  0
LINE
  5
562
330
1E
100
AcDbEntity
  8
0
100
AcDbLine
 10
410.0889999999999
 20
138.336
 30
0.0
 11
415.013
 21
136.342
 31
0.0
  0
LINE
  5
563
330
1E
100
AcDbEntity
  8
0
100
AcDbLine
 10
399.824
 20
138.3189999999999
 30
0.0
 11
404.9559999999999
 21
138.9479999999999
 31
0.0
  0
LINE
  5
564
330
1E
100
AcDbEntity
  8
0
100
AcDbLine
 10
301.7549999999999
 20
137.8189999999999
 30
0.0
 11
306.4859999999999
 21
135.4039999999999
 31
0.0
  0
LINE
  5
565
330
1E
100
AcDbEntity
  8
0
100
AcDbLine
 10
371.0919999999999
 20
139.525
 30
0.0
 11
379.8619999999999
 21
141.0709999999999
 31
0.0
  0
LINE
  5
567
330
1E
100
AcDbEntity
  8
0
100
AcDbLine
 10
452.0419999999999
 20
139.668
 30
0.0
 11
454.3449999999999
 21
137.871
 31
0.0
  0
LINE
  5
568
330
1E
100
AcDbEntity
  8
0
100
AcDbLine
 10
436.9259999999999
 20
138.9429999999999
 30
0.0
 11
439.7269999999999
 21
139.6929999999999
 31
0.0
  0
LINE
  5
569
330
1E
100
AcDbEntity
  8
0
100
AcDbLine
 10
439.7269999999999
 20
139.6929999999999
 30
0.0
 11
441.8759999999999
 21
140.2689999999999
 31
0.0
  0
LINE
  5
56A
330
1E
100
AcDbEntity
  8
0
100
AcDbLine
 10
404.9559999999999
 20
138.9479999999999
 30
0.0
 11
410.0889999999999
 21
138.336
 31
0.0
  0
LINE
  5
56B
330
1E
100
AcDbEntity
  8
0
100
AcDbLine
 10
296.694
 20
138.8759999999999
 30
0.0
 11
301.7549999999999
 21
137.8189999999999
 31
0.0
  0
LINE
  5
56C
330
1E
100
AcDbEntity
  8
0
100
AcDbLine
 10
291.5269999999999
 20
138.6959999999999
 30
0.0
 11
296.694
 21
138.8759999999999
 31
0.0
  0
LINE
  5
56D
330
1E
100
AcDbEntity
  8
0
100
AcDbLine
 10
194.9359999999999
 20
136.298
 30
0.0
 11
199.075
 21
133.2009999999999
 31
0.0
  0
LINE
  5
56E
330
1E
100
AcDbEntity
  8
0
100
AcDbLine
 10
190.1759999999999
 20
138.3189999999999
 30
0.0
 11
194.9359999999999
 21
136.298
 31
0.0
  0
LINE
  5
56F
330
1E
100
AcDbEntity
  8
0
100
AcDbLine
 10
486.08
 20
126.68
 30
0.0
 11
488.9599999999999
 21
133.8799999999999
 31
0.0
  0
LINE
  5
570
330
1E
100
AcDbEntity
  8
0
100
AcDbLine
 10
493.7599999999999
 20
97.76000000000001
 30
0.0
 11
500.1199999999999
 21
92.95999999999999
 31
0.0
  0
LINE
  5
571
330
1E
100
AcDbEntity
  8
0
100
AcDbLine
 10
500.1199999999999
 20
92.95999999999999
 30
0.0
 11
507.3199999999999
 21
90.08
 31
0.0
  0
LINE
  5
572
330
1E
100
AcDbEntity
  8
0
100
AcDbLine
 10
488.9599999999999
 20
133.8799999999999
 30
0.0
 11
493.7599999999999
 21
140.24
 31
0.0
  0
LINE
  5
573
330
1E
100
AcDbEntity
  8
0
100
AcDbLine
 10
386.362757873412
 20
142.217567547658
 30
0.0
 11
390.241
 21
143.257
 31
0.0
  0
LINE
  5
575
330
1E
100
AcDbEntity
  8
0
100
AcDbLine
 10
379.8619999999999
 20
141.0709999999999
 30
0.0
 11
386.592
 21
142.2579999999999
 31
0.0
  0
LINE
  5
576
330
1E
100
AcDbEntity
  8
0
100
AcDbLine
 10
390.241
 20
143.257
 30
0.0
 11
391.656
 21
143.636
 31
0.0
  0
LINE
  5
578
330
1E
100
AcDbEntity
  8
0
100
AcDbLine
 10
399.522
 20
140.352
 30
0.0
 11
400.2299999999999
 21
138.686
 31
0.0
  0
LINE
  5
579
330
1E
100
AcDbEntity
  8
0
100
AcDbLine
 10
398.439
 20
141.801
 30
0.0
 11
399.522
 21
140.352
 31
0.0
  0
LINE
  5
57A
330
1E
100
AcDbEntity
  8
0
100
AcDbLine
 10
396.973
 20
142.9439999999999
 30
0.0
 11
398.439
 21
141.801
 31
0.0
  0
LINE
  5
57B
330
1E
100
AcDbEntity
  8
0
100
AcDbLine
 10
395.249
 20
143.642
 30
0.0
 11
396.973
 21
142.9439999999999
 31
0.0
  0
LINE
  5
57C
330
1E
100
AcDbEntity
  8
0
100
AcDbLine
 10
393.453
 20
143.856
 30
0.0
 11
395.249
 21
143.642
 31
0.0
  0
LINE
  5
57D
330
1E
100
AcDbEntity
  8
0
100
AcDbLine
 10
391.656
 20
143.636
 30
0.0
 11
393.453
 21
143.856
 31
0.0
  0
LINE
  5
581
330
1E
100
AcDbEntity
  8
0
100
AcDbLine
 10
443.688
 20
140.754
 30
0.0
 11
446.5099999999999
 21
141.101
 31
0.0
  0
LINE
  5
58A
330
1E
100
AcDbEntity
  8
0
100
AcDbLine
 10
446.5099999999999
 20
141.101
 30
0.0
 11
449.3339999999999
 21
140.764
 31
0.0
  0
LINE
  5
58B
330
1E
100
AcDbEntity
  8
0
100
AcDbLine
 10
449.3339999999999
 20
140.764
 30
0.0
 11
452.0419999999999
 21
139.668
 31
0.0
  0
LINE
  5
58C
330
1E
100
AcDbEntity
  8
0
100
AcDbLine
 10
443.2269999999999
 20
140.6309999999999
 30
0.0
 11
443.688
 21
140.754
 31
0.0
  0
LINE
  5
58D
330
1E
100
AcDbEntity
  8
0
100
AcDbLine
 10
441.8759999999999
 20
140.2689999999999
 30
0.0
 11
443.2269999999999
 21
140.6309999999999
 31
0.0
  0
LINE
  5
58E
330
1E
100
AcDbEntity
  8
0
100
AcDbLine
 10
493.7599999999999
 20
140.24
 30
0.0
 11
500.1199999999999
 21
145.0399999999999
 31
0.0
  0
LINE
  5
58F
330
1E
100
AcDbEntity
  8
0
100
AcDbLine
 10
507.3199999999999
 20
90.08
 30
0.0
 11
515.0
 21
89.0
 31
0.0
  0
LINE
  5
590
330
1E
100
AcDbEntity
  8
0
100
AcDbLine
 10
515.0
 20
89.0
 30
0.0
 11
522.6799999999999
 21
90.08
 31
0.0
  0
LINE
  5
591
330
1E
100
AcDbEntity
  8
0
100
AcDbLine
 10
500.1199999999999
 20
145.0399999999999
 30
0.0
 11
507.3199999999999
 21
147.9199999999999
 31
0.0
  0
LINE
  5
592
330
1E
100
AcDbEntity
  8
0
100
AcDbLine
 10
0.0
 20
200.0
 30
0.0
 11
700.0
 21
200.0
 31
0.0
  0
LINE
  5
593
330
1E
100
AcDbEntity
  8
0
100
AcDbLine
 10
0.0
 20
200.0
 30
0.0
 11
149.0
 21
150.0
 31
0.0
  0
LINE
  5
594
330
1E
100
AcDbEntity
  8
0
100
AcDbLine
 10
149.0
 20
150.0
 30
0.0
 11
551.0
 21
150.0
 31
0.0
  0
LINE
  5
595
330
1E
100
AcDbEntity
  8
0
100
AcDbLine
 10
149.0
 20
150.0
 30
0.0
 11
149.0
 21
50.0
 31
0.0
  0
LINE
  5
596
330
1E
100
AcDbEntity
  8
0
100
AcDbLine
 10
149.0
 20
150.0
 30
0.0
 11
551.0
 21
150.0
 31
0.0
  0
LINE
  5
597
330
1E
100
AcDbEntity
  8
0
100
AcDbLine
 10
0.0000000000000003
 20
200.0
 30
0.0
 11
700.0
 21
200.0
 31
0.0
  0
LINE
  5
598
330
1E
100
AcDbEntity
  8
0
100
AcDbLine
 10
0.0000000000000003
 20
200.0
 30
0.0
 11
0.0000000000000003
 21
0.0
 31
0.0
  0
LINE
  5
599
330
1E
100
AcDbEntity
  8
0
100
AcDbLine
 10
0.0000000000000003
 20
200.0
 30
0.0
 11
149.0
 21
150.0
 31
0.0
  0
LINE
  5
59A
330
1E
100
AcDbEntity
  8
0
100
AcDbLine
 10
507.3199999999999
 20
147.9199999999999
 30
0.0
 11
515.0
 21
149.0
 31
0.0
  0
LINE
  5
59B
330
1E
100
AcDbEntity
  8
0
100
AcDbLine
 10
529.8799999999999
 20
92.95999999999999
 30
0.0
 11
536.24
 21
97.76000000000001
 31
0.0
  0
LINE
  5
59C
330
1E
100
AcDbEntity
  8
0
100
AcDbLine
 10
522.6799999999999
 20
90.08
 30
0.0
 11
529.8799999999999
 21
92.95999999999999
 31
0.0
  0
LINE
  5
59D
330
1E
100
AcDbEntity
  8
0
100
AcDbLine
 10
541.04
 20
104.12
 30
0.0
 11
543.9199999999999
 21
111.3199999999999
 31
0.0
  0
LINE
  5
59E
330
1E
100
AcDbEntity
  8
0
100
AcDbLine
 10
536.24
 20
97.76000000000001
 30
0.0
 11
541.04
 21
104.12
 31
0.0
  0
LINE
  5
59F
330
1E
100
AcDbEntity
  8
0
100
AcDbLine
 10
544.1035589502759
 20
112.625308090853
 30
0.0
 11
545.547
 21
113.9251
 31
0.0
  0
LINE
  5
5A0
330
1E
100
AcDbEntity
  8
0
100
AcDbLine
 10
551.0
 20
50.0
 30
0.0
 11
700.0
 21
0.0000000000000022
 31
0.0
  0
LINE
  5
5A1
330
1E
100
AcDbEntity
  8
0
100
AcDbLine
 10
551.0
 20
50.0
 30
0.0
 11
700.0
 21
0.0
 31
0.0
  0
LINE
  5
5A2
330
1E
100
AcDbEntity
  8
0
100
AcDbLine
 10
551.0
 20
50.0
 30
0.0
 11
551.0
 21
150.0
 31
0.0
  0
LINE
  5
5A3
330
1E
100
AcDbEntity
  8
0
100
AcDbLine
 10
700.0
 20
0.0000000000000022
 30
0.0
 11
700.0
 21
200.0
 31
0.0
  0
LINE
  5
5A4
330
1E
100
AcDbEntity
  8
0
100
AcDbLine
 10
545.547
 20
113.9251
 30
0.0
 11
546.891
 21
115.4449999999999
 31
0.0
  0
LINE
  5
5A5
330
1E
100
AcDbEntity
  8
0
100
AcDbLine
 10
544.589788293898
 20
116.0829389788289
 30
0.0
 11
544.768
 21
116.1079999999999
 31
0.0
  0
LINE
  5
5A6
330
1E
100
AcDbEntity
  8
0
100
AcDbLine
 10
544.768
 20
116.1079999999999
 30
0.0
 11
545.4880000000001
 21
116.396
 31
0.0
  0
LINE
  5
5A7
330
1E
100
AcDbEntity
  8
0
100
AcDbLine
 10
545.4880000000001
 20
116.396
 30
0.0
 11
546.124
 21
116.876
 31
0.0
  0
LINE
  5
5A8
330
1E
100
AcDbEntity
  8
0
100
AcDbLine
 10
546.124
 20
116.876
 30
0.0
 11
546.604
 21
117.5119999999999
 31
0.0
  0
LINE
  5
5A9
330
1E
100
AcDbEntity
  8
0
100
AcDbLine
 10
546.604
 20
117.5119999999999
 30
0.0
 11
546.8919999999999
 21
118.232
 31
0.0
  0
LINE
  5
5AA
330
1E
100
AcDbEntity
  8
0
100
AcDbLine
 10
544.589788293898
 20
121.9170610211709
 30
0.0
 11
544.768
 21
121.892
 31
0.0
  0
LINE
  5
5AB
330
1E
100
AcDbEntity
  8
0
100
AcDbLine
 10
544.768
 20
121.892
 30
0.0
 11
545.4880000000001
 21
121.604
 31
0.0
  0
LINE
  5
5AC
330
1E
100
AcDbEntity
  8
0
100
AcDbLine
 10
545.4880000000001
 20
121.604
 30
0.0
 11
546.124
 21
121.1239999999999
 31
0.0
  0
LINE
  5
5AD
330
1E
100
AcDbEntity
  8
0
100
AcDbLine
 10
546.124
 20
121.1239999999999
 30
0.0
 11
546.604
 21
120.4879999999999
 31
0.0
  0
LINE
  5
5AE
330
1E
100
AcDbEntity
  8
0
100
AcDbLine
 10
546.604
 20
120.4879999999999
 30
0.0
 11
546.8919999999999
 21
119.7679999999999
 31
0.0
  0
LINE
  5
5AF
330
1E
100
AcDbEntity
  8
0
100
AcDbLine
 10
546.8919999999999
 20
119.7679999999999
 30
0.0
 11
547.0
 21
119.0
 31
0.0
  0
LINE
  5
5B0
330
1E
100
AcDbEntity
  8
0
100
AcDbLine
 10
546.8919999999999
 20
118.232
 30
0.0
 11
547.0
 21
119.0
 31
0.0
  0
LINE
  5
5B1
330
1E
100
AcDbEntity
  8
0
100
AcDbLine
 10
547.698
 20
120.835
 30
0.0
 11
548.0
 21
119.0
 31
0.0
  0
LINE
  5
5B2
330
1E
100
AcDbEntity
  8
0
100
AcDbLine
 10
544.103576418198
 20
125.374567692811
 30
0.0
 11
545.547
 21
124.075
 31
0.0
  0
LINE
  5
5B3
330
1E
100
AcDbEntity
  8
0
100
AcDbLine
 10
545.547
 20
124.075
 30
0.0
 11
546.891
 21
122.555
 31
0.0
  0
LINE
  5
5B4
330
1E
100
AcDbEntity
  8
0
100
AcDbLine
 10
546.891
 20
122.555
 30
0.0
 11
547.698
 21
120.835
 31
0.0
  0
LINE
  5
5B5
330
1E
100
AcDbEntity
  8
0
100
AcDbLine
 10
547.814325925926
 20
117.871814814815
 30
0.0
 11
547.8559999999999
 21
117.9759999999999
 31
0.0
  0
LINE
  5
5B6
330
1E
100
AcDbEntity
  8
0
100
AcDbLine
 10
547.814325925926
 20
120.1281851851849
 30
0.0
 11
547.8559999999999
 21
120.0239999999999
 31
0.0
  0
LINE
  5
5B7
330
1E
100
AcDbEntity
  8
0
100
AcDbLine
 10
547.8559999999999
 20
120.0239999999999
 30
0.0
 11
548.0
 21
119.0
 31
0.0
  0
LINE
  5
5B8
330
1E
100
AcDbEntity
  8
0
100
AcDbLine
 10
547.8559999999999
 20
117.9759999999999
 30
0.0
 11
548.0
 21
119.0
 31
0.0
  0
LINE
  5
5B9
330
1E
100
AcDbEntity
  8
0
100
AcDbLine
 10
547.698
 20
117.165
 30
0.0
 11
548.0
 21
119.0
 31
0.0
  0
LINE
  5
5BA
330
1E
100
AcDbEntity
  8
0
100
AcDbLine
 10
546.891
 20
115.4449999999999
 30
0.0
 11
547.698
 21
117.165
 31
0.0
  0
LINE
  5
5BB
330
1E
100
AcDbEntity
  8
0
100
AcDbLine
 10
543.9199999999999
 20
111.3199999999999
 30
0.0
 11
545.0
 21
119.0
 31
0.0
  0
LINE
  5
5BC
330
1E
100
AcDbEntity
  8
0
100
AcDbLine
 10
543.9199999999999
 20
126.68
 30
0.0
 11
545.0
 21
119.0
 31
0.0
  0
LINE
  5
5BD
330
1E
100
AcDbEntity
  8
0
100
AcDbLine
 10
541.04
 20
133.8799999999999
 30
0.0
 11
543.9199999999999
 21
126.68
 31
0.0
  0
LINE
  5
5BE
330
1E
100
AcDbEntity
  8
0
100
AcDbLine
 10
536.24
 20
140.24
 30
0.0
 11
541.04
 21
133.8799999999999
 31
0.0
  0
LINE
  5
5BF
330
1E
100
AcDbEntity
  8
0
100
AcDbLine
 10
529.8799999999999
 20
145.0399999999999
 30
0.0
 11
536.24
 21
140.24
 31
0.0
  0
LINE
  5
5C0
330
1E
100
AcDbEntity
  8
0
100
AcDbLine
 10
551.0
 20
150.0
 30
0.0
 11
700.0
 21
200.0
 31
0.0
  0
LINE
  5
5C1
330
1E
100
AcDbEntity
  8
0
100
AcDbLine
 10
551.0
 20
150.0
 30
0.0
 11
551.0
 21
50.0
 31
0.0
  0
LINE
  5
5C2
330
1E
100
AcDbEntity
  8
0
100
AcDbLine
 10
551.0
 20
150.0
 30
0.0
 11
551.0
 21
50.0
 31
0.0
  0
LINE
  5
5C3
330
1E
100
AcDbEntity
  8
0
100
AcDbLine
 10
700.0
 20
200.0
 30
0.0
 11
700.0
 21
0.0
 31
0.0
  0
LINE
  5
5C4
330
1E
100
AcDbEntity
  8
0
100
AcDbLine
 10
522.6799999999999
 20
147.9199999999999
 30
0.0
 11
529.8799999999999
 21
145.0399999999999
 31
0.0
  0
LINE
  5
5C5
330
1E
100
AcDbEntity
  8
0
100
AcDbLine
 10
515.0
 20
149.0
 30
0.0
 11
522.6799999999999
 21
147.9199999999999
 31
0.0
  0
LINE
  5
5CA
330
1E
100
AcDbEntity
  8
0
100
AcDbLine
 10
456.855
 20
134.197
 30
0.0
 11
457.16
 21
132.976
 31
0.0
  0
LINE
  5
5CB
330
1E
100
AcDbEntity
  8
0
100
AcDbLine
 10
454.276
 20
122.3189999999999
 30
0.0
 11
452.8356737469582
 21
121.1627489490423
 31
0.0
  0
LINE
  5
5CC
330
1E
100
AcDbEntity
  8
0
100
AcDbLine
 10
452.8356737469582
 20
121.1627489490423
 30
0.0
 11
451.1710454084471
 21
120.1431700374465
 31
0.0
  0
LINE
  5
5CD
330
1E
100
AcDbEntity
  8
0
100
AcDbLine
 10
451.1710454084471
 20
120.1431700374465
 30
0.0
 11
449.3819999999999
 21
119.5039999999999
 31
0.0
  0
LINE
  5
5CE
330
1E
100
AcDbEntity
  8
0
100
AcDbLine
 10
179.3779999999999
 20
67.9269
 30
0.0
 11
181.6809999999999
 21
69.7239
 31
0.0
  0
LINE
  5
5CF
330
1E
100
AcDbEntity
  8
0
100
AcDbLine
 10
163.236
 20
74.66630000000001
 30
0.0
 11
162.8989999999999
 21
77.48969999999999
 31
0.0
  0
ENDSEC
  0
SECTION
  2
OBJECTS
  0
DICTIONARY
  5
C
330
0
100
AcDbDictionary
281
     1
  3
ACAD_GROUP
350
D
  3
ACAD_LAYOUT
350
19
  3
ACAD_MLINESTYLE
350
16
  3
ACAD_PLOTSETTINGS
350
18
  3
ACAD_PLOTSTYLENAME
350
E
  3
AcDbVariableDictionary
350
5D0
  0
DICTIONARY
  5
D
102
{ACAD_REACTORS
330
C
102
}
330
C
100
AcDbDictionary
281
     1
  0
DICTIONARY
  5
19
102
{ACAD_REACTORS
330
C
102
}
330
C
100
AcDbDictionary
281
     1
  3
Layout1
350
1D
  3
Model
350
21
  0
DICTIONARY
  5
16
102
{ACAD_REACTORS
330
C
102
}
330
C
100
AcDbDictionary
281
     1
  3
Standard
350
17
  0
DICTIONARY
  5
18
102
{ACAD_REACTORS
330
C
102
}
330
C
100
AcDbDictionary
281
     1
  0
ACDBDICTIONARYWDFLT
  5
E
102
{ACAD_REACTORS
330
C
102
}
330
C
100
AcDbDictionary
281
     1
  3
Normal
350
F
100
AcDbDictionaryWithDefault
340
F
  0
DICTIONARY
  5
5D0
102
{ACAD_REACTORS
330
C
102
}
330
C
100
AcDbDictionary
281
     1
  3
DIMASSOC
350
5D1
  0
LAYOUT
  5
1D
102
{ACAD_REACTORS
330
19
102
}
330
19
100
AcDbPlotSettings
  1

  2
hp deskjet 980c series
  4

  6

 40
0.0
 41
0.0
 42
0.0
 43
0.0
 44
0.0
 45
0.0
 46
0.0
 47
0.0
 48
0.0
 49
0.0
140
0.0
141
0.0
142
1.0
143
1.0
 70
   688
 72
     0
 73
     0
 74
     5
  7

 75
    16
147
1.0
148
0.0
149
0.0
100
AcDbLayout
  1
Layout1
 70
     1
 71
     1
 10
0.0
 20
0.0
 11
12.0
 21
9.0
 12
0.0
 22
0.0
 32
0.0
 14
1.000000000000000E+20
 24
1.000000000000000E+20
 34
1.000000000000000E+20
 15
-1.000000000000000E+20
 25
-1.000000000000000E+20
 35
-1.000000000000000E+20
146
0.0
 13
0.0
 23
0.0
 33
0.0
 16
1.0
 26
0.0
 36
0.0
 17
0.0
 27
1.0
 37
0.0
 76
     0
330
1A
  0
LAYOUT
  5
21
102
{ACAD_REACTORS
330
19
102
}
330
19
100
AcDbPlotSettings
  1

  2
hp deskjet 980c series
  4

  6

 40
0.0
 41
0.0
 42
0.0
 43
0.0
 44
0.0
 45
0.0
 46
0.0
 47
0.0
 48
0.0
 49
0.0
140
0.0
141
0.0
142
1.0
143
1.0
 70
  1712
 72
     0
 73
     0
 74
     0
  7

 75
     0
147
1.0
148
0.0
149
0.0
100
AcDbLayout
  1
Model
 70
     1
 71
     0
 10
0.0
 20
0.0
 11
12.0
 21
9.0
 12
0.0
 22
0.0
 32
0.0
 14
0.0
 24
0.0
 34
0.0
 15
0.0
 25
0.0
 35
0.0
146
0.0
 13
0.0
 23
0.0
 33
0.0
 16
1.0
 26
0.0
 36
0.0
 17
0.0
 27
1.0
 37
0.0
 76
     0
330
1E
  0
MLINESTYLE
  5
17
102
{ACAD_REACTORS
330
16
102
}
330
16
100
AcDbMlineStyle
  2
STANDARD
 70
     0
  3

 62
   256
 51
90.0
 52
90.0
 71
     2
 49
0.5
 62
   256
  6
BYLAYER
 49
-0.5
 62
   256
  6
BYLAYER
  0
ACDBPLACEHOLDER
  5
F
102
{ACAD_REACTORS
330
E
102
}
330
E
  0
DICTIONARYVAR
  5
5D1
102
{ACAD_REACTORS
330
5D0
102
}
330
5D0
100
DictionaryVariables
280
     0
  1
1
  0
ENDSEC
  0
EOF
