  0
SECTION
  2
HEADER
  9
$ACADVER
  1
AC1015
  9
$ACADMAINTVER
 70
     6
  9
$DWGCODEPAGE
  3
ANSI_1252
  9
$INSBASE
 10
0.0
 20
0.0
 30
0.0
  9
$EXTMIN
 10
0.0
 20
118.0
 30
0.0
  9
$EXTMAX
 10
280.0
 20
298.0
 30
0.0
  9
$LIMMIN
 10
0.0
 20
0.0
  9
$LIMMAX
 10
12.0
 20
9.0
  9
$ORTHOMODE
 70
     0
  9
$REGENMODE
 70
     1
  9
$FILLMODE
 70
     1
  9
$QTEXTMODE
 70
     0
  9
$MIRRTEXT
 70
     1
  9
$LTSCALE
 40
1.0
  9
$ATTMODE
 70
     1
  9
$TEXTSIZE
 40
0.2
  9
$TRACEWID
 40
0.05
  9
$TEXTSTYLE
  7
Standard
  9
$CLAYER
  8
0
  9
$CELTYPE
  6
ByBlock
  9
$CECOLOR
 62
   256
  9
$CELTSCALE
 40
1.0
  9
$DISPSILH
 70
     0
  9
$DIMSCALE
 40
1.0
  9
$DIMASZ
 40
0.18
  9
$DIMEXO
 40
0.0625
  9
$DIMDLI
 40
0.38
  9
$DIMRND
 40
0.0
  9
$DIMDLE
 40
0.0
  9
$DIMEXE
 40
0.18
  9
$DIMTP
 40
0.0
  9
$DIMTM
 40
0.0
  9
$DIMTXT
 40
0.18
  9
$DIMCEN
 40
0.09
  9
$DIMTSZ
 40
0.0
  9
$DIMTOL
 70
     0
  9
$DIMLIM
 70
     0
  9
$DIMTIH
 70
     1
  9
$DIMTOH
 70
     1
  9
$DIMSE1
 70
     0
  9
$DIMSE2
 70
     0
  9
$DIMTAD
 70
     0
  9
$DIMZIN
 70
     0
  9
$DIMBLK
  1

  9
$DIMASO
 70
     1
  9
$DIMSHO
 70
     1
  9
$DIMPOST
  1

  9
$DIMAPOST
  1

  9
$DIMALT
 70
     0
  9
$DIMALTD
 70
     2
  9
$DIMALTF
 40
25.4
  9
$DIMLFAC
 40
1.0
  9
$DIMTOFL
 70
     0
  9
$DIMTVP
 40
0.0
  9
$DIMTIX
 70
     0
  9
$DIMSOXD
 70
     0
  9
$DIMSAH
 70
     0
  9
$DIMBLK1
  1

  9
$DIMBLK2
  1

  9
$DIMSTYLE
  2
Standard
  9
$DIMCLRD
 70
     0
  9
$DIMCLRE
 70
     0
  9
$DIMCLRT
 70
     0
  9
$DIMTFAC
 40
1.0
  9
$DIMGAP
 40
0.09
  9
$DIMJUST
 70
     0
  9
$DIMSD1
 70
     0
  9
$DIMSD2
 70
     0
  9
$DIMTOLJ
 70
     1
  9
$DIMTZIN
 70
     0
  9
$DIMALTZ
 70
     0
  9
$DIMALTTZ
 70
     0
  9
$DIMUPT
 70
     0
  9
$DIMDEC
 70
     4
  9
$DIMTDEC
 70
     4
  9
$DIMALTU
 70
     2
  9
$DIMALTTD
 70
     2
  9
$DIMTXSTY
  7
Standard
  9
$DIMAUNIT
 70
     0
  9
$DIMADEC
 70
     0
  9
$DIMALTRND
 40
0.0
  9
$DIMAZIN
 70
     0
  9
$DIMDSEP
 70
    46
  9
$DIMATFIT
 70
     3
  9
$DIMFRAC
 70
     0
  9
$DIMLDRBLK
  1

  9
$DIMLUNIT
 70
     2
  9
$DIMLWD
 70
    -2
  9
$DIMLWE
 70
    -2
  9
$DIMTMOVE
 70
     2
  9
$LUNITS
 70
     2
  9
$LUPREC
 70
     4
  9
$SKETCHINC
 40
0.1
  9
$FILLETRAD
 40
0.5
  9
$AUNITS
 70
     0
  9
$AUPREC
 70
     0
  9
$MENU
  1
.
  9
$ELEVATION
 40
0.0
  9
$PELEVATION
 40
0.0
  9
$THICKNESS
 40
0.0
  9
$LIMCHECK
 70
     0
  9
$CHAMFERA
 40
0.5
  9
$CHAMFERB
 40
0.5
  9
$CHAMFERC
 40
1.0
  9
$CHAMFERD
 40
0.0
  9
$SKPOLY
 70
     0
  9
$TDCREATE
 40
2455824.856143113
  9
$TDUCREATE
 40
2455824.77280978
  9
$TDUPDATE
 40
2455824.861038947
  9
$TDUUPDATE
 40
2455824.777705614
  9
$TDINDWG
 40
0.0048155556
  9
$TDUSRTIMER
 40
0.0048155556
  9
$USRTIMER
 70
     1
  9
$ANGBASE
 50
0.0
  9
$ANGDIR
 70
     0
  9
$PDMODE
 70
     0
  9
$PDSIZE
 40
0.0
  9
$PLINEWID
 40
0.0
  9
$SPLFRAME
 70
     0
  9
$SPLINETYPE
 70
     6
  9
$SPLINESEGS
 70
     8
  9
$HANDSEED
  5
295D
  9
$SURFTAB1
 70
     6
  9
$SURFTAB2
 70
     6
  9
$SURFTYPE
 70
     6
  9
$SURFU
 70
     6
  9
$SURFV
 70
     6
  9
$UCSBASE
  2

  9
$UCSNAME
  2

  9
$UCSORG
 10
0.0
 20
0.0
 30
0.0
  9
$UCSXDIR
 10
1.0
 20
0.0
 30
0.0
  9
$UCSYDIR
 10
0.0
 20
1.0
 30
0.0
  9
$UCSORTHOREF
  2

  9
$UCSORTHOVIEW
 70
     0
  9
$UCSORGTOP
 10
0.0
 20
0.0
 30
0.0
  9
$UCSORGBOTTOM
 10
0.0
 20
0.0
 30
0.0
  9
$UCSORGLEFT
 10
0.0
 20
0.0
 30
0.0
  9
$UCSORGRIGHT
 10
0.0
 20
0.0
 30
0.0
  9
$UCSORGFRONT
 10
0.0
 20
0.0
 30
0.0
  9
$UCSORGBACK
 10
0.0
 20
0.0
 30
0.0
  9
$PUCSBASE
  2

  9
$PUCSNAME
  2

  9
$PUCSORG
 10
0.0
 20
0.0
 30
0.0
  9
$PUCSXDIR
 10
1.0
 20
0.0
 30
0.0
  9
$PUCSYDIR
 10
0.0
 20
1.0
 30
0.0
  9
$PUCSORTHOREF
  2

  9
$PUCSORTHOVIEW
 70
     0
  9
$PUCSORGTOP
 10
0.0
 20
0.0
 30
0.0
  9
$PUCSORGBOTTOM
 10
0.0
 20
0.0
 30
0.0
  9
$PUCSORGLEFT
 10
0.0
 20
0.0
 30
0.0
  9
$PUCSORGRIGHT
 10
0.0
 20
0.0
 30
0.0
  9
$PUCSORGFRONT
 10
0.0
 20
0.0
 30
0.0
  9
$PUCSORGBACK
 10
0.0
 20
0.0
 30
0.0
  9
$USERI1
 70
     0
  9
$USERI2
 70
     0
  9
$USERI3
 70
     0
  9
$USERI4
 70
     0
  9
$USERI5
 70
     0
  9
$USERR1
 40
0.0
  9
$USERR2
 40
0.0
  9
$USERR3
 40
0.0
  9
$USERR4
 40
0.0
  9
$USERR5
 40
0.0
  9
$WORLDVIEW
 70
     1
  9
$SHADEDGE
 70
     3
  9
$SHADEDIF
 70
    70
  9
$TILEMODE
 70
     1
  9
$MAXACTVP
 70
    64
  9
$PINSBASE
 10
0.0
 20
0.0
 30
0.0
  9
$PLIMCHECK
 70
     0
  9
$PEXTMIN
 10
1.000000000000E+20
 20
1.000000000000E+20
 30
1.000000000000E+20
  9
$PEXTMAX
 10
-1.000000000000E+20
 20
-1.000000000000E+20
 30
-1.000000000000E+20
  9
$PLIMMIN
 10
0.0
 20
0.0
  9
$PLIMMAX
 10
12.0
 20
9.0
  9
$UNITMODE
 70
     0
  9
$VISRETAIN
 70
     1
  9
$PLINEGEN
 70
     0
  9
$PSLTSCALE
 70
     1
  9
$TREEDEPTH
 70
  3020
  9
$CMLSTYLE
  2
Standard
  9
$CMLJUST
 70
     0
  9
$CMLSCALE
 40
1.0
  9
$PROXYGRAPHICS
 70
     1
  9
$MEASUREMENT
 70
     0
  9
$CELWEIGHT
370
    -1
  9
$ENDCAPS
280
     0
  9
$JOINSTYLE
280
     0
  9
$LWDISPLAY
290
     0
  9
$INSUNITS
 70
     0
  9
$HYPERLINKBASE
  1

  9
$STYLESHEET
  1

  9
$XEDIT
290
     1
  9
$CEPSNTYPE
380
     0
  9
$PSTYLEMODE
290
     1
  9
$FINGERPRINTGUID
  2
{1437F23A-23FC-4FB5-B14E-C727CD1B6C10}
  9
$VERSIONGUID
  2
{FAEB1C32-E019-11D5-929B-00C0DF256EC4}
  9
$EXTNAMES
290
     1
  9
$PSVPSCALE
 40
0.0
  9
$OLESTARTUP
290
     0
  0
ENDSEC
  0
SECTION
  2
CLASSES
  0
CLASS
  1
ACDBDICTIONARYWDFLT
  2
AcDbDictionaryWithDefault
  3
ObjectDBX Classes
 90
        0
280
     0
281
     0
  0
CLASS
  1
SCALE
  2
AcDbScale
  3
ObjectDBX Classes
 90
     1153
280
     0
281
     0
  0
CLASS
  1
ACDBPLACEHOLDER
  2
AcDbPlaceHolder
  3
ObjectDBX Classes
 90
        0
280
     0
281
     0
  0
CLASS
  1
LAYOUT
  2
AcDbLayout
  3
ObjectDBX Classes
 90
        0
280
     0
281
     0
  0
ENDSEC
  0
SECTION
  2
TABLES
  0
TABLE
  2
VPORT
  5
8
330
0
100
AcDbSymbolTable
 70
     1
  0
VPORT
  5
D00
330
8
100
AcDbSymbolTableRecord
100
AcDbViewportTableRecord
  2
*Active
 70
     0
 10
0.0
 20
0.0
 11
1.0
 21
1.0
 12
140.0
 22
208.0
 13
0.0
 23
0.0
 14
0.5
 24
0.5
 15
0.5
 25
0.5
 16
0.0
 26
0.0
 36
1.0
 17
0.0
 27
0.0
 37
0.0
 40
183.6
 41
1.790857142857
 42
50.0
 43
0.0
 44
0.0
 50
0.0
 51
0.0
 71
    16
 72
   100
 73
     1
 74
     3
 75
     0
 76
     0
 77
     0
 78
     0
281
     0
 65
     1
110
0.0
120
0.0
130
0.0
111
1.0
121
0.0
131
0.0
112
0.0
122
1.0
132
0.0
 79
     0
146
0.0
  0
ENDTAB
  0
TABLE
  2
LTYPE
  5
5
330
0
100
AcDbSymbolTable
 70
     1
  0
LTYPE
  5
14
330
5
100
AcDbSymbolTableRecord
100
AcDbLinetypeTableRecord
  2
ByBlock
 70
     0
  3

 72
    65
 73
     0
 40
0.0
  0
LTYPE
  5
15
330
5
100
AcDbSymbolTableRecord
100
AcDbLinetypeTableRecord
  2
ByLayer
 70
     0
  3

 72
    65
 73
     0
 40
0.0
  0
LTYPE
  5
16
330
5
100
AcDbSymbolTableRecord
100
AcDbLinetypeTableRecord
  2
Continuous
 70
     0
  3
Solid line
 72
    65
 73
     0
 40
0.0
  0
ENDTAB
  0
TABLE
  2
LAYER
  5
2
330
0
100
AcDbSymbolTable
 70
     1
  0
LAYER
  5
10
330
2
100
AcDbSymbolTableRecord
100
AcDbLayerTableRecord
  2
0
 70
     0
 62
     7
  6
Continuous
370
    -3
390
F
  0
ENDTAB
  0
TABLE
  2
STYLE
  5
3
330
0
100
AcDbSymbolTable
 70
     1
  0
STYLE
  5
11
330
3
100
AcDbSymbolTableRecord
100
AcDbTextStyleTableRecord
  2
Standard
 70
     0
 40
0.0
 41
1.0
 50
0.0
 71
     0
 42
0.2
  3
txt
  4

  0
ENDTAB
  0
TABLE
  2
VIEW
  5
6
330
0
100
AcDbSymbolTable
 70
     0
  0
ENDTAB
  0
TABLE
  2
UCS
  5
7
330
0
100
AcDbSymbolTable
 70
     0
  0
ENDTAB
  0
TABLE
  2
APPID
  5
9
330
0
100
AcDbSymbolTable
 70
     1
  0
APPID
  5
12
330
9
100
AcDbSymbolTableRecord
100
AcDbRegAppTableRecord
  2
ACAD
 70
     0
  0
ENDTAB
  0
TABLE
  2
DIMSTYLE
  5
A
330
0
100
AcDbSymbolTable
 70
     1
100
AcDbDimStyleTable
  0
DIMSTYLE
105
20
330
A
100
AcDbSymbolTableRecord
100
AcDbDimStyleTableRecord
  2
Standard
 70
     0
340
11
  0
ENDTAB
  0
TABLE
  2
BLOCK_RECORD
  5
1
330
0
100
AcDbSymbolTable
 70
     2
  0
BLOCK_RECORD
  5
1D
330
1
100
AcDbSymbolTableRecord
100
AcDbBlockTableRecord
  2
*Model_Space
340
1E
  0
BLOCK_RECORD
  5
1B
330
1
100
AcDbSymbolTableRecord
100
AcDbBlockTableRecord
  2
*Paper_Space
340
1C
  0
ENDTAB
  0
ENDSEC
  0
SECTION
  2
BLOCKS
  0
BLOCK
  5
D03
330
1D
100
AcDbEntity
  8
0
100
AcDbBlockBegin
  2
*Model_Space
 70
     0
 10
0.0
 20
0.0
 30
0.0
  3
*Model_Space
  1
*Model_Space
  0
ENDBLK
  5
D04
330
1D
100
AcDbEntity
  8
0
100
AcDbBlockEnd
  0
BLOCK
  5
D01
330
1B
100
AcDbEntity
 67
     1
  8
0
100
AcDbBlockBegin
  2
*Paper_Space
 70
     0
 10
0.0
 20
0.0
 30
0.0
  3
*Paper_Space
  1
*Paper_Space
  0
ENDBLK
  5
D02
330
1B
100
AcDbEntity
 67
     1
  8
0
100
AcDbBlockEnd
  0
ENDSEC
  0
SECTION
  2
ENTITIES
  0
LINE
  5
21
330
1D
100
AcDbEntity
  8
0
100
AcDbLine
 10
0.0
 20
126.5
 30
0.0
 11
0.0
 21
118.0
 31
0.0
  0
LINE
  5
22
330
1D
100
AcDbEntity
  8
0
100
AcDbLine
 10
0.0
 20
126.5
 30
0.0
 11
0.4412
 21
127.5
 31
0.0
  0
LINE
  5
2F
330
1D
100
AcDbEntity
  8
0
100
AcDbLine
 10
10.0
 20
118.0
 30
0.0
 11
10.72
 21
118.0
 31
0.0
  0
LINE
  5
69
330
1D
100
AcDbEntity
  8
0
100
AcDbLine
 10
10.72
 20
118.0
 30
0.0
 11
12.64
 21
118.0
 31
0.0
  0
LINE
  5
6C
330
1D
100
AcDbEntity
  8
0
100
AcDbLine
 10
12.64
 20
118.0
 30
0.0
 11
15.84
 21
118.0
 31
0.0
  0
LINE
  5
75
330
1D
100
AcDbEntity
  8
0
100
AcDbLine
 10
8.8235
 20
118.0
 30
0.0
 11
15.0882
 21
118.0
 31
0.0
  0
LINE
  5
76
330
1D
100
AcDbEntity
  8
0
100
AcDbLine
 10
8.8235
 20
118.0
 30
0.0
 11
10.0
 21
118.0
 31
0.0
  0
LINE
  5
AA
330
1D
100
AcDbEntity
  8
0
100
AcDbLine
 10
15.84
 20
118.0
 30
0.0
 11
20.08
 21
118.0
 31
0.0
  0
LINE
  5
B8
330
1D
100
AcDbEntity
  8
0
100
AcDbLine
 10
24.88
 20
118.0
 30
0.0
 11
30.0
 21
118.0
 31
0.0
  0
LINE
  5
B9
330
1D
100
AcDbEntity
  8
0
100
AcDbLine
 10
20.08
 20
118.0
 30
0.0
 11
24.88
 21
118.0
 31
0.0
  0
LINE
  5
2F5
330
1D
100
AcDbEntity
  8
0
100
AcDbLine
 10
115.0
 20
118.0
 30
0.0
 11
115.9
 21
118.0
 31
0.0
  0
LINE
  5
347
330
1D
100
AcDbEntity
  8
0
100
AcDbLine
 10
122.3
 20
118.0
 30
0.0
 11
127.6
 21
118.0
 31
0.0
  0
LINE
  5
348
330
1D
100
AcDbEntity
  8
0
100
AcDbLine
 10
118.3
 20
118.0
 30
0.0
 11
122.3
 21
118.0
 31
0.0
  0
LINE
  5
349
330
1D
100
AcDbEntity
  8
0
100
AcDbLine
 10
115.9
 20
118.0
 30
0.0
 11
118.3
 21
118.0
 31
0.0
  0
LINE
  5
34B
330
1D
100
AcDbEntity
  8
0
100
AcDbLine
 10
115.2941
 20
118.0
 30
0.0
 11
122.6029
 21
118.0
 31
0.0
  0
LINE
  5
401
330
1D
100
AcDbEntity
  8
0
100
AcDbLine
 10
133.6
 20
118.0
 30
0.0
 11
140.0
 21
118.0
 31
0.0
  0
LINE
  5
402
330
1D
100
AcDbEntity
  8
0
100
AcDbLine
 10
127.6
 20
118.0
 30
0.0
 11
133.6
 21
118.0
 31
0.0
  0
LINE
  5
403
330
1D
100
AcDbEntity
  8
0
100
AcDbLine
 10
146.4
 20
118.0
 30
0.0
 11
152.4
 21
118.0
 31
0.0
  0
LINE
  5
472
330
1D
100
AcDbEntity
  8
0
100
AcDbLine
 10
152.4
 20
118.0
 30
0.0
 11
157.7
 21
118.0
 31
0.0
  0
LINE
  5
473
330
1D
100
AcDbEntity
  8
0
100
AcDbLine
 10
157.7
 20
118.0
 30
0.0
 11
161.7
 21
118.0
 31
0.0
  0
LINE
  5
493
330
1D
100
AcDbEntity
  8
0
100
AcDbLine
 10
161.7
 20
118.0
 30
0.0
 11
164.1
 21
118.0
 31
0.0
  0
LINE
  5
494
330
1D
100
AcDbEntity
  8
0
100
AcDbLine
 10
164.1
 20
118.0
 30
0.0
 11
165.0
 21
118.0
 31
0.0
  0
LINE
  5
528
330
1D
100
AcDbEntity
  8
0
100
AcDbLine
 10
165.0
 20
118.0
 30
0.0
 11
170.265
 21
118.0
 31
0.0
  0
LINE
  5
52A
330
1D
100
AcDbEntity
  8
0
100
AcDbLine
 10
164.706
 20
118.0
 30
0.0
 11
170.265
 21
118.0
 31
0.0
  0
LINE
  5
52B
330
1D
100
AcDbEntity
  8
0
100
AcDbLine
 10
170.265
 20
118.0
 30
0.0
 11
173.765
 21
118.0
 31
0.0
  0
LINE
  5
78F
330
1D
100
AcDbEntity
  8
0
100
AcDbLine
 10
175.0
 20
118.0
 30
0.0
 11
175.0
 21
126.5
 31
0.0
  0
LINE
  5
790
330
1D
100
AcDbEntity
  8
0
100
AcDbLine
 10
173.765
 20
118.0
 30
0.0
 11
175.0
 21
118.0
 31
0.0
  0
LINE
  5
791
330
1D
100
AcDbEntity
  8
0
100
AcDbLine
 10
157.397
 20
118.0
 30
0.0
 11
164.706
 21
118.0
 31
0.0
  0
LINE
  5
792
330
1D
100
AcDbEntity
  8
0
100
AcDbLine
 10
148.956
 20
118.0
 30
0.0
 11
157.397
 21
118.0
 31
0.0
  0
LINE
  5
793
330
1D
100
AcDbEntity
  8
0
100
AcDbLine
 10
140.0
 20
118.0
 30
0.0
 11
148.956
 21
118.0
 31
0.0
  0
LINE
  5
794
330
1D
100
AcDbEntity
  8
0
100
AcDbLine
 10
140.0
 20
118.0
 30
0.0
 11
146.4
 21
118.0
 31
0.0
  0
LINE
  5
795
330
1D
100
AcDbEntity
  8
0
100
AcDbLine
 10
122.6029
 20
118.0
 30
0.0
 11
131.044
 21
118.0
 31
0.0
  0
LINE
  5
796
330
1D
100
AcDbEntity
  8
0
100
AcDbLine
 10
131.044
 20
118.0
 30
0.0
 11
140.0
 21
118.0
 31
0.0
  0
LINE
  5
797
330
1D
100
AcDbEntity
  8
0
100
AcDbLine
 10
109.7353
 20
118.0
 30
0.0
 11
115.2941
 21
118.0
 31
0.0
  0
LINE
  5
798
330
1D
100
AcDbEntity
  8
0
100
AcDbLine
 10
109.7353
 20
118.0
 30
0.0
 11
115.0
 21
118.0
 31
0.0
  0
LINE
  5
799
330
1D
100
AcDbEntity
  8
0
100
AcDbLine
 10
106.2353
 20
118.0
 30
0.0
 11
109.7353
 21
118.0
 31
0.0
  0
LINE
  5
79A
330
1D
100
AcDbEntity
  8
0
100
AcDbLine
 10
105.0
 20
118.0
 30
0.0
 11
106.2353
 21
118.0
 31
0.0
  0
LINE
  5
79B
330
1D
100
AcDbEntity
  8
0
100
AcDbLine
 10
105.0
 20
118.0
 30
0.0
 11
105.0
 21
126.5
 31
0.0
  0
LINE
  5
7A2
330
1D
100
AcDbEntity
  8
0
100
AcDbLine
 10
15.0882
 20
118.0
 30
0.0
 11
22.3235
 21
118.0
 31
0.0
  0
LINE
  5
7A3
330
1D
100
AcDbEntity
  8
0
100
AcDbLine
 10
22.3235
 20
118.0
 30
0.0
 11
30.0
 21
118.0
 31
0.0
  0
LINE
  5
7A4
330
1D
100
AcDbEntity
  8
0
100
AcDbLine
 10
4.0588
 20
118.0
 30
0.0
 11
8.8235
 21
118.0
 31
0.0
  0
LINE
  5
7A9
330
1D
100
AcDbEntity
  8
0
100
AcDbLine
 10
175.0
 20
126.5
 30
0.0
 11
175.0
 21
118.0
 31
0.0
  0
LINE
  5
7AA
330
1D
100
AcDbEntity
  8
0
100
AcDbLine
 10
105.0
 20
126.5
 30
0.0
 11
105.0
 21
118.0
 31
0.0
  0
LINE
  5
7AB
330
1D
100
AcDbEntity
  8
0
100
AcDbLine
 10
105.0
 20
126.5
 30
0.0
 11
105.5147
 21
127.5
 31
0.0
  0
LINE
  5
7AC
330
1D
100
AcDbEntity
  8
0
100
AcDbLine
 10
173.25
 20
127.5
 30
0.0
 11
174.485
 21
127.5
 31
0.0
  0
LINE
  5
7B4
330
1D
100
AcDbEntity
  8
0
100
AcDbLine
 10
174.485
 20
127.5
 30
0.0
 11
175.0
 21
126.5
 31
0.0
  0
LINE
  5
7B5
330
1D
100
AcDbEntity
  8
0
100
AcDbLine
 10
106.75
 20
127.5
 30
0.0
 11
110.1471
 21
127.5
 31
0.0
  0
LINE
  5
7B6
330
1D
100
AcDbEntity
  8
0
100
AcDbLine
 10
105.5147
 20
127.5
 30
0.0
 11
106.75
 21
127.5
 31
0.0
  0
LINE
  5
7B7
330
1D
100
AcDbEntity
  8
0
100
AcDbLine
 10
105.5147
 20
127.5
 30
0.0
 11
106.5441
 21
128.0
 31
0.0
  0
LINE
  5
7BB
330
1D
100
AcDbEntity
  8
0
100
AcDbLine
 10
4.4118
 20
127.5
 30
0.0
 11
9.0882
 21
127.5
 31
0.0
  0
LINE
  5
7BC
330
1D
100
AcDbEntity
  8
0
100
AcDbLine
 10
9.0882
 20
127.5
 30
0.0
 11
15.2647
 21
127.5
 31
0.0
  0
LINE
  5
7BD
330
1D
100
AcDbEntity
  8
0
100
AcDbLine
 10
15.7059
 20
128.0
 30
0.0
 11
22.5882
 21
128.0
 31
0.0
  0
LINE
  5
7BE
330
1D
100
AcDbEntity
  8
0
100
AcDbLine
 10
15.2647
 20
127.5
 30
0.0
 11
22.4118
 21
127.5
 31
0.0
  0
LINE
  5
7C0
330
1D
100
AcDbEntity
  8
0
100
AcDbLine
 10
115.6029
 20
127.5
 30
0.0
 11
122.8088
 21
127.5
 31
0.0
  0
LINE
  5
7C1
330
1D
100
AcDbEntity
  8
0
100
AcDbLine
 10
164.397
 20
127.5
 30
0.0
 11
169.853
 21
127.5
 31
0.0
  0
LINE
  5
7C9
330
1D
100
AcDbEntity
  8
0
100
AcDbLine
 10
169.853
 20
127.5
 30
0.0
 11
173.25
 21
127.5
 31
0.0
  0
LINE
  5
7CA
330
1D
100
AcDbEntity
  8
0
100
AcDbLine
 10
157.191
 20
127.5
 30
0.0
 11
164.397
 21
127.5
 31
0.0
  0
LINE
  5
7CB
330
1D
100
AcDbEntity
  8
0
100
AcDbLine
 10
148.853
 20
127.5
 30
0.0
 11
157.191
 21
127.5
 31
0.0
  0
LINE
  5
7CC
330
1D
100
AcDbEntity
  8
0
100
AcDbLine
 10
140.0
 20
127.5
 30
0.0
 11
148.853
 21
127.5
 31
0.0
  0
LINE
  5
7CD
330
1D
100
AcDbEntity
  8
0
100
AcDbLine
 10
122.8088
 20
127.5
 30
0.0
 11
131.147
 21
127.5
 31
0.0
  0
LINE
  5
7CE
330
1D
100
AcDbEntity
  8
0
100
AcDbLine
 10
131.147
 20
127.5
 30
0.0
 11
140.0
 21
127.5
 31
0.0
  0
LINE
  5
7CF
330
1D
100
AcDbEntity
  8
0
100
AcDbLine
 10
110.1471
 20
127.5
 30
0.0
 11
115.6029
 21
127.5
 31
0.0
  0
LINE
  5
7D3
330
1D
100
AcDbEntity
  8
0
100
AcDbLine
 10
116.3235
 20
128.0
 30
0.0
 11
123.3235
 21
128.0
 31
0.0
  0
LINE
  5
7D5
330
1D
100
AcDbEntity
  8
0
100
AcDbLine
 10
162.036
 20
128.0
 30
0.0
 11
162.124
 21
158.1968
 31
0.0
  0
LINE
  5
7D6
330
1D
100
AcDbEntity
  8
0
100
AcDbLine
 10
163.676
 20
128.0
 30
0.0
 11
168.926
 21
128.0
 31
0.0
  0
LINE
  5
7D7
330
1D
100
AcDbEntity
  8
0
100
AcDbLine
 10
168.926
 20
128.0
 30
0.0
 11
172.221
 21
128.0
 31
0.0
  0
LINE
  5
7E5
330
1D
100
AcDbEntity
  8
0
100
AcDbLine
 10
173.456
 20
128.0
 30
0.0
 11
174.485
 21
127.5
 31
0.0
  0
LINE
  5
7E6
330
1D
100
AcDbEntity
  8
0
100
AcDbLine
 10
172.221
 20
128.0
 30
0.0
 11
173.456
 21
128.0
 31
0.0
  0
LINE
  5
7E7
330
1D
100
AcDbEntity
  8
0
100
AcDbLine
 10
156.676
 20
128.0
 30
0.0
 11
163.676
 21
128.0
 31
0.0
  0
LINE
  5
7E8
330
1D
100
AcDbEntity
  8
0
100
AcDbLine
 10
148.647
 20
128.0
 30
0.0
 11
156.676
 21
128.0
 31
0.0
  0
LINE
  5
7E9
330
1D
100
AcDbEntity
  8
0
100
AcDbLine
 10
140.0
 20
128.0
 30
0.0
 11
148.647
 21
128.0
 31
0.0
  0
LINE
  5
7EA
330
1D
100
AcDbEntity
  8
0
100
AcDbLine
 10
123.3235
 20
128.0
 30
0.0
 11
131.353
 21
128.0
 31
0.0
  0
LINE
  5
7EB
330
1D
100
AcDbEntity
  8
0
100
AcDbLine
 10
131.353
 20
128.0
 30
0.0
 11
140.0
 21
128.0
 31
0.0
  0
LINE
  5
7EC
330
1D
100
AcDbEntity
  8
0
100
AcDbLine
 10
111.0735
 20
128.0
 30
0.0
 11
116.3235
 21
128.0
 31
0.0
  0
LINE
  5
7ED
330
1D
100
AcDbEntity
  8
0
100
AcDbLine
 10
106.5441
 20
128.0
 30
0.0
 11
111.0735
 21
128.0
 31
0.0
  0
LINE
  5
7F3
330
1D
100
AcDbEntity
  8
0
100
AcDbLine
 10
22.5882
 20
128.0
 30
0.0
 11
30.0
 21
128.0
 31
0.0
  0
LINE
  5
7F4
330
1D
100
AcDbEntity
  8
0
100
AcDbLine
 10
22.4118
 20
127.5
 30
0.0
 11
30.0
 21
127.5
 31
0.0
  0
LINE
  5
7F5
330
1D
100
AcDbEntity
  8
0
100
AcDbLine
 10
15.3238
 20
128.0013
 30
0.0
 11
15.5929
 21
128.0013
 31
0.0
  0
LINE
  5
7F6
330
1D
100
AcDbEntity
  8
0
100
AcDbLine
 10
16.0495
 20
128.0013
 30
0.0
 11
16.6301
 21
128.0013
 31
0.0
  0
LINE
  5
7F7
330
1D
100
AcDbEntity
  8
0
100
AcDbLine
 10
16.1654
 20
128.0013
 30
0.0
 11
16.8578
 21
128.0013
 31
0.0
  0
LINE
  5
7F8
330
1D
100
AcDbEntity
  8
0
100
AcDbLine
 10
16.8578
 20
128.0013
 30
0.0
 11
17.9494
 21
128.0013
 31
0.0
  0
LINE
  5
7F9
330
1D
100
AcDbEntity
  8
0
100
AcDbLine
 10
16.6301
 20
128.0013
 30
0.0
 11
17.6168
 21
128.0013
 31
0.0
  0
LINE
  5
7FA
330
1D
100
AcDbEntity
  8
0
100
AcDbLine
 10
16.0767
 20
128.0013
 30
0.0
 11
17.1138
 21
128.0013
 31
0.0
  0
LINE
  5
7FB
330
1D
100
AcDbEntity
  8
0
100
AcDbLine
 10
15.4377
 20
128.0013
 30
0.0
 11
16.0767
 21
128.0013
 31
0.0
  0
LINE
  5
7FC
330
1D
100
AcDbEntity
  8
0
100
AcDbLine
 10
15.221
 20
128.0013
 30
0.0
 11
15.4377
 21
128.0013
 31
0.0
  0
LINE
  5
7FD
330
1D
100
AcDbEntity
  8
0
100
AcDbLine
 10
15.221
 20
128.0013
 30
0.0
 11
15.3238
 21
128.0013
 31
0.0
  0
LINE
  5
7FE
330
1D
100
AcDbEntity
  8
0
100
AcDbLine
 10
15.8933
 20
128.0013
 30
0.0
 11
16.0495
 21
128.0013
 31
0.0
  0
LINE
  5
7FF
330
1D
100
AcDbEntity
  8
0
100
AcDbLine
 10
15.8933
 20
128.0013
 30
0.0
 11
16.1654
 21
128.0013
 31
0.0
  0
LINE
  5
800
330
1D
100
AcDbEntity
  8
0
100
AcDbLine
 10
17.9494
 20
128.0013
 30
0.0
 11
19.4079
 21
128.0013
 31
0.0
  0
LINE
  5
801
330
1D
100
AcDbEntity
  8
0
100
AcDbLine
 10
17.6168
 20
128.0013
 30
0.0
 11
18.9795
 21
128.0013
 31
0.0
  0
LINE
  5
802
330
1D
100
AcDbEntity
  8
0
100
AcDbLine
 10
21.1878
 20
128.0013
 30
0.0
 11
23.2349
 21
128.0013
 31
0.0
  0
LINE
  5
803
330
1D
100
AcDbEntity
  8
0
100
AcDbLine
 10
23.2349
 20
128.0013
 30
0.0
 11
25.4886
 21
128.0013
 31
0.0
  0
LINE
  5
804
330
1D
100
AcDbEntity
  8
0
100
AcDbLine
 10
23.2349
 20
128.0013
 30
0.0
 11
25.4876
 21
128.0013
 31
0.0
  0
LINE
  5
805
330
1D
100
AcDbEntity
  8
0
100
AcDbLine
 10
27.8783
 20
128.0013
 30
0.0
 11
30.0
 21
128.0013
 31
0.0
  0
LINE
  5
806
330
1D
100
AcDbEntity
  8
0
100
AcDbLine
 10
25.4886
 20
128.0013
 30
0.0
 11
27.8783
 21
128.0013
 31
0.0
  0
LINE
  5
807
330
1D
100
AcDbEntity
  8
0
100
AcDbLine
 10
25.4876
 20
128.0013
 30
0.0
 11
27.8783
 21
128.0013
 31
0.0
  0
LINE
  5
808
330
1D
100
AcDbEntity
  8
0
100
AcDbLine
 10
19.4079
 20
128.0013
 30
0.0
 11
21.1878
 21
128.0013
 31
0.0
  0
LINE
  5
80B
330
1D
100
AcDbEntity
  8
0
100
AcDbLine
 10
15.0698
 20
128.0413
 30
0.0
 11
15.221
 21
128.0013
 31
0.0
  0
LINE
  5
80C
330
1D
100
AcDbEntity
  8
0
100
AcDbLine
 10
14.8511
 20
138.0497
 30
0.0
 11
14.9186
 21
128.3016
 31
0.0
  0
LINE
  5
80D
330
1D
100
AcDbEntity
  8
0
100
AcDbLine
 10
14.9186
 20
128.3016
 30
0.0
 11
14.9589
 21
128.1514
 31
0.0
  0
LINE
  5
810
330
1D
100
AcDbEntity
  8
0
100
AcDbLine
 10
14.9589
 20
128.1514
 30
0.0
 11
15.0698
 21
128.0413
 31
0.0
  0
LINE
  5
811
330
1D
100
AcDbEntity
  8
0
100
AcDbLine
 10
14.4368
 20
158.5792
 30
0.0
 11
14.6818
 21
146.1562
 31
0.0
  0
LINE
  5
812
330
1D
100
AcDbEntity
  8
0
100
AcDbLine
 10
14.6818
 20
146.1562
 30
0.0
 11
14.8511
 21
138.0497
 31
0.0
  0
LINE
  5
81F
330
1D
100
AcDbEntity
  8
0
100
AcDbLine
 10
14.1939
 20
168.8669
 30
0.0
 11
14.3239
 21
164.8947
 31
0.0
  0
LINE
  5
825
330
1D
100
AcDbEntity
  8
0
100
AcDbLine
 10
13.6758
 20
176.59
 30
0.0
 11
14.0145
 21
172.3175
 31
0.0
  0
LINE
  5
82F
330
1D
100
AcDbEntity
  8
0
100
AcDbLine
 10
14.3239
 20
164.8947
 30
0.0
 11
14.4368
 21
158.5792
 31
0.0
  0
LINE
  5
835
330
1D
100
AcDbEntity
  8
0
100
AcDbLine
 10
12.58814145115
 20
184.591608207816
 30
0.0
 11
13.047439523392
 21
181.759416342313
 31
0.0
  0
LINE
  5
83D
330
1D
100
AcDbEntity
  8
0
100
AcDbLine
 10
12.3837
 20
185.7015
 30
0.0
 11
12.6024
 21
184.5142
 31
0.0
  0
LINE
  5
83E
330
1D
100
AcDbEntity
  8
0
100
AcDbLine
 10
12.3434
 20
185.9057
 30
0.0
 11
12.3837
 21
185.7015
 31
0.0
  0
LINE
  5
84F
330
1D
100
AcDbEntity
  8
0
100
AcDbLine
 10
11.883109230823
 20
188.116453023147
 30
0.0
 11
12.3434
 21
185.9057
 31
0.0
  0
LINE
  5
85E
330
1D
100
AcDbEntity
  8
0
100
AcDbLine
 10
11.4655
 20
189.9099
 30
0.0
 11
11.499744687711
 21
189.766031052954
 31
0.0
  0
LINE
  5
876
330
1D
100
AcDbEntity
  8
0
100
AcDbLine
 10
10.4697
 20
193.5026
 30
0.0
 11
10.6783
 21
192.8049
 31
0.0
  0
LINE
  5
890
330
1D
100
AcDbEntity
  8
0
100
AcDbLine
 10
10.0
 20
195.0863
 30
0.0
 11
10.0202
 21
194.9321
 31
0.0
  0
LINE
  5
891
330
1D
100
AcDbEntity
  8
0
100
AcDbLine
 10
10.0
 20
195.0863
 30
0.0
 11
10.0262
 21
195.2374
 31
0.0
  0
LINE
  5
89B
330
1D
100
AcDbEntity
  8
0
100
AcDbLine
 10
10.2782
 20
194.1263
 30
0.0
 11
10.4697
 21
193.5026
 31
0.0
  0
LINE
  5
89C
330
1D
100
AcDbEntity
  8
0
100
AcDbLine
 10
10.05676253868
 20
194.823181784887
 30
0.0
 11
10.2782
 21
194.1263
 31
0.0
  0
LINE
  5
8A4
330
1D
100
AcDbEntity
  8
0
100
AcDbLine
 10
10.2046
 20
195.4817
 30
0.0
 11
10.3407
 21
195.5527
 31
0.0
  0
LINE
  5
8A5
330
1D
100
AcDbEntity
  8
0
100
AcDbLine
 10
10.0968
 20
195.3736
 30
0.0
 11
10.2046
 21
195.4817
 31
0.0
  0
LINE
  5
8A6
330
1D
100
AcDbEntity
  8
0
100
AcDbLine
 10
10.3407
 20
195.5527
 30
0.0
 11
10.4929
 21
195.5798
 31
0.0
  0
LINE
  5
955
330
1D
100
AcDbEntity
  8
0
100
AcDbLine
 10
117.8763
 20
158.1968
 30
0.0
 11
117.9638
 21
128.0
 31
0.0
  0
LINE
  5
956
330
1D
100
AcDbEntity
  8
0
100
AcDbLine
 10
162.124
 20
158.1968
 30
0.0
 11
162.829860722212
 21
211.608061743723
 31
0.0
  0
LINE
  5
ABC
330
1D
100
AcDbEntity
  8
0
100
AcDbLine
 10
117.170139277788
 20
211.608061743723
 30
0.0
 11
117.8763
 21
158.1968
 31
0.0
  0
LINE
  5
AC3
330
1D
100
AcDbEntity
  8
0
100
AcDbLine
 10
116.0763
 20
245.331
 30
0.0
 11
116.738516709363
 21
228.227935250725
 31
0.0
  0
LINE
  5
AC4
330
1D
100
AcDbEntity
  8
0
100
AcDbLine
 10
116.738516709363
 20
228.227935250725
 30
0.0
 11
117.170139277788
 21
211.608061743723
 31
0.0
  0
LINE
  5
AC5
330
1D
100
AcDbEntity
  8
0
100
AcDbLine
 10
116.738516709363
 20
228.227935250725
 30
0.0
 11
117.170139277788
 21
211.608061743723
 31
0.0
  0
LINE
  5
AF1
330
1D
100
AcDbEntity
  8
0
100
AcDbLine
 10
128.0
 20
267.502
 30
0.0
 11
128.0
 21
271.894812046134
 31
0.0
  0
LINE
  5
AF2
330
1D
100
AcDbEntity
  8
0
100
AcDbLine
 10
128.0
 20
267.502
 30
0.0
 11
128.0545
 21
267.305
 31
0.0
  0
LINE
  5
AF3
330
1D
100
AcDbEntity
  8
0
100
AcDbLine
 10
128.1352
 20
267.025
 30
0.0
 11
128.3239
 21
266.748
 31
0.0
  0
LINE
  5
AF4
330
1D
100
AcDbEntity
  8
0
100
AcDbLine
 10
128.3239
 20
266.748
 30
0.0
 11
128.4681
 21
266.612
 31
0.0
  0
LINE
  5
AF9
330
1D
100
AcDbEntity
  8
0
100
AcDbLine
 10
128.0545
 20
267.305
 30
0.0
 11
128.1352
 21
267.025
 31
0.0
  0
LINE
  5
AFC
330
1D
100
AcDbEntity
  8
0
100
AcDbLine
 10
128.4681
 20
266.612
 30
0.0
 11
128.7587
 21
266.344
 31
0.0
  0
LINE
  5
AFD
330
1D
100
AcDbEntity
  8
0
100
AcDbLine
 10
128.7587
 20
266.344
 30
0.0
 11
129.1512
 21
266.084
 31
0.0
  0
LINE
  5
AFE
330
1D
100
AcDbEntity
  8
0
100
AcDbLine
 10
129.1512
 20
266.084
 30
0.0
 11
129.6415
 21
265.836
 31
0.0
  0
LINE
  5
B03
330
1D
100
AcDbEntity
  8
0
100
AcDbLine
 10
128.0068
 20
267.665388004896
 30
0.0
 11
128.0068
 21
271.899721059376
 31
0.0
  0
LINE
  5
B04
330
1D
100
AcDbEntity
  8
0
100
AcDbLine
 10
128.0
 20
267.642
 30
0.0
 11
128.0068
 21
267.572
 31
0.0
  0
LINE
  5
B05
330
1D
100
AcDbEntity
  8
0
100
AcDbLine
 10
128.0
 20
267.642
 30
0.0
 11
128.0
 21
271.894812046134
 31
0.0
  0
LINE
  5
B06
330
1D
100
AcDbEntity
  8
0
100
AcDbLine
 10
128.0068
 20
271.899721059376
 30
0.0
 11
128.0068
 21
267.665388004896
 31
0.0
  0
LINE
  5
B07
330
1D
100
AcDbEntity
  8
0
100
AcDbLine
 10
128.0
 20
271.894812046134
 30
0.0
 11
128.0
 21
267.642
 31
0.0
  0
LINE
  5
B08
330
1D
100
AcDbEntity
  8
0
100
AcDbLine
 10
128.0
 20
271.894812046134
 30
0.0
 11
128.0
 21
267.502
 31
0.0
  0
LINE
  5
B09
330
1D
100
AcDbEntity
  8
0
100
AcDbLine
 10
127.931
 20
271.845
 30
0.0
 11
128.6333
 21
272.352
 31
0.0
  0
LINE
  5
B0A
330
1D
100
AcDbEntity
  8
0
100
AcDbLine
 10
127.6402
 20
270.274
 30
0.0
 11
128.0
 21
269.906671279109
 31
0.0
  0
LINE
  5
B0B
330
1D
100
AcDbEntity
  8
0
100
AcDbLine
 10
127.5255
 20
271.332
 30
0.0
 11
127.931
 21
271.845
 31
0.0
  0
LINE
  5
B0C
330
1D
100
AcDbEntity
  8
0
100
AcDbLine
 10
128.6333
 20
272.352
 30
0.0
 11
129.6163
 21
272.852
 31
0.0
  0
LINE
  5
B0D
330
1D
100
AcDbEntity
  8
0
100
AcDbLine
 10
129.6415
 20
265.836
 30
0.0
 11
130.226
 21
265.599
 31
0.0
  0
LINE
  5
B0E
330
1D
100
AcDbEntity
  8
0
100
AcDbLine
 10
129.8282
 20
266.94
 30
0.0
 11
131.252
 21
266.94
 31
0.0
  0
LINE
  5
B0F
330
1D
100
AcDbEntity
  8
0
100
AcDbLine
 10
129.8282
 20
266.94
 30
0.0
 11
130.01
 21
266.675
 31
0.0
  0
LINE
  5
B10
330
1D
100
AcDbEntity
  8
0
100
AcDbLine
 10
129.8282
 20
266.94
 30
0.0
 11
129.8282
 21
267.431764285714
 31
0.0
  0
LINE
  5
B11
330
1D
100
AcDbEntity
  8
0
100
AcDbLine
 10
129.7798
 20
267.033
 30
0.0
 11
129.8918
 21
266.778
 31
0.0
  0
LINE
  5
B12
330
1D
100
AcDbEntity
  8
0
100
AcDbLine
 10
129.8918
 20
266.778
 30
0.0
 11
130.107
 21
266.527
 31
0.0
  0
LINE
  5
B13
330
1D
100
AcDbEntity
  8
0
100
AcDbLine
 10
129.7758
 20
267.177
 30
0.0
 11
129.7798
 21
267.322
 31
0.0
  0
LINE
  5
B14
330
1D
100
AcDbEntity
  8
0
100
AcDbLine
 10
129.7758
 20
267.177
 30
0.0
 11
129.7798
 21
267.033
 31
0.0
  0
LINE
  5
B15
330
1D
100
AcDbEntity
  8
0
100
AcDbLine
 10
129.8282
 20
267.431764285714
 30
0.0
 11
129.8282
 21
266.94
 31
0.0
  0
LINE
  5
B16
330
1D
100
AcDbEntity
  8
0
100
AcDbLine
 10
129.864020472441
 20
267.513
 30
0.0
 11
131.252
 21
267.513
 31
0.0
  0
LINE
  5
B17
330
1D
100
AcDbEntity
  8
0
100
AcDbLine
 10
129.7798
 20
267.322
 30
0.0
 11
129.8918
 21
267.576
 31
0.0
  0
LINE
  5
B18
330
1D
100
AcDbEntity
  8
0
100
AcDbLine
 10
130.01
 20
266.675
 30
0.0
 11
130.302
 21
266.417
 31
0.0
  0
LINE
  5
B19
330
1D
100
AcDbEntity
  8
0
100
AcDbLine
 10
130.107
 20
266.527
 30
0.0
 11
130.424
 21
266.284
 31
0.0
  0
LINE
  5
B1A
330
1D
100
AcDbEntity
  8
0
100
AcDbLine
 10
130.302
 20
266.417
 30
0.0
 11
130.706
 21
266.167
 31
0.0
  0
LINE
  5
B1B
330
1D
100
AcDbEntity
  8
0
100
AcDbLine
 10
130.424
 20
266.284
 30
0.0
 11
130.839
 21
266.049
 31
0.0
  0
LINE
  5
B1C
330
1D
100
AcDbEntity
  8
0
100
AcDbLine
 10
130.226
 20
265.599
 30
0.0
 11
130.899
 21
265.376
 31
0.0
  0
LINE
  5
B1D
330
1D
100
AcDbEntity
  8
0
100
AcDbLine
 10
129.8918
 20
267.576
 30
0.0
 11
130.107
 21
267.826
 31
0.0
  0
LINE
  5
B1E
330
1D
100
AcDbEntity
  8
0
100
AcDbLine
 10
130.107
 20
267.826
 30
0.0
 11
130.424
 21
268.071
 31
0.0
  0
LINE
  5
B1F
330
1D
100
AcDbEntity
  8
0
100
AcDbLine
 10
131.215
 20
265.93
 30
0.0
 11
131.822
 21
265.707
 31
0.0
  0
LINE
  5
B20
330
1D
100
AcDbEntity
  8
0
100
AcDbLine
 10
130.899
 20
265.376
 30
0.0
 11
131.654
 21
265.172
 31
0.0
  0
LINE
  5
B21
330
1D
100
AcDbEntity
  8
0
100
AcDbLine
 10
130.706
 20
266.167
 30
0.0
 11
131.215
 21
265.93
 31
0.0
  0
LINE
  5
B22
330
1D
100
AcDbEntity
  8
0
100
AcDbLine
 10
131.252
 20
266.94
 30
0.0
 11
131.252
 21
267.513
 31
0.0
  0
LINE
  5
B23
330
1D
100
AcDbEntity
  8
0
100
AcDbLine
 10
131.252
 20
266.94
 30
0.0
 11
131.42
 21
266.717
 31
0.0
  0
LINE
  5
B24
330
1D
100
AcDbEntity
  8
0
100
AcDbLine
 10
130.839
 20
266.049
 30
0.0
 11
131.349
 21
265.827
 31
0.0
  0
LINE
  5
B25
330
1D
100
AcDbEntity
  8
0
100
AcDbLine
 10
131.349
 20
265.827
 30
0.0
 11
131.948
 21
265.617
 31
0.0
  0
LINE
  5
B26
330
1D
100
AcDbEntity
  8
0
100
AcDbLine
 10
131.252
 20
267.513
 30
0.0
 11
131.42
 21
267.736
 31
0.0
  0
LINE
  5
B27
330
1D
100
AcDbEntity
  8
0
100
AcDbLine
 10
131.252
 20
267.513
 30
0.0
 11
131.252
 21
266.94
 31
0.0
  0
LINE
  5
B28
330
1D
100
AcDbEntity
  8
0
100
AcDbLine
 10
130.424
 20
268.071
 30
0.0
 11
130.839
 21
268.305
 31
0.0
  0
LINE
  5
B29
330
1D
100
AcDbEntity
  8
0
100
AcDbLine
 10
130.839
 20
268.305
 30
0.0
 11
131.349
 21
268.528
 31
0.0
  0
LINE
  5
B2A
330
1D
100
AcDbEntity
  8
0
100
AcDbLine
 10
131.42
 20
266.717
 30
0.0
 11
131.682
 21
266.499
 31
0.0
  0
LINE
  5
B2B
330
1D
100
AcDbEntity
  8
0
100
AcDbLine
 10
131.682
 20
266.499
 30
0.0
 11
132.034
 21
266.29
 31
0.0
  0
LINE
  5
B2C
330
1D
100
AcDbEntity
  8
0
100
AcDbLine
 10
131.822
 20
265.707
 30
0.0
 11
132.522
 21
265.501
 31
0.0
  0
LINE
  5
B2D
330
1D
100
AcDbEntity
  8
0
100
AcDbLine
 10
131.948
 20
265.617
 30
0.0
 11
132.628
 21
265.424
 31
0.0
  0
LINE
  5
B2E
330
1D
100
AcDbEntity
  8
0
100
AcDbLine
 10
131.654
 20
265.172
 30
0.0
 11
132.486
 21
264.985
 31
0.0
  0
LINE
  5
B2F
330
1D
100
AcDbEntity
  8
0
100
AcDbLine
 10
131.682
 20
267.954
 30
0.0
 11
132.034
 21
268.164
 31
0.0
  0
LINE
  5
B30
330
1D
100
AcDbEntity
  8
0
100
AcDbLine
 10
131.42
 20
267.736
 30
0.0
 11
131.682
 21
267.954
 31
0.0
  0
LINE
  5
B31
330
1D
100
AcDbEntity
  8
0
100
AcDbLine
 10
132.034
 20
266.29
 30
0.0
 11
132.474
 21
266.09
 31
0.0
  0
LINE
  5
B32
330
1D
100
AcDbEntity
  8
0
100
AcDbLine
 10
132.474
 20
266.09
 30
0.0
 11
132.994
 21
265.902
 31
0.0
  0
LINE
  5
B33
330
1D
100
AcDbEntity
  8
0
100
AcDbLine
 10
133.307
 20
265.315
 30
0.0
 11
134.168
 21
265.151
 31
0.0
  0
LINE
  5
B34
330
1D
100
AcDbEntity
  8
0
100
AcDbLine
 10
132.994
 20
265.902
 30
0.0
 11
133.59
 21
265.73
 31
0.0
  0
LINE
  5
B35
330
1D
100
AcDbEntity
  8
0
100
AcDbLine
 10
132.522
 20
265.501
 30
0.0
 11
133.307
 21
265.315
 31
0.0
  0
LINE
  5
B36
330
1D
100
AcDbEntity
  8
0
100
AcDbLine
 10
132.628
 20
265.424
 30
0.0
 11
133.385
 21
265.249
 31
0.0
  0
LINE
  5
B37
330
1D
100
AcDbEntity
  8
0
100
AcDbLine
 10
133.385
 20
265.249
 30
0.0
 11
134.21
 21
265.094
 31
0.0
  0
LINE
  5
B38
330
1D
100
AcDbEntity
  8
0
100
AcDbLine
 10
133.385
 20
264.819
 30
0.0
 11
134.344
 21
264.675
 31
0.0
  0
LINE
  5
B39
330
1D
100
AcDbEntity
  8
0
100
AcDbLine
 10
132.486
 20
264.985
 30
0.0
 11
133.385
 21
264.819
 31
0.0
  0
LINE
  5
B3A
330
1D
100
AcDbEntity
  8
0
100
AcDbLine
 10
132.474
 20
268.363
 30
0.0
 11
132.994
 21
268.55
 31
0.0
  0
LINE
  5
B3B
330
1D
100
AcDbEntity
  8
0
100
AcDbLine
 10
132.034
 20
268.164
 30
0.0
 11
132.474
 21
268.363
 31
0.0
  0
LINE
  5
B3C
330
1D
100
AcDbEntity
  8
0
100
AcDbLine
 10
133.365718342981
 20
268.658521798119
 30
0.0
 11
133.449
 21
268.633
 31
0.0
  0
LINE
  5
B3D
330
1D
100
AcDbEntity
  8
0
100
AcDbLine
 10
132.994
 20
268.55
 30
0.0
 11
133.59
 21
268.724
 31
0.0
  0
LINE
  5
B3E
330
1D
100
AcDbEntity
  8
0
100
AcDbLine
 10
131.948
 20
268.736
 30
0.0
 11
132.628
 21
268.929
 31
0.0
  0
LINE
  5
B3F
330
1D
100
AcDbEntity
  8
0
100
AcDbLine
 10
132.628
 20
268.929
 30
0.0
 11
133.385
 21
269.105
 31
0.0
  0
LINE
  5
B40
330
1D
100
AcDbEntity
  8
0
100
AcDbLine
 10
133.449
 20
268.633
 30
0.0
 11
134.152
 21
268.461
 31
0.0
  0
LINE
  5
B41
330
1D
100
AcDbEntity
  8
0
100
AcDbLine
 10
133.59
 20
265.73
 30
0.0
 11
134.257
 21
265.573
 31
0.0
  0
LINE
  5
B42
330
1D
100
AcDbEntity
  8
0
100
AcDbLine
 10
134.152
 20
268.461
 30
0.0
 11
134.93
 21
268.309
 31
0.0
  0
LINE
  5
B43
330
1D
100
AcDbEntity
  8
0
100
AcDbLine
 10
134.168
 20
265.151
 30
0.0
 11
135.094
 21
265.01
 31
0.0
  0
LINE
  5
B44
330
1D
100
AcDbEntity
  8
0
100
AcDbLine
 10
134.257
 20
265.573
 30
0.0
 11
134.987
 21
265.434
 31
0.0
  0
LINE
  5
B45
330
1D
100
AcDbEntity
  8
0
100
AcDbLine
 10
134.987
 20
265.434
 30
0.0
 11
135.771
 21
265.315
 31
0.0
  0
LINE
  5
B46
330
1D
100
AcDbEntity
  8
0
100
AcDbLine
 10
134.93
 20
268.309
 30
0.0
 11
135.771
 21
268.18
 31
0.0
  0
LINE
  5
B47
330
1D
100
AcDbEntity
  8
0
100
AcDbLine
 10
135.094
 20
265.01
 30
0.0
 11
136.044
 21
264.897
 31
0.0
  0
LINE
  5
B48
330
1D
100
AcDbEntity
  8
0
100
AcDbLine
 10
135.094
 20
264.96
 30
0.0
 11
136.028
 21
264.849
 31
0.0
  0
LINE
  5
B49
330
1D
100
AcDbEntity
  8
0
100
AcDbLine
 10
134.21
 20
265.094
 30
0.0
 11
135.094
 21
264.96
 31
0.0
  0
LINE
  5
B4A
330
1D
100
AcDbEntity
  8
0
100
AcDbLine
 10
134.344
 20
264.675
 30
0.0
 11
135.354
 21
264.553
 31
0.0
  0
LINE
  5
B4B
330
1D
100
AcDbEntity
  8
0
100
AcDbLine
 10
135.771
 20
268.18
 30
0.0
 11
136.665
 21
268.076
 31
0.0
  0
LINE
  5
B4C
330
1D
100
AcDbEntity
  8
0
100
AcDbLine
 10
135.771
 20
265.315
 30
0.0
 11
136.68
 21
265.209
 31
0.0
  0
LINE
  5
B4D
330
1D
100
AcDbEntity
  8
0
100
AcDbLine
 10
135.434
 20
264.546
 30
0.0
 11
136.468
 21
264.451
 31
0.0
  0
LINE
  5
B4E
330
1D
100
AcDbEntity
  8
0
100
AcDbLine
 10
135.354
 20
264.553
 30
0.0
 11
135.434
 21
264.546
 31
0.0
  0
LINE
  5
B4F
330
1D
100
AcDbEntity
  8
0
100
AcDbLine
 10
134.257
 20
268.88
 30
0.0
 11
134.987
 21
269.018
 31
0.0
  0
LINE
  5
B50
330
1D
100
AcDbEntity
  8
0
100
AcDbLine
 10
133.59
 20
268.724
 30
0.0
 11
134.257
 21
268.88
 31
0.0
  0
LINE
  5
B51
330
1D
100
AcDbEntity
  8
0
100
AcDbLine
 10
134.987
 20
269.018
 30
0.0
 11
135.771
 21
269.137
 31
0.0
  0
LINE
  5
B52
330
1D
100
AcDbEntity
  8
0
100
AcDbLine
 10
139.725
 20
264.316
 30
0.0
 11
140.0
 21
264.317
 31
0.0
  0
LINE
  5
B53
330
1D
100
AcDbEntity
  8
0
100
AcDbLine
 10
136.468
 20
264.451
 30
0.0
 11
137.535
 21
264.38
 31
0.0
  0
LINE
  5
B54
330
1D
100
AcDbEntity
  8
0
100
AcDbLine
 10
138.009
 20
264.699
 30
0.0
 11
139.036
 21
264.662
 31
0.0
  0
LINE
  5
B55
330
1D
100
AcDbEntity
  8
0
100
AcDbLine
 10
139.036
 20
264.662
 30
0.0
 11
140.0
 21
264.652
 31
0.0
  0
LINE
  5
B57
330
1D
100
AcDbEntity
  8
0
100
AcDbLine
 10
137.535
 20
264.38
 30
0.0
 11
138.624
 21
264.335
 31
0.0
  0
LINE
  5
B58
330
1D
100
AcDbEntity
  8
0
100
AcDbLine
 10
138.624
 20
264.335
 30
0.0
 11
139.725
 21
264.316
 31
0.0
  0
LINE
  5
B5B
330
1D
100
AcDbEntity
  8
0
100
AcDbLine
 10
139.104
 20
264.71
 30
0.0
 11
140.0
 21
264.702
 31
0.0
  0
LINE
  5
B5C
330
1D
100
AcDbEntity
  8
0
100
AcDbLine
 10
138.059
 20
264.747
 30
0.0
 11
139.104
 21
264.71
 31
0.0
  0
LINE
  5
B5D
330
1D
100
AcDbEntity
  8
0
100
AcDbLine
 10
137.036
 20
264.809
 30
0.0
 11
138.059
 21
264.747
 31
0.0
  0
LINE
  5
B5E
330
1D
100
AcDbEntity
  8
0
100
AcDbLine
 10
136.68
 20
265.209
 30
0.0
 11
137.632
 21
265.129
 31
0.0
  0
LINE
  5
B5F
330
1D
100
AcDbEntity
  8
0
100
AcDbLine
 10
137.632
 20
265.129
 30
0.0
 11
138.616
 21
265.076
 31
0.0
  0
LINE
  5
B60
330
1D
100
AcDbEntity
  8
0
100
AcDbLine
 10
138.616
 20
265.076
 30
0.0
 11
139.617
 21
265.051
 31
0.0
  0
LINE
  5
B62
330
1D
100
AcDbEntity
  8
0
100
AcDbLine
 10
139.617
 20
265.051
 30
0.0
 11
140.0
 21
265.052
 31
0.0
  0
LINE
  5
B64
330
1D
100
AcDbEntity
  8
0
100
AcDbLine
 10
139.551
 20
267.917
 30
0.0
 11
140.0
 21
267.917
 31
0.0
  0
LINE
  5
B65
330
1D
100
AcDbEntity
  8
0
100
AcDbLine
 10
136.044
 20
264.897
 30
0.0
 11
137.036
 21
264.809
 31
0.0
  0
LINE
  5
B66
330
1D
100
AcDbEntity
  8
0
100
AcDbLine
 10
136.028
 20
264.849
 30
0.0
 11
137.004
 21
264.762
 31
0.0
  0
LINE
  5
B67
330
1D
100
AcDbEntity
  8
0
100
AcDbLine
 10
137.004
 20
264.762
 30
0.0
 11
138.009
 21
264.699
 31
0.0
  0
LINE
  5
B6A
330
1D
100
AcDbEntity
  8
0
100
AcDbLine
 10
136.665
 20
268.076
 30
0.0
 11
137.601
 21
267.996
 31
0.0
  0
LINE
  5
B6B
330
1D
100
AcDbEntity
  8
0
100
AcDbLine
 10
137.601
 20
267.996
 30
0.0
 11
138.568
 21
267.943
 31
0.0
  0
LINE
  5
B6C
330
1D
100
AcDbEntity
  8
0
100
AcDbLine
 10
138.568
 20
267.943
 30
0.0
 11
139.551
 21
267.917
 31
0.0
  0
LINE
  5
B72
330
1D
100
AcDbEntity
  8
0
100
AcDbLine
 10
140.0
 20
264.317
 30
0.0
 11
140.275
 21
264.316
 31
0.0
  0
LINE
  5
B73
330
1D
100
AcDbEntity
  8
0
100
AcDbLine
 10
135.771
 20
269.137
 30
0.0
 11
136.68
 21
269.244
 31
0.0
  0
LINE
  5
B74
330
1D
100
AcDbEntity
  8
0
100
AcDbLine
 10
136.68
 20
269.244
 30
0.0
 11
137.632
 21
269.325
 31
0.0
  0
LINE
  5
B75
330
1D
100
AcDbEntity
  8
0
100
AcDbLine
 10
133.385
 20
269.105
 30
0.0
 11
134.21
 21
269.26
 31
0.0
  0
LINE
  5
B76
330
1D
100
AcDbEntity
  8
0
100
AcDbLine
 10
135.094
 20
269.394
 30
0.0
 11
136.028
 21
269.505
 31
0.0
  0
LINE
  5
B77
330
1D
100
AcDbEntity
  8
0
100
AcDbLine
 10
136.028
 20
269.505
 30
0.0
 11
137.004
 21
269.593
 31
0.0
  0
LINE
  5
B78
330
1D
100
AcDbEntity
  8
0
100
AcDbLine
 10
137.632
 20
269.325
 30
0.0
 11
138.616
 21
269.377
 31
0.0
  0
LINE
  5
B79
330
1D
100
AcDbEntity
  8
0
100
AcDbLine
 10
138.616
 20
269.377
 30
0.0
 11
139.617
 21
269.402
 31
0.0
  0
LINE
  5
B7B
330
1D
100
AcDbEntity
  8
0
100
AcDbLine
 10
137.004
 20
269.593
 30
0.0
 11
138.009
 21
269.655
 31
0.0
  0
LINE
  5
B7C
330
1D
100
AcDbEntity
  8
0
100
AcDbLine
 10
138.009
 20
269.655
 30
0.0
 11
139.036
 21
269.692
 31
0.0
  0
LINE
  5
B84
330
1D
100
AcDbEntity
  8
0
100
AcDbLine
 10
139.617
 20
269.402
 30
0.0
 11
140.0
 21
269.401
 31
0.0
  0
LINE
  5
B86
330
1D
100
AcDbEntity
  8
0
100
AcDbLine
 10
139.036
 20
269.692
 30
0.0
 11
140.0
 21
269.702
 31
0.0
  0
LINE
  5
B88
330
1D
100
AcDbEntity
  8
0
100
AcDbLine
 10
134.21
 20
269.26
 30
0.0
 11
135.094
 21
269.394
 31
0.0
  0
LINE
  5
B89
330
1D
100
AcDbEntity
  8
0
100
AcDbLine
 10
131.349
 20
268.528
 30
0.0
 11
131.948
 21
268.736
 31
0.0
  0
LINE
  5
B8A
330
1D
100
AcDbEntity
  8
0
100
AcDbLine
 10
132.318
 20
273.795
 30
0.0
 11
133.97
 21
274.199
 31
0.0
  0
LINE
  5
B8B
330
1D
100
AcDbEntity
  8
0
100
AcDbLine
 10
130.855
 20
273.338
 30
0.0
 11
132.318
 21
273.795
 31
0.0
  0
LINE
  5
B8C
330
1D
100
AcDbEntity
  8
0
100
AcDbLine
 10
129.6163
 20
272.852
 30
0.0
 11
130.855
 21
273.338
 31
0.0
  0
LINE
  5
B8D
330
1D
100
AcDbEntity
  8
0
100
AcDbLine
 10
135.102
 20
274.415
 30
0.0
 11
138.119
 21
274.771
 31
0.0
  0
LINE
  5
B8E
330
1D
100
AcDbEntity
  8
0
100
AcDbLine
 10
138.119
 20
274.771
 30
0.0
 11
140.0
 21
274.832
 31
0.0
  0
LINE
  5
B8F
330
1D
100
AcDbEntity
  8
0
100
AcDbLine
 10
133.97
 20
274.199
 30
0.0
 11
135.102
 21
274.415
 31
0.0
  0
LINE
  5
B90
330
1D
100
AcDbEntity
  8
0
100
AcDbLine
 10
127.4289
 20
270.81
 30
0.0
 11
127.5255
 21
271.332
 31
0.0
  0
LINE
  5
B91
330
1D
100
AcDbEntity
  8
0
100
AcDbLine
 10
127.4289
 20
270.81
 30
0.0
 11
127.6402
 21
270.274
 31
0.0
  0
LINE
  5
B95
330
1D
100
AcDbEntity
  8
0
100
AcDbLine
 10
114.8789
 20
264.944
 30
0.0
 11
116.0763
 21
245.331
 31
0.0
  0
LINE
  5
BA2
330
1D
100
AcDbEntity
  8
0
100
AcDbLine
 10
113.570082481557
 20
278.65737243745
 30
0.0
 11
114.6576
 21
269.492
 31
0.0
  0
LINE
  5
BA3
330
1D
100
AcDbEntity
  8
0
100
AcDbLine
 10
112.775031224873
 20
283.783830433445
 30
0.0
 11
113.570082481557
 21
278.65737243745
 31
0.0
  0
LINE
  5
C79
330
1D
100
AcDbEntity
  8
0
100
AcDbLine
 10
110.0443
 20
292.188
 30
0.0
 11
110.1972
 21
291.391
 31
0.0
  0
LINE
  5
C7A
330
1D
100
AcDbEntity
  8
0
100
AcDbLine
 10
110.332
 20
290.962
 30
0.0
 11
111.9067
 21
285.967
 31
0.0
  0
LINE
  5
C7B
330
1D
100
AcDbEntity
  8
0
100
AcDbLine
 10
110.1972
 20
291.391
 30
0.0
 11
110.332
 21
290.962
 31
0.0
  0
LINE
  5
C7C
330
1D
100
AcDbEntity
  8
0
100
AcDbLine
 10
110.002
 20
293.54
 30
0.0
 11
110.02810336552
 21
293.67423748735
 31
0.0
  0
LINE
  5
C7D
330
1D
100
AcDbEntity
  8
0
100
AcDbLine
 10
111.3483
 20
296.801
 30
0.0
 11
111.5555
 21
296.926
 31
0.0
  0
LINE
  5
C7E
330
1D
100
AcDbEntity
  8
0
100
AcDbLine
 10
112.0576
 20
297.1
 30
0.0
 11
112.2257
 21
297.147
 31
0.0
  0
LINE
  5
C7F
330
1D
100
AcDbEntity
  8
0
100
AcDbLine
 10
111.5555
 20
296.926
 30
0.0
 11
112.0576
 21
297.1
 31
0.0
  0
LINE
  5
C80
330
1D
100
AcDbEntity
  8
0
100
AcDbLine
 10
111.1893
 20
296.667
 30
0.0
 11
111.3483
 21
296.801
 31
0.0
  0
LINE
  5
C81
330
1D
100
AcDbEntity
  8
0
100
AcDbLine
 10
112.7599
 20
297.268
 30
0.0
 11
113.5608
 21
297.393
 31
0.0
  0
LINE
  5
C82
330
1D
100
AcDbEntity
  8
0
100
AcDbLine
 10
112.2257
 20
297.147
 30
0.0
 11
112.7599
 21
297.268
 31
0.0
  0
LINE
  5
C83
330
1D
100
AcDbEntity
  8
0
100
AcDbLine
 10
110.98
 20
296.421
 30
0.0
 11
111.1893
 21
296.667
 31
0.0
  0
LINE
  5
C84
330
1D
100
AcDbEntity
  8
0
100
AcDbLine
 10
113.5608
 20
297.393
 30
0.0
 11
114.9594
 21
297.542
 31
0.0
  0
LINE
  5
C86
330
1D
100
AcDbEntity
  8
0
100
AcDbLine
 10
117.0271
 20
297.686
 30
0.0
 11
119.4168
 21
297.797
 31
0.0
  0
LINE
  5
C87
330
1D
100
AcDbEntity
  8
0
100
AcDbLine
 10
115.8982
 20
297.615
 30
0.0
 11
117.0271
 21
297.686
 31
0.0
  0
LINE
  5
C88
330
1D
100
AcDbEntity
  8
0
100
AcDbLine
 10
114.9594
 20
297.542
 30
0.0
 11
115.8982
 21
297.615
 31
0.0
  0
LINE
  5
C89
330
1D
100
AcDbEntity
  8
0
100
AcDbLine
 10
110.3562
 20
295.108
 30
0.0
 11
110.98
 21
296.421
 31
0.0
  0
LINE
  5
C8A
330
1D
100
AcDbEntity
  8
0
100
AcDbLine
 10
110.2686
 20
294.911
 30
0.0
 11
110.3562
 21
295.108
 31
0.0
  0
LINE
  5
C8B
330
1D
100
AcDbEntity
  8
0
100
AcDbLine
 10
119.4168
 20
297.797
 30
0.0
 11
122.1515
 21
297.879
 31
0.0
  0
LINE
  5
C8C
330
1D
100
AcDbEntity
  8
0
100
AcDbLine
 10
122.1515
 20
297.879
 30
0.0
 11
125.6812
 21
297.943
 31
0.0
  0
LINE
  5
C8E
330
1D
100
AcDbEntity
  8
0
100
AcDbLine
 10
128.3405
 20
297.971
 30
0.0
 11
130.993
 21
297.987
 31
0.0
  0
LINE
  5
C90
330
1D
100
AcDbEntity
  8
0
100
AcDbLine
 10
135.501
 20
297.998
 30
0.0
 11
140.0
 21
298.0
 31
0.0
  0
LINE
  5
C92
330
1D
100
AcDbEntity
  8
0
100
AcDbLine
 10
130.993
 20
297.987
 30
0.0
 11
135.501
 21
297.998
 31
0.0
  0
LINE
  5
C94
330
1D
100
AcDbEntity
  8
0
100
AcDbLine
 10
125.6812
 20
297.943
 30
0.0
 11
128.3405
 21
297.971
 31
0.0
  0
LINE
  5
C99
330
1D
100
AcDbEntity
  8
0
100
AcDbLine
 10
110.032330592298
 20
293.695976151691
 30
0.0
 11
110.2686
 21
294.911
 31
0.0
  0
LINE
  5
C9A
330
1D
100
AcDbEntity
  8
0
100
AcDbLine
 10
110.0
 20
292.992
 30
0.0
 11
110.0443
 21
292.188
 31
0.0
  0
LINE
  5
C9B
330
1D
100
AcDbEntity
  8
0
100
AcDbLine
 10
110.0
 20
292.992
 30
0.0
 11
110.002
 21
293.54
 31
0.0
  0
LINE
  5
CF9
330
1D
100
AcDbEntity
  8
0
100
AcDbLine
 10
1.3235
 20
128.0
 30
0.0
 11
2.3824
 21
128.0
 31
0.0
  0
LINE
  5
CFA
330
1D
100
AcDbEntity
  8
0
100
AcDbLine
 10
1.5
 20
127.5
 30
0.0
 11
4.4118
 21
127.5
 31
0.0
  0
LINE
  5
CFB
330
1D
100
AcDbEntity
  8
0
100
AcDbLine
 10
0.4412
 20
127.5
 30
0.0
 11
1.5
 21
127.5
 31
0.0
  0
LINE
  5
CFC
330
1D
100
AcDbEntity
  8
0
100
AcDbLine
 10
0.4412
 20
127.5
 30
0.0
 11
1.3235
 21
128.0
 31
0.0
  0
LINE
  5
CFD
330
1D
100
AcDbEntity
  8
0
100
AcDbLine
 10
1.0588
 20
118.0
 30
0.0
 11
4.0588
 21
118.0
 31
0.0
  0
LINE
  5
CFE
330
1D
100
AcDbEntity
  8
0
100
AcDbLine
 10
0.0
 20
118.0
 30
0.0
 11
1.0588
 21
118.0
 31
0.0
  0
LINE
  5
CFF
330
1D
100
AcDbEntity
  8
0
100
AcDbLine
 10
0.0
 20
118.0
 30
0.0
 11
0.0
 21
126.5
 31
0.0
  0
LINE
  5
D28
330
1D
100
AcDbEntity
  8
0
100
AcDbLine
 10
2.3824
 20
128.0
 30
0.0
 11
15.7059
 21
128.0
 31
0.0
  0
LINE
  5
D29
330
1D
100
AcDbEntity
  8
0
100
AcDbLine
 10
10.0262
 20
195.2374
 30
0.0
 11
10.0968
 21
195.3736
 31
0.0
  0
LINE
  5
D2A
330
1D
100
AcDbEntity
  8
0
100
AcDbLine
 10
10.05676253868
 20
194.823181784887
 30
0.0
 11
10.0202
 21
194.9321
 31
0.0
  0
LINE
  5
D2B
330
1D
100
AcDbEntity
  8
0
100
AcDbLine
 10
11.883109230823
 20
188.116453023147
 30
0.0
 11
11.499744687711
 21
189.766031052954
 31
0.0
  0
LINE
  5
D2C
330
1D
100
AcDbEntity
  8
0
100
AcDbLine
 10
11.499744687711
 20
189.766031052954
 30
0.0
 11
11.4655
 21
189.9099
 31
0.0
  0
LINE
  5
D2D
330
1D
100
AcDbEntity
  8
0
100
AcDbLine
 10
11.4655
 20
189.9099
 30
0.0
 11
10.6783
 21
192.8049
 31
0.0
  0
LINE
  5
D2E
330
1D
100
AcDbEntity
  8
0
100
AcDbLine
 10
13.6758
 20
176.59
 30
0.0
 11
13.047439523392
 21
181.759416342313
 31
0.0
  0
LINE
  5
D2F
330
1D
100
AcDbEntity
  8
0
100
AcDbLine
 10
14.1939
 20
168.8669
 30
0.0
 11
14.0145
 21
172.3175
 31
0.0
  0
LINE
  5
D30
330
1D
100
AcDbEntity
  8
0
100
AcDbLine
 10
45.5632
 20
158.5792
 30
0.0
 11
45.3182
 21
146.1562
 31
0.0
  0
LINE
  5
D33
330
1D
100
AcDbEntity
  8
0
100
AcDbLine
 10
44.16
 20
118.0
 30
0.0
 11
39.92
 21
118.0
 31
0.0
  0
LINE
  5
D34
330
1D
100
AcDbEntity
  8
0
100
AcDbLine
 10
44.9118
 20
118.0
 30
0.0
 11
37.6765
 21
118.0
 31
0.0
  0
LINE
  5
D35
330
1D
100
AcDbEntity
  8
0
100
AcDbLine
 10
44.2941
 20
128.0
 30
0.0
 11
37.4118
 21
128.0
 31
0.0
  0
LINE
  5
D36
330
1D
100
AcDbEntity
  8
0
100
AcDbLine
 10
44.7353
 20
127.5
 30
0.0
 11
37.5882
 21
127.5
 31
0.0
  0
LINE
  5
D37
330
1D
100
AcDbEntity
  8
0
100
AcDbLine
 10
42.0506
 20
128.0013
 30
0.0
 11
40.5921
 21
128.0013
 31
0.0
  0
LINE
  5
D38
330
1D
100
AcDbEntity
  8
0
100
AcDbLine
 10
42.3832
 20
128.0013
 30
0.0
 11
41.0205
 21
128.0013
 31
0.0
  0
LINE
  5
D39
330
1D
100
AcDbEntity
  8
0
100
AcDbLine
 10
45.1489
 20
138.0497
 30
0.0
 11
45.0814
 21
128.3016
 31
0.0
  0
LINE
  5
D3C
330
1D
100
AcDbEntity
  8
0
100
AcDbLine
 10
51.1765
 20
118.0
 30
0.0
 11
44.9118
 21
118.0
 31
0.0
  0
LINE
  5
D3D
330
1D
100
AcDbEntity
  8
0
100
AcDbLine
 10
51.1765
 20
118.0
 30
0.0
 11
50.0
 21
118.0
 31
0.0
  0
LINE
  5
D3E
330
1D
100
AcDbEntity
  8
0
100
AcDbLine
 10
50.9118
 20
127.5
 30
0.0
 11
44.7353
 21
127.5
 31
0.0
  0
LINE
  5
D3F
330
1D
100
AcDbEntity
  8
0
100
AcDbLine
 10
57.6176
 20
128.0
 30
0.0
 11
44.2941
 21
128.0
 31
0.0
  0
LINE
  5
D40
330
1D
100
AcDbEntity
  8
0
100
AcDbLine
 10
60.0
 20
126.5
 30
0.0
 11
60.0
 21
118.0
 31
0.0
  0
LINE
  5
D41
330
1D
100
AcDbEntity
  8
0
100
AcDbLine
 10
60.0
 20
126.5
 30
0.0
 11
59.5588
 21
127.5
 31
0.0
  0
LINE
  5
D44
330
1D
100
AcDbEntity
  8
0
100
AcDbLine
 10
55.9412
 20
118.0
 30
0.0
 11
51.1765
 21
118.0
 31
0.0
  0
LINE
  5
D45
330
1D
100
AcDbEntity
  8
0
100
AcDbLine
 10
55.5882
 20
127.5
 30
0.0
 11
50.9118
 21
127.5
 31
0.0
  0
LINE
  5
D46
330
1D
100
AcDbEntity
  8
0
100
AcDbLine
 10
58.6765
 20
128.0
 30
0.0
 11
57.6176
 21
128.0
 31
0.0
  0
LINE
  5
D47
330
1D
100
AcDbEntity
  8
0
100
AcDbLine
 10
58.5
 20
127.5
 30
0.0
 11
55.5882
 21
127.5
 31
0.0
  0
LINE
  5
D48
330
1D
100
AcDbEntity
  8
0
100
AcDbLine
 10
59.5588
 20
127.5
 30
0.0
 11
58.5
 21
127.5
 31
0.0
  0
LINE
  5
D49
330
1D
100
AcDbEntity
  8
0
100
AcDbLine
 10
59.5588
 20
127.5
 30
0.0
 11
58.6765
 21
128.0
 31
0.0
  0
LINE
  5
D4A
330
1D
100
AcDbEntity
  8
0
100
AcDbLine
 10
58.9412
 20
118.0
 30
0.0
 11
55.9412
 21
118.0
 31
0.0
  0
LINE
  5
D4B
330
1D
100
AcDbEntity
  8
0
100
AcDbLine
 10
60.0
 20
118.0
 30
0.0
 11
58.9412
 21
118.0
 31
0.0
  0
LINE
  5
D4C
330
1D
100
AcDbEntity
  8
0
100
AcDbLine
 10
60.0
 20
118.0
 30
0.0
 11
60.0
 21
126.5
 31
0.0
  0
LINE
  5
D51
330
1D
100
AcDbEntity
  8
0
100
AcDbLine
 10
50.0
 20
118.0
 30
0.0
 11
49.28
 21
118.0
 31
0.0
  0
LINE
  5
D54
330
1D
100
AcDbEntity
  8
0
100
AcDbLine
 10
49.28
 20
118.0
 30
0.0
 11
47.36
 21
118.0
 31
0.0
  0
LINE
  5
D55
330
1D
100
AcDbEntity
  8
0
100
AcDbLine
 10
47.36
 20
118.0
 30
0.0
 11
44.16
 21
118.0
 31
0.0
  0
LINE
  5
D57
330
1D
100
AcDbEntity
  8
0
100
AcDbLine
 10
44.6762
 20
128.0013
 30
0.0
 11
44.4071
 21
128.0013
 31
0.0
  0
LINE
  5
D58
330
1D
100
AcDbEntity
  8
0
100
AcDbLine
 10
43.9505
 20
128.0013
 30
0.0
 11
43.3699
 21
128.0013
 31
0.0
  0
LINE
  5
D59
330
1D
100
AcDbEntity
  8
0
100
AcDbLine
 10
43.8346
 20
128.0013
 30
0.0
 11
43.1422
 21
128.0013
 31
0.0
  0
LINE
  5
D5A
330
1D
100
AcDbEntity
  8
0
100
AcDbLine
 10
43.1422
 20
128.0013
 30
0.0
 11
42.0506
 21
128.0013
 31
0.0
  0
LINE
  5
D5B
330
1D
100
AcDbEntity
  8
0
100
AcDbLine
 10
43.3699
 20
128.0013
 30
0.0
 11
42.3832
 21
128.0013
 31
0.0
  0
LINE
  5
D5C
330
1D
100
AcDbEntity
  8
0
100
AcDbLine
 10
43.9233
 20
128.0013
 30
0.0
 11
42.8862
 21
128.0013
 31
0.0
  0
LINE
  5
D5D
330
1D
100
AcDbEntity
  8
0
100
AcDbLine
 10
44.5623
 20
128.0013
 30
0.0
 11
43.9233
 21
128.0013
 31
0.0
  0
LINE
  5
D5E
330
1D
100
AcDbEntity
  8
0
100
AcDbLine
 10
44.779
 20
128.0013
 30
0.0
 11
44.5623
 21
128.0013
 31
0.0
  0
LINE
  5
D5F
330
1D
100
AcDbEntity
  8
0
100
AcDbLine
 10
44.779
 20
128.0013
 30
0.0
 11
44.6762
 21
128.0013
 31
0.0
  0
LINE
  5
D60
330
1D
100
AcDbEntity
  8
0
100
AcDbLine
 10
44.1067
 20
128.0013
 30
0.0
 11
43.9505
 21
128.0013
 31
0.0
  0
LINE
  5
D61
330
1D
100
AcDbEntity
  8
0
100
AcDbLine
 10
44.1067
 20
128.0013
 30
0.0
 11
43.8346
 21
128.0013
 31
0.0
  0
LINE
  5
D62
330
1D
100
AcDbEntity
  8
0
100
AcDbLine
 10
44.9302
 20
128.0413
 30
0.0
 11
44.779
 21
128.0013
 31
0.0
  0
LINE
  5
D63
330
1D
100
AcDbEntity
  8
0
100
AcDbLine
 10
45.0814
 20
128.3016
 30
0.0
 11
45.0411
 21
128.1514
 31
0.0
  0
LINE
  5
D64
330
1D
100
AcDbEntity
  8
0
100
AcDbLine
 10
45.0411
 20
128.1514
 30
0.0
 11
44.9302
 21
128.0413
 31
0.0
  0
LINE
  5
D65
330
1D
100
AcDbEntity
  8
0
100
AcDbLine
 10
45.3182
 20
146.1562
 30
0.0
 11
45.1489
 21
138.0497
 31
0.0
  0
LINE
  5
D68
330
1D
100
AcDbEntity
  8
0
100
AcDbLine
 10
35.12
 20
118.0
 30
0.0
 11
30.0
 21
118.0
 31
0.0
  0
LINE
  5
D69
330
1D
100
AcDbEntity
  8
0
100
AcDbLine
 10
37.6765
 20
118.0
 30
0.0
 11
30.0
 21
118.0
 31
0.0
  0
LINE
  5
D6A
330
1D
100
AcDbEntity
  8
0
100
AcDbLine
 10
37.4118
 20
128.0
 30
0.0
 11
30.0
 21
128.0
 31
0.0
  0
LINE
  5
D6B
330
1D
100
AcDbEntity
  8
0
100
AcDbLine
 10
37.5882
 20
127.5
 30
0.0
 11
30.0
 21
127.5
 31
0.0
  0
LINE
  5
D6C
330
1D
100
AcDbEntity
  8
0
100
AcDbLine
 10
32.1217
 20
128.0013
 30
0.0
 11
30.0
 21
128.0013
 31
0.0
  0
LINE
  5
D6F
330
1D
100
AcDbEntity
  8
0
100
AcDbLine
 10
39.92
 20
118.0
 30
0.0
 11
35.12
 21
118.0
 31
0.0
  0
LINE
  5
D70
330
1D
100
AcDbEntity
  8
0
100
AcDbLine
 10
38.8122
 20
128.0013
 30
0.0
 11
36.7651
 21
128.0013
 31
0.0
  0
LINE
  5
D71
330
1D
100
AcDbEntity
  8
0
100
AcDbLine
 10
36.7651
 20
128.0013
 30
0.0
 11
34.5114
 21
128.0013
 31
0.0
  0
LINE
  5
D72
330
1D
100
AcDbEntity
  8
0
100
AcDbLine
 10
36.7651
 20
128.0013
 30
0.0
 11
34.5124
 21
128.0013
 31
0.0
  0
LINE
  5
D73
330
1D
100
AcDbEntity
  8
0
100
AcDbLine
 10
34.5114
 20
128.0013
 30
0.0
 11
32.1217
 21
128.0013
 31
0.0
  0
LINE
  5
D74
330
1D
100
AcDbEntity
  8
0
100
AcDbLine
 10
34.5124
 20
128.0013
 30
0.0
 11
32.1217
 21
128.0013
 31
0.0
  0
LINE
  5
D75
330
1D
100
AcDbEntity
  8
0
100
AcDbLine
 10
40.5921
 20
128.0013
 30
0.0
 11
38.8122
 21
128.0013
 31
0.0
  0
LINE
  5
D76
330
1D
100
AcDbEntity
  8
0
100
AcDbLine
 10
48.116890769177
 20
188.116453023147
 30
0.0
 11
47.6566
 21
185.9057
 31
0.0
  0
LINE
  5
D77
330
1D
100
AcDbEntity
  8
0
100
AcDbLine
 10
45.8061
 20
168.8669
 30
0.0
 11
45.6761
 21
164.8947
 31
0.0
  0
LINE
  5
D78
330
1D
100
AcDbEntity
  8
0
100
AcDbLine
 10
46.3242
 20
176.59
 30
0.0
 11
45.9855
 21
172.3175
 31
0.0
  0
LINE
  5
D79
330
1D
100
AcDbEntity
  8
0
100
AcDbLine
 10
45.6761
 20
164.8947
 30
0.0
 11
45.5632
 21
158.5792
 31
0.0
  0
LINE
  5
D7A
330
1D
100
AcDbEntity
  8
0
100
AcDbLine
 10
47.41185854885
 20
184.591608207816
 30
0.0
 11
46.952560476608
 21
181.759416342313
 31
0.0
  0
LINE
  5
D7B
330
1D
100
AcDbEntity
  8
0
100
AcDbLine
 10
47.6163
 20
185.7015
 30
0.0
 11
47.3976
 21
184.5142
 31
0.0
  0
LINE
  5
D7C
330
1D
100
AcDbEntity
  8
0
100
AcDbLine
 10
47.6566
 20
185.9057
 30
0.0
 11
47.6163
 21
185.7015
 31
0.0
  0
LINE
  5
D7D
330
1D
100
AcDbEntity
  8
0
100
AcDbLine
 10
46.3242
 20
176.59
 30
0.0
 11
46.952560476608
 21
181.759416342313
 31
0.0
  0
LINE
  5
D7E
330
1D
100
AcDbEntity
  8
0
100
AcDbLine
 10
45.8061
 20
168.8669
 30
0.0
 11
45.9855
 21
172.3175
 31
0.0
  0
LINE
  5
D7F
330
1D
100
AcDbEntity
  8
0
100
AcDbLine
 10
49.6593
 20
195.5527
 30
0.0
 11
49.5071
 21
195.5798
 31
0.0
  0
LINE
  5
D80
330
1D
100
AcDbEntity
  8
0
100
AcDbLine
 10
48.5345
 20
189.9099
 30
0.0
 11
49.3217
 21
192.8049
 31
0.0
  0
LINE
  5
D81
330
1D
100
AcDbEntity
  8
0
100
AcDbLine
 10
48.5345
 20
189.9099
 30
0.0
 11
48.500255312289
 21
189.766031052954
 31
0.0
  0
LINE
  5
D82
330
1D
100
AcDbEntity
  8
0
100
AcDbLine
 10
48.116890769177
 20
188.116453023147
 30
0.0
 11
48.500255312289
 21
189.766031052954
 31
0.0
  0
LINE
  5
D83
330
1D
100
AcDbEntity
  8
0
100
AcDbLine
 10
48.500255312289
 20
189.766031052954
 30
0.0
 11
48.5345
 21
189.9099
 31
0.0
  0
LINE
  5
D84
330
1D
100
AcDbEntity
  8
0
100
AcDbLine
 10
49.5303
 20
193.5026
 30
0.0
 11
49.3217
 21
192.8049
 31
0.0
  0
LINE
  5
D85
330
1D
100
AcDbEntity
  8
0
100
AcDbLine
 10
50.0
 20
195.0863
 30
0.0
 11
49.9798
 21
194.9321
 31
0.0
  0
LINE
  5
D86
330
1D
100
AcDbEntity
  8
0
100
AcDbLine
 10
50.0
 20
195.0863
 30
0.0
 11
49.9738
 21
195.2374
 31
0.0
  0
LINE
  5
D87
330
1D
100
AcDbEntity
  8
0
100
AcDbLine
 10
49.7218
 20
194.1263
 30
0.0
 11
49.5303
 21
193.5026
 31
0.0
  0
LINE
  5
D88
330
1D
100
AcDbEntity
  8
0
100
AcDbLine
 10
49.94323746132
 20
194.823181784887
 30
0.0
 11
49.7218
 21
194.1263
 31
0.0
  0
LINE
  5
D89
330
1D
100
AcDbEntity
  8
0
100
AcDbLine
 10
49.7954
 20
195.4817
 30
0.0
 11
49.6593
 21
195.5527
 31
0.0
  0
LINE
  5
D8A
330
1D
100
AcDbEntity
  8
0
100
AcDbLine
 10
49.9032
 20
195.3736
 30
0.0
 11
49.7954
 21
195.4817
 31
0.0
  0
LINE
  5
D8B
330
1D
100
AcDbEntity
  8
0
100
AcDbLine
 10
49.9738
 20
195.2374
 30
0.0
 11
49.9032
 21
195.3736
 31
0.0
  0
LINE
  5
D8C
330
1D
100
AcDbEntity
  8
0
100
AcDbLine
 10
49.94323746132
 20
194.823181784887
 30
0.0
 11
49.9798
 21
194.9321
 31
0.0
  0
LINE
  5
D8D
330
1D
100
AcDbEntity
  8
0
100
AcDbLine
 10
10.4929
 20
195.5798
 30
0.0
 11
49.5071
 21
195.5798
 31
0.0
  0
LINE
  5
D8E
330
1D
100
AcDbEntity
  8
0
100
AcDbLine
 10
265.5632
 20
158.5792
 30
0.0
 11
265.3182
 21
146.1562
 31
0.0
  0
LINE
  5
D8F
330
1D
100
AcDbEntity
  8
0
100
AcDbLine
 10
234.4368
 20
158.5792
 30
0.0
 11
234.6818
 21
146.1562
 31
0.0
  0
LINE
  5
D90
330
1D
100
AcDbEntity
  8
0
100
AcDbLine
 10
241.1878
 20
128.0013
 30
0.0
 11
243.2349
 21
128.0013
 31
0.0
  0
LINE
  5
D91
330
1D
100
AcDbEntity
  8
0
100
AcDbLine
 10
240.08
 20
118.0
 30
0.0
 11
244.88
 21
118.0
 31
0.0
  0
LINE
  5
D94
330
1D
100
AcDbEntity
  8
0
100
AcDbLine
 10
242.4118
 20
127.5
 30
0.0
 11
250.0
 21
127.5
 31
0.0
  0
LINE
  5
D95
330
1D
100
AcDbEntity
  8
0
100
AcDbLine
 10
242.5882
 20
128.0
 30
0.0
 11
250.0
 21
128.0
 31
0.0
  0
LINE
  5
D96
330
1D
100
AcDbEntity
  8
0
100
AcDbLine
 10
242.3235
 20
118.0
 30
0.0
 11
250.0
 21
118.0
 31
0.0
  0
LINE
  5
D99
330
1D
100
AcDbEntity
  8
0
100
AcDbLine
 10
264.16
 20
118.0
 30
0.0
 11
259.92
 21
118.0
 31
0.0
  0
LINE
  5
D9A
330
1D
100
AcDbEntity
  8
0
100
AcDbLine
 10
264.9118
 20
118.0
 30
0.0
 11
257.6765
 21
118.0
 31
0.0
  0
LINE
  5
D9B
330
1D
100
AcDbEntity
  8
0
100
AcDbLine
 10
264.2941
 20
128.0
 30
0.0
 11
257.4118
 21
128.0
 31
0.0
  0
LINE
  5
D9C
330
1D
100
AcDbEntity
  8
0
100
AcDbLine
 10
264.7353
 20
127.5
 30
0.0
 11
257.5882
 21
127.5
 31
0.0
  0
LINE
  5
D9D
330
1D
100
AcDbEntity
  8
0
100
AcDbLine
 10
262.0506
 20
128.0013
 30
0.0
 11
260.5921
 21
128.0013
 31
0.0
  0
LINE
  5
D9E
330
1D
100
AcDbEntity
  8
0
100
AcDbLine
 10
262.3832
 20
128.0013
 30
0.0
 11
261.0205
 21
128.0013
 31
0.0
  0
LINE
  5
D9F
330
1D
100
AcDbEntity
  8
0
100
AcDbLine
 10
265.1489
 20
138.0497
 30
0.0
 11
265.0814
 21
128.3016
 31
0.0
  0
LINE
  5
DA2
330
1D
100
AcDbEntity
  8
0
100
AcDbLine
 10
271.1765
 20
118.0
 30
0.0
 11
264.9118
 21
118.0
 31
0.0
  0
LINE
  5
DA3
330
1D
100
AcDbEntity
  8
0
100
AcDbLine
 10
271.1765
 20
118.0
 30
0.0
 11
270.0
 21
118.0
 31
0.0
  0
LINE
  5
DA4
330
1D
100
AcDbEntity
  8
0
100
AcDbLine
 10
270.9118
 20
127.5
 30
0.0
 11
264.7353
 21
127.5
 31
0.0
  0
LINE
  5
DA5
330
1D
100
AcDbEntity
  8
0
100
AcDbLine
 10
277.6176
 20
128.0
 30
0.0
 11
264.2941
 21
128.0
 31
0.0
  0
LINE
  5
DA6
330
1D
100
AcDbEntity
  8
0
100
AcDbLine
 10
280.0
 20
126.5
 30
0.0
 11
280.0
 21
118.0
 31
0.0
  0
LINE
  5
DA7
330
1D
100
AcDbEntity
  8
0
100
AcDbLine
 10
280.0
 20
126.5
 30
0.0
 11
279.5588
 21
127.5
 31
0.0
  0
LINE
  5
DAA
330
1D
100
AcDbEntity
  8
0
100
AcDbLine
 10
275.9412
 20
118.0
 30
0.0
 11
271.1765
 21
118.0
 31
0.0
  0
LINE
  5
DAB
330
1D
100
AcDbEntity
  8
0
100
AcDbLine
 10
275.5882
 20
127.5
 30
0.0
 11
270.9118
 21
127.5
 31
0.0
  0
LINE
  5
DAC
330
1D
100
AcDbEntity
  8
0
100
AcDbLine
 10
278.6765
 20
128.0
 30
0.0
 11
277.6176
 21
128.0
 31
0.0
  0
LINE
  5
DAD
330
1D
100
AcDbEntity
  8
0
100
AcDbLine
 10
278.5
 20
127.5
 30
0.0
 11
275.5882
 21
127.5
 31
0.0
  0
LINE
  5
DAE
330
1D
100
AcDbEntity
  8
0
100
AcDbLine
 10
279.5588
 20
127.5
 30
0.0
 11
278.5
 21
127.5
 31
0.0
  0
LINE
  5
DAF
330
1D
100
AcDbEntity
  8
0
100
AcDbLine
 10
279.5588
 20
127.5
 30
0.0
 11
278.6765
 21
128.0
 31
0.0
  0
LINE
  5
DB0
330
1D
100
AcDbEntity
  8
0
100
AcDbLine
 10
278.9412
 20
118.0
 30
0.0
 11
275.9412
 21
118.0
 31
0.0
  0
LINE
  5
DB1
330
1D
100
AcDbEntity
  8
0
100
AcDbLine
 10
280.0
 20
118.0
 30
0.0
 11
278.9412
 21
118.0
 31
0.0
  0
LINE
  5
DB2
330
1D
100
AcDbEntity
  8
0
100
AcDbLine
 10
280.0
 20
118.0
 30
0.0
 11
280.0
 21
126.5
 31
0.0
  0
LINE
  5
DB7
330
1D
100
AcDbEntity
  8
0
100
AcDbLine
 10
270.0
 20
118.0
 30
0.0
 11
269.28
 21
118.0
 31
0.0
  0
LINE
  5
DBA
330
1D
100
AcDbEntity
  8
0
100
AcDbLine
 10
269.28
 20
118.0
 30
0.0
 11
267.36
 21
118.0
 31
0.0
  0
LINE
  5
DBB
330
1D
100
AcDbEntity
  8
0
100
AcDbLine
 10
267.36
 20
118.0
 30
0.0
 11
264.16
 21
118.0
 31
0.0
  0
LINE
  5
DBD
330
1D
100
AcDbEntity
  8
0
100
AcDbLine
 10
264.6762
 20
128.0013
 30
0.0
 11
264.4071
 21
128.0013
 31
0.0
  0
LINE
  5
DBE
330
1D
100
AcDbEntity
  8
0
100
AcDbLine
 10
263.9505
 20
128.0013
 30
0.0
 11
263.3699
 21
128.0013
 31
0.0
  0
LINE
  5
DBF
330
1D
100
AcDbEntity
  8
0
100
AcDbLine
 10
263.8346
 20
128.0013
 30
0.0
 11
263.1422
 21
128.0013
 31
0.0
  0
LINE
  5
DC0
330
1D
100
AcDbEntity
  8
0
100
AcDbLine
 10
263.1422
 20
128.0013
 30
0.0
 11
262.0506
 21
128.0013
 31
0.0
  0
LINE
  5
DC1
330
1D
100
AcDbEntity
  8
0
100
AcDbLine
 10
263.3699
 20
128.0013
 30
0.0
 11
262.3832
 21
128.0013
 31
0.0
  0
LINE
  5
DC2
330
1D
100
AcDbEntity
  8
0
100
AcDbLine
 10
263.9233
 20
128.0013
 30
0.0
 11
262.8862
 21
128.0013
 31
0.0
  0
LINE
  5
DC3
330
1D
100
AcDbEntity
  8
0
100
AcDbLine
 10
264.5623
 20
128.0013
 30
0.0
 11
263.9233
 21
128.0013
 31
0.0
  0
LINE
  5
DC4
330
1D
100
AcDbEntity
  8
0
100
AcDbLine
 10
264.779
 20
128.0013
 30
0.0
 11
264.5623
 21
128.0013
 31
0.0
  0
LINE
  5
DC5
330
1D
100
AcDbEntity
  8
0
100
AcDbLine
 10
264.779
 20
128.0013
 30
0.0
 11
264.6762
 21
128.0013
 31
0.0
  0
LINE
  5
DC6
330
1D
100
AcDbEntity
  8
0
100
AcDbLine
 10
264.1067
 20
128.0013
 30
0.0
 11
263.9505
 21
128.0013
 31
0.0
  0
LINE
  5
DC7
330
1D
100
AcDbEntity
  8
0
100
AcDbLine
 10
264.1067
 20
128.0013
 30
0.0
 11
263.8346
 21
128.0013
 31
0.0
  0
LINE
  5
DC8
330
1D
100
AcDbEntity
  8
0
100
AcDbLine
 10
264.9302
 20
128.0413
 30
0.0
 11
264.779
 21
128.0013
 31
0.0
  0
LINE
  5
DC9
330
1D
100
AcDbEntity
  8
0
100
AcDbLine
 10
265.0814
 20
128.3016
 30
0.0
 11
265.0411
 21
128.1514
 31
0.0
  0
LINE
  5
DCA
330
1D
100
AcDbEntity
  8
0
100
AcDbLine
 10
265.0411
 20
128.1514
 30
0.0
 11
264.9302
 21
128.0413
 31
0.0
  0
LINE
  5
DCB
330
1D
100
AcDbEntity
  8
0
100
AcDbLine
 10
265.3182
 20
146.1562
 30
0.0
 11
265.1489
 21
138.0497
 31
0.0
  0
LINE
  5
DCE
330
1D
100
AcDbEntity
  8
0
100
AcDbLine
 10
255.12
 20
118.0
 30
0.0
 11
250.0
 21
118.0
 31
0.0
  0
LINE
  5
DCF
330
1D
100
AcDbEntity
  8
0
100
AcDbLine
 10
257.6765
 20
118.0
 30
0.0
 11
250.0
 21
118.0
 31
0.0
  0
LINE
  5
DD0
330
1D
100
AcDbEntity
  8
0
100
AcDbLine
 10
257.4118
 20
128.0
 30
0.0
 11
250.0
 21
128.0
 31
0.0
  0
LINE
  5
DD1
330
1D
100
AcDbEntity
  8
0
100
AcDbLine
 10
257.5882
 20
127.5
 30
0.0
 11
250.0
 21
127.5
 31
0.0
  0
LINE
  5
DD2
330
1D
100
AcDbEntity
  8
0
100
AcDbLine
 10
252.1217
 20
128.0013
 30
0.0
 11
250.0
 21
128.0013
 31
0.0
  0
LINE
  5
DD5
330
1D
100
AcDbEntity
  8
0
100
AcDbLine
 10
259.92
 20
118.0
 30
0.0
 11
255.12
 21
118.0
 31
0.0
  0
LINE
  5
DD6
330
1D
100
AcDbEntity
  8
0
100
AcDbLine
 10
258.8122
 20
128.0013
 30
0.0
 11
256.7651
 21
128.0013
 31
0.0
  0
LINE
  5
DD7
330
1D
100
AcDbEntity
  8
0
100
AcDbLine
 10
256.7651
 20
128.0013
 30
0.0
 11
254.5114
 21
128.0013
 31
0.0
  0
LINE
  5
DD8
330
1D
100
AcDbEntity
  8
0
100
AcDbLine
 10
256.7651
 20
128.0013
 30
0.0
 11
254.5124
 21
128.0013
 31
0.0
  0
LINE
  5
DD9
330
1D
100
AcDbEntity
  8
0
100
AcDbLine
 10
254.5114
 20
128.0013
 30
0.0
 11
252.1217
 21
128.0013
 31
0.0
  0
LINE
  5
DDA
330
1D
100
AcDbEntity
  8
0
100
AcDbLine
 10
254.5124
 20
128.0013
 30
0.0
 11
252.1217
 21
128.0013
 31
0.0
  0
LINE
  5
DDB
330
1D
100
AcDbEntity
  8
0
100
AcDbLine
 10
260.5921
 20
128.0013
 30
0.0
 11
258.8122
 21
128.0013
 31
0.0
  0
LINE
  5
DDC
330
1D
100
AcDbEntity
  8
0
100
AcDbLine
 10
245.4876
 20
128.0013
 30
0.0
 11
247.8783
 21
128.0013
 31
0.0
  0
LINE
  5
DDD
330
1D
100
AcDbEntity
  8
0
100
AcDbLine
 10
245.4886
 20
128.0013
 30
0.0
 11
247.8783
 21
128.0013
 31
0.0
  0
LINE
  5
DDE
330
1D
100
AcDbEntity
  8
0
100
AcDbLine
 10
243.2349
 20
128.0013
 30
0.0
 11
245.4876
 21
128.0013
 31
0.0
  0
LINE
  5
DDF
330
1D
100
AcDbEntity
  8
0
100
AcDbLine
 10
243.2349
 20
128.0013
 30
0.0
 11
245.4886
 21
128.0013
 31
0.0
  0
LINE
  5
DE0
330
1D
100
AcDbEntity
  8
0
100
AcDbLine
 10
247.8783
 20
128.0013
 30
0.0
 11
250.0
 21
128.0013
 31
0.0
  0
LINE
  5
DE1
330
1D
100
AcDbEntity
  8
0
100
AcDbLine
 10
244.88
 20
118.0
 30
0.0
 11
250.0
 21
118.0
 31
0.0
  0
LINE
  5
DE4
330
1D
100
AcDbEntity
  8
0
100
AcDbLine
 10
221.5
 20
127.5
 30
0.0
 11
224.4118
 21
127.5
 31
0.0
  0
LINE
  5
DE5
330
1D
100
AcDbEntity
  8
0
100
AcDbLine
 10
224.0588
 20
118.0
 30
0.0
 11
228.8235
 21
118.0
 31
0.0
  0
LINE
  5
DE6
330
1D
100
AcDbEntity
  8
0
100
AcDbLine
 10
222.3824
 20
128.0
 30
0.0
 11
235.7059
 21
128.0
 31
0.0
  0
LINE
  5
DE7
330
1D
100
AcDbEntity
  8
0
100
AcDbLine
 10
234.8511
 20
138.0497
 30
0.0
 11
234.9186
 21
128.3016
 31
0.0
  0
LINE
  5
DE8
330
1D
100
AcDbEntity
  8
0
100
AcDbLine
 10
232.64
 20
118.0
 30
0.0
 11
235.84
 21
118.0
 31
0.0
  0
LINE
  5
DEB
330
1D
100
AcDbEntity
  8
0
100
AcDbLine
 10
229.0882
 20
127.5
 30
0.0
 11
235.2647
 21
127.5
 31
0.0
  0
LINE
  5
DEC
330
1D
100
AcDbEntity
  8
0
100
AcDbLine
 10
228.8235
 20
118.0
 30
0.0
 11
235.0882
 21
118.0
 31
0.0
  0
LINE
  5
DEE
330
1D
100
AcDbEntity
  8
0
100
AcDbLine
 10
235.0882
 20
118.0
 30
0.0
 11
242.3235
 21
118.0
 31
0.0
  0
LINE
  5
DEF
330
1D
100
AcDbEntity
  8
0
100
AcDbLine
 10
235.84
 20
118.0
 30
0.0
 11
240.08
 21
118.0
 31
0.0
  0
LINE
  5
DF2
330
1D
100
AcDbEntity
  8
0
100
AcDbLine
 10
239.4079
 20
128.0013
 30
0.0
 11
241.1878
 21
128.0013
 31
0.0
  0
LINE
  5
DF3
330
1D
100
AcDbEntity
  8
0
100
AcDbLine
 10
234.9589
 20
128.1514
 30
0.0
 11
235.0698
 21
128.0413
 31
0.0
  0
LINE
  5
DF4
330
1D
100
AcDbEntity
  8
0
100
AcDbLine
 10
234.9186
 20
128.3016
 30
0.0
 11
234.9589
 21
128.1514
 31
0.0
  0
LINE
  5
DF5
330
1D
100
AcDbEntity
  8
0
100
AcDbLine
 10
235.0698
 20
128.0413
 30
0.0
 11
235.221
 21
128.0013
 31
0.0
  0
LINE
  5
DF6
330
1D
100
AcDbEntity
  8
0
100
AcDbLine
 10
235.8933
 20
128.0013
 30
0.0
 11
236.1654
 21
128.0013
 31
0.0
  0
LINE
  5
DF7
330
1D
100
AcDbEntity
  8
0
100
AcDbLine
 10
235.8933
 20
128.0013
 30
0.0
 11
236.0495
 21
128.0013
 31
0.0
  0
LINE
  5
DF8
330
1D
100
AcDbEntity
  8
0
100
AcDbLine
 10
235.221
 20
128.0013
 30
0.0
 11
235.3238
 21
128.0013
 31
0.0
  0
LINE
  5
DF9
330
1D
100
AcDbEntity
  8
0
100
AcDbLine
 10
235.221
 20
128.0013
 30
0.0
 11
235.4377
 21
128.0013
 31
0.0
  0
LINE
  5
DFA
330
1D
100
AcDbEntity
  8
0
100
AcDbLine
 10
235.4377
 20
128.0013
 30
0.0
 11
236.0767
 21
128.0013
 31
0.0
  0
LINE
  5
DFB
330
1D
100
AcDbEntity
  8
0
100
AcDbLine
 10
236.0767
 20
128.0013
 30
0.0
 11
237.1138
 21
128.0013
 31
0.0
  0
LINE
  5
DFC
330
1D
100
AcDbEntity
  8
0
100
AcDbLine
 10
236.6301
 20
128.0013
 30
0.0
 11
237.6168
 21
128.0013
 31
0.0
  0
LINE
  5
DFD
330
1D
100
AcDbEntity
  8
0
100
AcDbLine
 10
236.8578
 20
128.0013
 30
0.0
 11
237.9494
 21
128.0013
 31
0.0
  0
LINE
  5
DFE
330
1D
100
AcDbEntity
  8
0
100
AcDbLine
 10
236.1654
 20
128.0013
 30
0.0
 11
236.8578
 21
128.0013
 31
0.0
  0
LINE
  5
DFF
330
1D
100
AcDbEntity
  8
0
100
AcDbLine
 10
236.0495
 20
128.0013
 30
0.0
 11
236.6301
 21
128.0013
 31
0.0
  0
LINE
  5
E00
330
1D
100
AcDbEntity
  8
0
100
AcDbLine
 10
235.3238
 20
128.0013
 30
0.0
 11
235.5929
 21
128.0013
 31
0.0
  0
LINE
  5
E01
330
1D
100
AcDbEntity
  8
0
100
AcDbLine
 10
237.6168
 20
128.0013
 30
0.0
 11
238.9795
 21
128.0013
 31
0.0
  0
LINE
  5
E02
330
1D
100
AcDbEntity
  8
0
100
AcDbLine
 10
237.9494
 20
128.0013
 30
0.0
 11
239.4079
 21
128.0013
 31
0.0
  0
LINE
  5
E03
330
1D
100
AcDbEntity
  8
0
100
AcDbLine
 10
235.2647
 20
127.5
 30
0.0
 11
242.4118
 21
127.5
 31
0.0
  0
LINE
  5
E04
330
1D
100
AcDbEntity
  8
0
100
AcDbLine
 10
235.7059
 20
128.0
 30
0.0
 11
242.5882
 21
128.0
 31
0.0
  0
LINE
  5
E05
330
1D
100
AcDbEntity
  8
0
100
AcDbLine
 10
230.72
 20
118.0
 30
0.0
 11
232.64
 21
118.0
 31
0.0
  0
LINE
  5
E06
330
1D
100
AcDbEntity
  8
0
100
AcDbLine
 10
230.0
 20
118.0
 30
0.0
 11
230.72
 21
118.0
 31
0.0
  0
LINE
  5
E0B
330
1D
100
AcDbEntity
  8
0
100
AcDbLine
 10
224.4118
 20
127.5
 30
0.0
 11
229.0882
 21
127.5
 31
0.0
  0
LINE
  5
E0E
330
1D
100
AcDbEntity
  8
0
100
AcDbLine
 10
228.8235
 20
118.0
 30
0.0
 11
230.0
 21
118.0
 31
0.0
  0
LINE
  5
E11
330
1D
100
AcDbEntity
  8
0
100
AcDbLine
 10
234.6818
 20
146.1562
 30
0.0
 11
234.8511
 21
138.0497
 31
0.0
  0
LINE
  5
E12
330
1D
100
AcDbEntity
  8
0
100
AcDbLine
 10
220.0
 20
118.0
 30
0.0
 11
220.0
 21
126.5
 31
0.0
  0
LINE
  5
E13
330
1D
100
AcDbEntity
  8
0
100
AcDbLine
 10
220.0
 20
118.0
 30
0.0
 11
221.0588
 21
118.0
 31
0.0
  0
LINE
  5
E14
330
1D
100
AcDbEntity
  8
0
100
AcDbLine
 10
221.0588
 20
118.0
 30
0.0
 11
224.0588
 21
118.0
 31
0.0
  0
LINE
  5
E15
330
1D
100
AcDbEntity
  8
0
100
AcDbLine
 10
220.4412
 20
127.5
 30
0.0
 11
221.3235
 21
128.0
 31
0.0
  0
LINE
  5
E16
330
1D
100
AcDbEntity
  8
0
100
AcDbLine
 10
220.4412
 20
127.5
 30
0.0
 11
221.5
 21
127.5
 31
0.0
  0
LINE
  5
E17
330
1D
100
AcDbEntity
  8
0
100
AcDbLine
 10
221.3235
 20
128.0
 30
0.0
 11
222.3824
 21
128.0
 31
0.0
  0
LINE
  5
E18
330
1D
100
AcDbEntity
  8
0
100
AcDbLine
 10
220.0
 20
126.5
 30
0.0
 11
220.4412
 21
127.5
 31
0.0
  0
LINE
  5
E19
330
1D
100
AcDbEntity
  8
0
100
AcDbLine
 10
220.0
 20
126.5
 30
0.0
 11
220.0
 21
118.0
 31
0.0
  0
LINE
  5
E1A
330
1D
100
AcDbEntity
  8
0
100
AcDbLine
 10
269.5071
 20
195.5798
 30
0.0
 11
230.4929
 21
195.5798
 31
0.0
  0
LINE
  5
E1B
330
1D
100
AcDbEntity
  8
0
100
AcDbLine
 10
268.116890769177
 20
188.116453023147
 30
0.0
 11
267.6566
 21
185.9057
 31
0.0
  0
LINE
  5
E1C
330
1D
100
AcDbEntity
  8
0
100
AcDbLine
 10
265.8061
 20
168.8669
 30
0.0
 11
265.6761
 21
164.8947
 31
0.0
  0
LINE
  5
E1D
330
1D
100
AcDbEntity
  8
0
100
AcDbLine
 10
266.3242
 20
176.59
 30
0.0
 11
265.9855
 21
172.3175
 31
0.0
  0
LINE
  5
E1E
330
1D
100
AcDbEntity
  8
0
100
AcDbLine
 10
265.6761
 20
164.8947
 30
0.0
 11
265.5632
 21
158.5792
 31
0.0
  0
LINE
  5
E1F
330
1D
100
AcDbEntity
  8
0
100
AcDbLine
 10
267.41185854885
 20
184.591608207816
 30
0.0
 11
266.952560476608
 21
181.759416342313
 31
0.0
  0
LINE
  5
E20
330
1D
100
AcDbEntity
  8
0
100
AcDbLine
 10
267.6163
 20
185.7015
 30
0.0
 11
267.3976
 21
184.5142
 31
0.0
  0
LINE
  5
E21
330
1D
100
AcDbEntity
  8
0
100
AcDbLine
 10
267.6566
 20
185.9057
 30
0.0
 11
267.6163
 21
185.7015
 31
0.0
  0
LINE
  5
E22
330
1D
100
AcDbEntity
  8
0
100
AcDbLine
 10
266.3242
 20
176.59
 30
0.0
 11
266.952560476608
 21
181.759416342313
 31
0.0
  0
LINE
  5
E23
330
1D
100
AcDbEntity
  8
0
100
AcDbLine
 10
265.8061
 20
168.8669
 30
0.0
 11
265.9855
 21
172.3175
 31
0.0
  0
LINE
  5
E24
330
1D
100
AcDbEntity
  8
0
100
AcDbLine
 10
269.6593
 20
195.5527
 30
0.0
 11
269.5071
 21
195.5798
 31
0.0
  0
LINE
  5
E25
330
1D
100
AcDbEntity
  8
0
100
AcDbLine
 10
268.5345
 20
189.9099
 30
0.0
 11
269.3217
 21
192.8049
 31
0.0
  0
LINE
  5
E26
330
1D
100
AcDbEntity
  8
0
100
AcDbLine
 10
268.5345
 20
189.9099
 30
0.0
 11
268.500255312289
 21
189.766031052954
 31
0.0
  0
LINE
  5
E27
330
1D
100
AcDbEntity
  8
0
100
AcDbLine
 10
268.116890769177
 20
188.116453023147
 30
0.0
 11
268.500255312289
 21
189.766031052954
 31
0.0
  0
LINE
  5
E28
330
1D
100
AcDbEntity
  8
0
100
AcDbLine
 10
268.500255312289
 20
189.766031052954
 30
0.0
 11
268.5345
 21
189.9099
 31
0.0
  0
LINE
  5
E29
330
1D
100
AcDbEntity
  8
0
100
AcDbLine
 10
269.5303
 20
193.5026
 30
0.0
 11
269.3217
 21
192.8049
 31
0.0
  0
LINE
  5
E2A
330
1D
100
AcDbEntity
  8
0
100
AcDbLine
 10
270.0
 20
195.0863
 30
0.0
 11
269.9798
 21
194.9321
 31
0.0
  0
LINE
  5
E2B
330
1D
100
AcDbEntity
  8
0
100
AcDbLine
 10
270.0
 20
195.0863
 30
0.0
 11
269.9738
 21
195.2374
 31
0.0
  0
LINE
  5
E2C
330
1D
100
AcDbEntity
  8
0
100
AcDbLine
 10
269.7218
 20
194.1263
 30
0.0
 11
269.5303
 21
193.5026
 31
0.0
  0
LINE
  5
E2D
330
1D
100
AcDbEntity
  8
0
100
AcDbLine
 10
269.94323746132
 20
194.823181784887
 30
0.0
 11
269.7218
 21
194.1263
 31
0.0
  0
LINE
  5
E2E
330
1D
100
AcDbEntity
  8
0
100
AcDbLine
 10
269.7954
 20
195.4817
 30
0.0
 11
269.6593
 21
195.5527
 31
0.0
  0
LINE
  5
E2F
330
1D
100
AcDbEntity
  8
0
100
AcDbLine
 10
269.9032
 20
195.3736
 30
0.0
 11
269.7954
 21
195.4817
 31
0.0
  0
LINE
  5
E30
330
1D
100
AcDbEntity
  8
0
100
AcDbLine
 10
269.9738
 20
195.2374
 30
0.0
 11
269.9032
 21
195.3736
 31
0.0
  0
LINE
  5
E31
330
1D
100
AcDbEntity
  8
0
100
AcDbLine
 10
269.94323746132
 20
194.823181784887
 30
0.0
 11
269.9798
 21
194.9321
 31
0.0
  0
LINE
  5
E32
330
1D
100
AcDbEntity
  8
0
100
AcDbLine
 10
231.883109230823
 20
188.116453023147
 30
0.0
 11
232.3434
 21
185.9057
 31
0.0
  0
LINE
  5
E33
330
1D
100
AcDbEntity
  8
0
100
AcDbLine
 10
234.1939
 20
168.8669
 30
0.0
 11
234.0145
 21
172.3175
 31
0.0
  0
LINE
  5
E34
330
1D
100
AcDbEntity
  8
0
100
AcDbLine
 10
233.6758
 20
176.59
 30
0.0
 11
233.047439523392
 21
181.759416342313
 31
0.0
  0
LINE
  5
E35
330
1D
100
AcDbEntity
  8
0
100
AcDbLine
 10
232.3434
 20
185.9057
 30
0.0
 11
232.3837
 21
185.7015
 31
0.0
  0
LINE
  5
E36
330
1D
100
AcDbEntity
  8
0
100
AcDbLine
 10
232.3837
 20
185.7015
 30
0.0
 11
232.6024
 21
184.5142
 31
0.0
  0
LINE
  5
E37
330
1D
100
AcDbEntity
  8
0
100
AcDbLine
 10
232.58814145115
 20
184.591608207816
 30
0.0
 11
233.047439523392
 21
181.759416342313
 31
0.0
  0
LINE
  5
E38
330
1D
100
AcDbEntity
  8
0
100
AcDbLine
 10
234.3239
 20
164.8947
 30
0.0
 11
234.4368
 21
158.5792
 31
0.0
  0
LINE
  5
E39
330
1D
100
AcDbEntity
  8
0
100
AcDbLine
 10
233.6758
 20
176.59
 30
0.0
 11
234.0145
 21
172.3175
 31
0.0
  0
LINE
  5
E3A
330
1D
100
AcDbEntity
  8
0
100
AcDbLine
 10
234.1939
 20
168.8669
 30
0.0
 11
234.3239
 21
164.8947
 31
0.0
  0
LINE
  5
E3B
330
1D
100
AcDbEntity
  8
0
100
AcDbLine
 10
230.05676253868
 20
194.823181784887
 30
0.0
 11
230.0202
 21
194.9321
 31
0.0
  0
LINE
  5
E3C
330
1D
100
AcDbEntity
  8
0
100
AcDbLine
 10
230.0262
 20
195.2374
 30
0.0
 11
230.0968
 21
195.3736
 31
0.0
  0
LINE
  5
E3D
330
1D
100
AcDbEntity
  8
0
100
AcDbLine
 10
230.0968
 20
195.3736
 30
0.0
 11
230.2046
 21
195.4817
 31
0.0
  0
LINE
  5
E3E
330
1D
100
AcDbEntity
  8
0
100
AcDbLine
 10
230.2046
 20
195.4817
 30
0.0
 11
230.3407
 21
195.5527
 31
0.0
  0
LINE
  5
E3F
330
1D
100
AcDbEntity
  8
0
100
AcDbLine
 10
230.05676253868
 20
194.823181784887
 30
0.0
 11
230.2782
 21
194.1263
 31
0.0
  0
LINE
  5
E40
330
1D
100
AcDbEntity
  8
0
100
AcDbLine
 10
230.2782
 20
194.1263
 30
0.0
 11
230.4697
 21
193.5026
 31
0.0
  0
LINE
  5
E41
330
1D
100
AcDbEntity
  8
0
100
AcDbLine
 10
230.0
 20
195.0863
 30
0.0
 11
230.0262
 21
195.2374
 31
0.0
  0
LINE
  5
E42
330
1D
100
AcDbEntity
  8
0
100
AcDbLine
 10
230.0
 20
195.0863
 30
0.0
 11
230.0202
 21
194.9321
 31
0.0
  0
LINE
  5
E43
330
1D
100
AcDbEntity
  8
0
100
AcDbLine
 10
230.4697
 20
193.5026
 30
0.0
 11
230.6783
 21
192.8049
 31
0.0
  0
LINE
  5
E44
330
1D
100
AcDbEntity
  8
0
100
AcDbLine
 10
231.499744687711
 20
189.766031052954
 30
0.0
 11
231.4655
 21
189.9099
 31
0.0
  0
LINE
  5
E45
330
1D
100
AcDbEntity
  8
0
100
AcDbLine
 10
231.883109230823
 20
188.116453023147
 30
0.0
 11
231.499744687711
 21
189.766031052954
 31
0.0
  0
LINE
  5
E46
330
1D
100
AcDbEntity
  8
0
100
AcDbLine
 10
231.4655
 20
189.9099
 30
0.0
 11
231.499744687711
 21
189.766031052954
 31
0.0
  0
LINE
  5
E47
330
1D
100
AcDbEntity
  8
0
100
AcDbLine
 10
231.4655
 20
189.9099
 30
0.0
 11
230.6783
 21
192.8049
 31
0.0
  0
LINE
  5
E48
330
1D
100
AcDbEntity
  8
0
100
AcDbLine
 10
230.3407
 20
195.5527
 30
0.0
 11
230.4929
 21
195.5798
 31
0.0
  0
LINE
  5
E49
330
1D
100
AcDbEntity
  8
0
100
AcDbLine
 10
111.9067
 20
285.967
 30
0.0
 11
112.775031224873
 21
283.783830433445
 31
0.0
  0
LINE
  5
E4C
330
1D
100
AcDbEntity
  8
0
100
AcDbLine
 10
114.8789
 20
264.944
 30
0.0
 11
114.6576
 21
269.492
 31
0.0
  0
LINE
  5
E4D
330
1D
100
AcDbEntity
  8
0
100
AcDbLine
 10
140.275
 20
264.316
 30
0.0
 11
140.0
 21
264.317
 31
0.0
  0
LINE
  5
E4E
330
1D
100
AcDbEntity
  8
0
100
AcDbLine
 10
140.964
 20
264.662
 30
0.0
 11
140.0
 21
264.652
 31
0.0
  0
LINE
  5
E4F
330
1D
100
AcDbEntity
  8
0
100
AcDbLine
 10
140.896
 20
264.71
 30
0.0
 11
140.0
 21
264.702
 31
0.0
  0
LINE
  5
E50
330
1D
100
AcDbEntity
  8
0
100
AcDbLine
 10
140.383
 20
265.051
 30
0.0
 11
140.0
 21
265.052
 31
0.0
  0
LINE
  5
E51
330
1D
100
AcDbEntity
  8
0
100
AcDbLine
 10
140.449
 20
267.917
 30
0.0
 11
140.0
 21
267.917
 31
0.0
  0
LINE
  5
E52
330
1D
100
AcDbEntity
  8
0
100
AcDbLine
 10
140.0
 20
264.317
 30
0.0
 11
139.725
 21
264.316
 31
0.0
  0
LINE
  5
E53
330
1D
100
AcDbEntity
  8
0
100
AcDbLine
 10
140.383
 20
269.402
 30
0.0
 11
140.0
 21
269.401
 31
0.0
  0
LINE
  5
E54
330
1D
100
AcDbEntity
  8
0
100
AcDbLine
 10
140.964
 20
269.692
 30
0.0
 11
140.0
 21
269.702
 31
0.0
  0
LINE
  5
E55
330
1D
100
AcDbEntity
  8
0
100
AcDbLine
 10
141.881
 20
274.771
 30
0.0
 11
140.0
 21
274.832
 31
0.0
  0
LINE
  5
E56
330
1D
100
AcDbEntity
  8
0
100
AcDbLine
 10
144.499
 20
297.998
 30
0.0
 11
140.0
 21
298.0
 31
0.0
  0
LINE
  5
E57
330
1D
100
AcDbEntity
  8
0
100
AcDbLine
 10
165.1211
 20
264.944
 30
0.0
 11
163.9237
 21
245.331
 31
0.0
  0
LINE
  5
E58
330
1D
100
AcDbEntity
  8
0
100
AcDbLine
 10
163.9237
 20
245.331
 30
0.0
 11
163.261483290637
 21
228.227935250725
 31
0.0
  0
LINE
  5
E59
330
1D
100
AcDbEntity
  8
0
100
AcDbLine
 10
163.261483290637
 20
228.227935250725
 30
0.0
 11
162.829860722212
 21
211.608061743723
 31
0.0
  0
LINE
  5
E5A
330
1D
100
AcDbEntity
  8
0
100
AcDbLine
 10
163.261483290637
 20
228.227935250725
 30
0.0
 11
162.829860722212
 21
211.608061743723
 31
0.0
  0
LINE
  5
E5B
330
1D
100
AcDbEntity
  8
0
100
AcDbLine
 10
169.668
 20
290.962
 30
0.0
 11
168.0933
 21
285.967
 31
0.0
  0
LINE
  5
E5C
330
1D
100
AcDbEntity
  8
0
100
AcDbLine
 10
166.429917518443
 20
278.65737243745
 30
0.0
 11
165.3424
 21
269.492
 31
0.0
  0
LINE
  5
E5D
330
1D
100
AcDbEntity
  8
0
100
AcDbLine
 10
167.224968775127
 20
283.783830433445
 30
0.0
 11
166.429917518443
 21
278.65737243745
 31
0.0
  0
LINE
  5
E5E
330
1D
100
AcDbEntity
  8
0
100
AcDbLine
 10
168.0933
 20
285.967
 30
0.0
 11
167.224968775127
 21
283.783830433445
 31
0.0
  0
LINE
  5
E5F
330
1D
100
AcDbEntity
  8
0
100
AcDbLine
 10
165.1211
 20
264.944
 30
0.0
 11
165.3424
 21
269.492
 31
0.0
  0
LINE
  5
E60
330
1D
100
AcDbEntity
  8
0
100
AcDbLine
 10
151.3667
 20
272.352
 30
0.0
 11
150.3837
 21
272.852
 31
0.0
  0
LINE
  5
E61
330
1D
100
AcDbEntity
  8
0
100
AcDbLine
 10
150.1718
 20
266.94
 30
0.0
 11
148.748
 21
266.94
 31
0.0
  0
LINE
  5
E62
330
1D
100
AcDbEntity
  8
0
100
AcDbLine
 10
150.135979527559
 20
267.513
 30
0.0
 11
148.748
 21
267.513
 31
0.0
  0
LINE
  5
E63
330
1D
100
AcDbEntity
  8
0
100
AcDbLine
 10
148.785
 20
265.93
 30
0.0
 11
148.178
 21
265.707
 31
0.0
  0
LINE
  5
E64
330
1D
100
AcDbEntity
  8
0
100
AcDbLine
 10
149.101
 20
265.376
 30
0.0
 11
148.346
 21
265.172
 31
0.0
  0
LINE
  5
E65
330
1D
100
AcDbEntity
  8
0
100
AcDbLine
 10
149.161
 20
266.049
 30
0.0
 11
148.651
 21
265.827
 31
0.0
  0
LINE
  5
E66
330
1D
100
AcDbEntity
  8
0
100
AcDbLine
 10
149.161
 20
268.305
 30
0.0
 11
148.651
 21
268.528
 31
0.0
  0
LINE
  5
E67
330
1D
100
AcDbEntity
  8
0
100
AcDbLine
 10
152.0
 20
267.502
 30
0.0
 11
152.0
 21
271.894812046134
 31
0.0
  0
LINE
  5
E68
330
1D
100
AcDbEntity
  8
0
100
AcDbLine
 10
151.9932
 20
267.665388004896
 30
0.0
 11
151.9932
 21
271.899721059376
 31
0.0
  0
LINE
  5
E69
330
1D
100
AcDbEntity
  8
0
100
AcDbLine
 10
152.0
 20
267.642
 30
0.0
 11
152.0
 21
271.894812046134
 31
0.0
  0
LINE
  5
E6A
330
1D
100
AcDbEntity
  8
0
100
AcDbLine
 10
151.9932
 20
271.899721059376
 30
0.0
 11
151.9932
 21
267.665388004896
 31
0.0
  0
LINE
  5
E6B
330
1D
100
AcDbEntity
  8
0
100
AcDbLine
 10
152.0
 20
271.894812046134
 30
0.0
 11
152.0
 21
267.642
 31
0.0
  0
LINE
  5
E6C
330
1D
100
AcDbEntity
  8
0
100
AcDbLine
 10
152.0
 20
271.894812046134
 30
0.0
 11
152.0
 21
267.502
 31
0.0
  0
LINE
  5
E6D
330
1D
100
AcDbEntity
  8
0
100
AcDbLine
 10
149.576
 20
268.071
 30
0.0
 11
149.161
 21
268.305
 31
0.0
  0
LINE
  5
E6E
330
1D
100
AcDbEntity
  8
0
100
AcDbLine
 10
151.2413
 20
266.344
 30
0.0
 11
150.8488
 21
266.084
 31
0.0
  0
LINE
  5
E6F
330
1D
100
AcDbEntity
  8
0
100
AcDbLine
 10
152.0
 20
267.502
 30
0.0
 11
151.9455
 21
267.305
 31
0.0
  0
LINE
  5
E70
330
1D
100
AcDbEntity
  8
0
100
AcDbLine
 10
151.8648
 20
267.025
 30
0.0
 11
151.6761
 21
266.748
 31
0.0
  0
LINE
  5
E71
330
1D
100
AcDbEntity
  8
0
100
AcDbLine
 10
151.6761
 20
266.748
 30
0.0
 11
151.5319
 21
266.612
 31
0.0
  0
LINE
  5
E72
330
1D
100
AcDbEntity
  8
0
100
AcDbLine
 10
151.9455
 20
267.305
 30
0.0
 11
151.8648
 21
267.025
 31
0.0
  0
LINE
  5
E73
330
1D
100
AcDbEntity
  8
0
100
AcDbLine
 10
151.5319
 20
266.612
 30
0.0
 11
151.2413
 21
266.344
 31
0.0
  0
LINE
  5
E74
330
1D
100
AcDbEntity
  8
0
100
AcDbLine
 10
152.0
 20
267.642
 30
0.0
 11
151.9932
 21
267.572
 31
0.0
  0
LINE
  5
E75
330
1D
100
AcDbEntity
  8
0
100
AcDbLine
 10
150.8488
 20
266.084
 30
0.0
 11
150.3585
 21
265.836
 31
0.0
  0
LINE
  5
E76
330
1D
100
AcDbEntity
  8
0
100
AcDbLine
 10
150.3585
 20
265.836
 30
0.0
 11
149.774
 21
265.599
 31
0.0
  0
LINE
  5
E77
330
1D
100
AcDbEntity
  8
0
100
AcDbLine
 10
150.1718
 20
266.94
 30
0.0
 11
149.99
 21
266.675
 31
0.0
  0
LINE
  5
E78
330
1D
100
AcDbEntity
  8
0
100
AcDbLine
 10
150.1718
 20
266.94
 30
0.0
 11
150.1718
 21
267.431764285714
 31
0.0
  0
LINE
  5
E79
330
1D
100
AcDbEntity
  8
0
100
AcDbLine
 10
150.2202
 20
267.033
 30
0.0
 11
150.1082
 21
266.778
 31
0.0
  0
LINE
  5
E7A
330
1D
100
AcDbEntity
  8
0
100
AcDbLine
 10
150.1082
 20
266.778
 30
0.0
 11
149.893
 21
266.527
 31
0.0
  0
LINE
  5
E7B
330
1D
100
AcDbEntity
  8
0
100
AcDbLine
 10
150.2242
 20
267.177
 30
0.0
 11
150.2202
 21
267.322
 31
0.0
  0
LINE
  5
E7C
330
1D
100
AcDbEntity
  8
0
100
AcDbLine
 10
150.2242
 20
267.177
 30
0.0
 11
150.2202
 21
267.033
 31
0.0
  0
LINE
  5
E7D
330
1D
100
AcDbEntity
  8
0
100
AcDbLine
 10
150.1718
 20
267.431764285714
 30
0.0
 11
150.1718
 21
266.94
 31
0.0
  0
LINE
  5
E7E
330
1D
100
AcDbEntity
  8
0
100
AcDbLine
 10
150.2202
 20
267.322
 30
0.0
 11
150.1082
 21
267.576
 31
0.0
  0
LINE
  5
E7F
330
1D
100
AcDbEntity
  8
0
100
AcDbLine
 10
149.99
 20
266.675
 30
0.0
 11
149.698
 21
266.417
 31
0.0
  0
LINE
  5
E80
330
1D
100
AcDbEntity
  8
0
100
AcDbLine
 10
149.893
 20
266.527
 30
0.0
 11
149.576
 21
266.284
 31
0.0
  0
LINE
  5
E81
330
1D
100
AcDbEntity
  8
0
100
AcDbLine
 10
149.698
 20
266.417
 30
0.0
 11
149.294
 21
266.167
 31
0.0
  0
LINE
  5
E82
330
1D
100
AcDbEntity
  8
0
100
AcDbLine
 10
149.576
 20
266.284
 30
0.0
 11
149.161
 21
266.049
 31
0.0
  0
LINE
  5
E83
330
1D
100
AcDbEntity
  8
0
100
AcDbLine
 10
149.774
 20
265.599
 30
0.0
 11
149.101
 21
265.376
 31
0.0
  0
LINE
  5
E84
330
1D
100
AcDbEntity
  8
0
100
AcDbLine
 10
150.1082
 20
267.576
 30
0.0
 11
149.893
 21
267.826
 31
0.0
  0
LINE
  5
E85
330
1D
100
AcDbEntity
  8
0
100
AcDbLine
 10
149.893
 20
267.826
 30
0.0
 11
149.576
 21
268.071
 31
0.0
  0
LINE
  5
E86
330
1D
100
AcDbEntity
  8
0
100
AcDbLine
 10
149.294
 20
266.167
 30
0.0
 11
148.785
 21
265.93
 31
0.0
  0
LINE
  5
E87
330
1D
100
AcDbEntity
  8
0
100
AcDbLine
 10
152.069
 20
271.845
 30
0.0
 11
151.3667
 21
272.352
 31
0.0
  0
LINE
  5
E88
330
1D
100
AcDbEntity
  8
0
100
AcDbLine
 10
152.3598
 20
270.274
 30
0.0
 11
152.0
 21
269.906671279109
 31
0.0
  0
LINE
  5
E89
330
1D
100
AcDbEntity
  8
0
100
AcDbLine
 10
152.4745
 20
271.332
 30
0.0
 11
152.069
 21
271.845
 31
0.0
  0
LINE
  5
E8A
330
1D
100
AcDbEntity
  8
0
100
AcDbLine
 10
152.5711
 20
270.81
 30
0.0
 11
152.4745
 21
271.332
 31
0.0
  0
LINE
  5
E8B
330
1D
100
AcDbEntity
  8
0
100
AcDbLine
 10
152.5711
 20
270.81
 30
0.0
 11
152.3598
 21
270.274
 31
0.0
  0
LINE
  5
E8C
330
1D
100
AcDbEntity
  8
0
100
AcDbLine
 10
145.013
 20
265.434
 30
0.0
 11
144.229
 21
265.315
 31
0.0
  0
LINE
  5
E8D
330
1D
100
AcDbEntity
  8
0
100
AcDbLine
 10
145.07
 20
268.309
 30
0.0
 11
144.229
 21
268.18
 31
0.0
  0
LINE
  5
E8E
330
1D
100
AcDbEntity
  8
0
100
AcDbLine
 10
144.906
 20
265.01
 30
0.0
 11
143.956
 21
264.897
 31
0.0
  0
LINE
  5
E8F
330
1D
100
AcDbEntity
  8
0
100
AcDbLine
 10
144.906
 20
264.96
 30
0.0
 11
143.972
 21
264.849
 31
0.0
  0
LINE
  5
E90
330
1D
100
AcDbEntity
  8
0
100
AcDbLine
 10
144.566
 20
264.546
 30
0.0
 11
143.532
 21
264.451
 31
0.0
  0
LINE
  5
E91
330
1D
100
AcDbEntity
  8
0
100
AcDbLine
 10
145.013
 20
269.018
 30
0.0
 11
144.229
 21
269.137
 31
0.0
  0
LINE
  5
E92
330
1D
100
AcDbEntity
  8
0
100
AcDbLine
 10
144.906
 20
269.394
 30
0.0
 11
143.972
 21
269.505
 31
0.0
  0
LINE
  5
E93
330
1D
100
AcDbEntity
  8
0
100
AcDbLine
 10
148.318
 20
267.954
 30
0.0
 11
147.966
 21
268.164
 31
0.0
  0
LINE
  5
E94
330
1D
100
AcDbEntity
  8
0
100
AcDbLine
 10
146.693
 20
265.315
 30
0.0
 11
145.832
 21
265.151
 31
0.0
  0
LINE
  5
E95
330
1D
100
AcDbEntity
  8
0
100
AcDbLine
 10
147.006
 20
265.902
 30
0.0
 11
146.41
 21
265.73
 31
0.0
  0
LINE
  5
E96
330
1D
100
AcDbEntity
  8
0
100
AcDbLine
 10
146.615
 20
265.249
 30
0.0
 11
145.79
 21
265.094
 31
0.0
  0
LINE
  5
E97
330
1D
100
AcDbEntity
  8
0
100
AcDbLine
 10
146.615
 20
264.819
 30
0.0
 11
145.656
 21
264.675
 31
0.0
  0
LINE
  5
E98
330
1D
100
AcDbEntity
  8
0
100
AcDbLine
 10
148.748
 20
266.94
 30
0.0
 11
148.748
 21
267.513
 31
0.0
  0
LINE
  5
E99
330
1D
100
AcDbEntity
  8
0
100
AcDbLine
 10
148.748
 20
266.94
 30
0.0
 11
148.58
 21
266.717
 31
0.0
  0
LINE
  5
E9A
330
1D
100
AcDbEntity
  8
0
100
AcDbLine
 10
148.651
 20
265.827
 30
0.0
 11
148.052
 21
265.617
 31
0.0
  0
LINE
  5
E9B
330
1D
100
AcDbEntity
  8
0
100
AcDbLine
 10
148.748
 20
267.513
 30
0.0
 11
148.58
 21
267.736
 31
0.0
  0
LINE
  5
E9C
330
1D
100
AcDbEntity
  8
0
100
AcDbLine
 10
148.748
 20
267.513
 30
0.0
 11
148.748
 21
266.94
 31
0.0
  0
LINE
  5
E9D
330
1D
100
AcDbEntity
  8
0
100
AcDbLine
 10
148.58
 20
266.717
 30
0.0
 11
148.318
 21
266.499
 31
0.0
  0
LINE
  5
E9E
330
1D
100
AcDbEntity
  8
0
100
AcDbLine
 10
148.318
 20
266.499
 30
0.0
 11
147.966
 21
266.29
 31
0.0
  0
LINE
  5
E9F
330
1D
100
AcDbEntity
  8
0
100
AcDbLine
 10
148.178
 20
265.707
 30
0.0
 11
147.478
 21
265.501
 31
0.0
  0
LINE
  5
EA0
330
1D
100
AcDbEntity
  8
0
100
AcDbLine
 10
148.052
 20
265.617
 30
0.0
 11
147.372
 21
265.424
 31
0.0
  0
LINE
  5
EA1
330
1D
100
AcDbEntity
  8
0
100
AcDbLine
 10
148.346
 20
265.172
 30
0.0
 11
147.514
 21
264.985
 31
0.0
  0
LINE
  5
EA2
330
1D
100
AcDbEntity
  8
0
100
AcDbLine
 10
148.58
 20
267.736
 30
0.0
 11
148.318
 21
267.954
 31
0.0
  0
LINE
  5
EA3
330
1D
100
AcDbEntity
  8
0
100
AcDbLine
 10
147.966
 20
266.29
 30
0.0
 11
147.526
 21
266.09
 31
0.0
  0
LINE
  5
EA4
330
1D
100
AcDbEntity
  8
0
100
AcDbLine
 10
147.526
 20
266.09
 30
0.0
 11
147.006
 21
265.902
 31
0.0
  0
LINE
  5
EA5
330
1D
100
AcDbEntity
  8
0
100
AcDbLine
 10
147.478
 20
265.501
 30
0.0
 11
146.693
 21
265.315
 31
0.0
  0
LINE
  5
EA6
330
1D
100
AcDbEntity
  8
0
100
AcDbLine
 10
147.372
 20
265.424
 30
0.0
 11
146.615
 21
265.249
 31
0.0
  0
LINE
  5
EA7
330
1D
100
AcDbEntity
  8
0
100
AcDbLine
 10
147.514
 20
264.985
 30
0.0
 11
146.615
 21
264.819
 31
0.0
  0
LINE
  5
EA8
330
1D
100
AcDbEntity
  8
0
100
AcDbLine
 10
146.41
 20
265.73
 30
0.0
 11
145.743
 21
265.573
 31
0.0
  0
LINE
  5
EA9
330
1D
100
AcDbEntity
  8
0
100
AcDbLine
 10
145.832
 20
265.151
 30
0.0
 11
144.906
 21
265.01
 31
0.0
  0
LINE
  5
EAA
330
1D
100
AcDbEntity
  8
0
100
AcDbLine
 10
145.743
 20
265.573
 30
0.0
 11
145.013
 21
265.434
 31
0.0
  0
LINE
  5
EAB
330
1D
100
AcDbEntity
  8
0
100
AcDbLine
 10
145.79
 20
265.094
 30
0.0
 11
144.906
 21
264.96
 31
0.0
  0
LINE
  5
EAC
330
1D
100
AcDbEntity
  8
0
100
AcDbLine
 10
145.656
 20
264.675
 30
0.0
 11
144.646
 21
264.553
 31
0.0
  0
LINE
  5
EAD
330
1D
100
AcDbEntity
  8
0
100
AcDbLine
 10
144.646
 20
264.553
 30
0.0
 11
144.566
 21
264.546
 31
0.0
  0
LINE
  5
EAE
330
1D
100
AcDbEntity
  8
0
100
AcDbLine
 10
147.526
 20
268.363
 30
0.0
 11
147.006
 21
268.55
 31
0.0
  0
LINE
  5
EAF
330
1D
100
AcDbEntity
  8
0
100
AcDbLine
 10
147.966
 20
268.164
 30
0.0
 11
147.526
 21
268.363
 31
0.0
  0
LINE
  5
EB0
330
1D
100
AcDbEntity
  8
0
100
AcDbLine
 10
146.634281657019
 20
268.658521798119
 30
0.0
 11
146.551
 21
268.633
 31
0.0
  0
LINE
  5
EB1
330
1D
100
AcDbEntity
  8
0
100
AcDbLine
 10
147.006
 20
268.55
 30
0.0
 11
146.41
 21
268.724
 31
0.0
  0
LINE
  5
EB2
330
1D
100
AcDbEntity
  8
0
100
AcDbLine
 10
148.052
 20
268.736
 30
0.0
 11
147.372
 21
268.929
 31
0.0
  0
LINE
  5
EB3
330
1D
100
AcDbEntity
  8
0
100
AcDbLine
 10
147.372
 20
268.929
 30
0.0
 11
146.615
 21
269.105
 31
0.0
  0
LINE
  5
EB4
330
1D
100
AcDbEntity
  8
0
100
AcDbLine
 10
146.551
 20
268.633
 30
0.0
 11
145.848
 21
268.461
 31
0.0
  0
LINE
  5
EB5
330
1D
100
AcDbEntity
  8
0
100
AcDbLine
 10
145.848
 20
268.461
 30
0.0
 11
145.07
 21
268.309
 31
0.0
  0
LINE
  5
EB6
330
1D
100
AcDbEntity
  8
0
100
AcDbLine
 10
145.743
 20
268.88
 30
0.0
 11
145.013
 21
269.018
 31
0.0
  0
LINE
  5
EB7
330
1D
100
AcDbEntity
  8
0
100
AcDbLine
 10
146.41
 20
268.724
 30
0.0
 11
145.743
 21
268.88
 31
0.0
  0
LINE
  5
EB8
330
1D
100
AcDbEntity
  8
0
100
AcDbLine
 10
146.615
 20
269.105
 30
0.0
 11
145.79
 21
269.26
 31
0.0
  0
LINE
  5
EB9
330
1D
100
AcDbEntity
  8
0
100
AcDbLine
 10
145.79
 20
269.26
 30
0.0
 11
144.906
 21
269.394
 31
0.0
  0
LINE
  5
EBA
330
1D
100
AcDbEntity
  8
0
100
AcDbLine
 10
148.651
 20
268.528
 30
0.0
 11
148.052
 21
268.736
 31
0.0
  0
LINE
  5
EBB
330
1D
100
AcDbEntity
  8
0
100
AcDbLine
 10
144.229
 20
268.18
 30
0.0
 11
143.335
 21
268.076
 31
0.0
  0
LINE
  5
EBC
330
1D
100
AcDbEntity
  8
0
100
AcDbLine
 10
144.229
 20
265.315
 30
0.0
 11
143.32
 21
265.209
 31
0.0
  0
LINE
  5
EBD
330
1D
100
AcDbEntity
  8
0
100
AcDbLine
 10
143.532
 20
264.451
 30
0.0
 11
142.465
 21
264.38
 31
0.0
  0
LINE
  5
EBE
330
1D
100
AcDbEntity
  8
0
100
AcDbLine
 10
141.991
 20
264.699
 30
0.0
 11
140.964
 21
264.662
 31
0.0
  0
LINE
  5
EBF
330
1D
100
AcDbEntity
  8
0
100
AcDbLine
 10
142.465
 20
264.38
 30
0.0
 11
141.376
 21
264.335
 31
0.0
  0
LINE
  5
EC0
330
1D
100
AcDbEntity
  8
0
100
AcDbLine
 10
141.376
 20
264.335
 30
0.0
 11
140.275
 21
264.316
 31
0.0
  0
LINE
  5
EC1
330
1D
100
AcDbEntity
  8
0
100
AcDbLine
 10
141.941
 20
264.747
 30
0.0
 11
140.896
 21
264.71
 31
0.0
  0
LINE
  5
EC2
330
1D
100
AcDbEntity
  8
0
100
AcDbLine
 10
142.964
 20
264.809
 30
0.0
 11
141.941
 21
264.747
 31
0.0
  0
LINE
  5
EC3
330
1D
100
AcDbEntity
  8
0
100
AcDbLine
 10
143.32
 20
265.209
 30
0.0
 11
142.368
 21
265.129
 31
0.0
  0
LINE
  5
EC4
330
1D
100
AcDbEntity
  8
0
100
AcDbLine
 10
142.368
 20
265.129
 30
0.0
 11
141.384
 21
265.076
 31
0.0
  0
LINE
  5
EC5
330
1D
100
AcDbEntity
  8
0
100
AcDbLine
 10
141.384
 20
265.076
 30
0.0
 11
140.383
 21
265.051
 31
0.0
  0
LINE
  5
EC6
330
1D
100
AcDbEntity
  8
0
100
AcDbLine
 10
143.956
 20
264.897
 30
0.0
 11
142.964
 21
264.809
 31
0.0
  0
LINE
  5
EC7
330
1D
100
AcDbEntity
  8
0
100
AcDbLine
 10
143.972
 20
264.849
 30
0.0
 11
142.996
 21
264.762
 31
0.0
  0
LINE
  5
EC8
330
1D
100
AcDbEntity
  8
0
100
AcDbLine
 10
142.996
 20
264.762
 30
0.0
 11
141.991
 21
264.699
 31
0.0
  0
LINE
  5
EC9
330
1D
100
AcDbEntity
  8
0
100
AcDbLine
 10
143.335
 20
268.076
 30
0.0
 11
142.399
 21
267.996
 31
0.0
  0
LINE
  5
ECA
330
1D
100
AcDbEntity
  8
0
100
AcDbLine
 10
142.399
 20
267.996
 30
0.0
 11
141.432
 21
267.943
 31
0.0
  0
LINE
  5
ECB
330
1D
100
AcDbEntity
  8
0
100
AcDbLine
 10
141.432
 20
267.943
 30
0.0
 11
140.449
 21
267.917
 31
0.0
  0
LINE
  5
ECC
330
1D
100
AcDbEntity
  8
0
100
AcDbLine
 10
144.229
 20
269.137
 30
0.0
 11
143.32
 21
269.244
 31
0.0
  0
LINE
  5
ECD
330
1D
100
AcDbEntity
  8
0
100
AcDbLine
 10
143.32
 20
269.244
 30
0.0
 11
142.368
 21
269.325
 31
0.0
  0
LINE
  5
ECE
330
1D
100
AcDbEntity
  8
0
100
AcDbLine
 10
143.972
 20
269.505
 30
0.0
 11
142.996
 21
269.593
 31
0.0
  0
LINE
  5
ECF
330
1D
100
AcDbEntity
  8
0
100
AcDbLine
 10
142.368
 20
269.325
 30
0.0
 11
141.384
 21
269.377
 31
0.0
  0
LINE
  5
ED0
330
1D
100
AcDbEntity
  8
0
100
AcDbLine
 10
141.384
 20
269.377
 30
0.0
 11
140.383
 21
269.402
 31
0.0
  0
LINE
  5
ED1
330
1D
100
AcDbEntity
  8
0
100
AcDbLine
 10
142.996
 20
269.593
 30
0.0
 11
141.991
 21
269.655
 31
0.0
  0
LINE
  5
ED2
330
1D
100
AcDbEntity
  8
0
100
AcDbLine
 10
141.991
 20
269.655
 30
0.0
 11
140.964
 21
269.692
 31
0.0
  0
LINE
  5
ED3
330
1D
100
AcDbEntity
  8
0
100
AcDbLine
 10
147.682
 20
273.795
 30
0.0
 11
146.03
 21
274.199
 31
0.0
  0
LINE
  5
ED4
330
1D
100
AcDbEntity
  8
0
100
AcDbLine
 10
149.145
 20
273.338
 30
0.0
 11
147.682
 21
273.795
 31
0.0
  0
LINE
  5
ED5
330
1D
100
AcDbEntity
  8
0
100
AcDbLine
 10
150.3837
 20
272.852
 30
0.0
 11
149.145
 21
273.338
 31
0.0
  0
LINE
  5
ED6
330
1D
100
AcDbEntity
  8
0
100
AcDbLine
 10
144.898
 20
274.415
 30
0.0
 11
141.881
 21
274.771
 31
0.0
  0
LINE
  5
ED7
330
1D
100
AcDbEntity
  8
0
100
AcDbLine
 10
146.03
 20
274.199
 30
0.0
 11
144.898
 21
274.415
 31
0.0
  0
LINE
  5
ED8
330
1D
100
AcDbEntity
  8
0
100
AcDbLine
 10
157.8485
 20
297.879
 30
0.0
 11
154.3188
 21
297.943
 31
0.0
  0
LINE
  5
ED9
330
1D
100
AcDbEntity
  8
0
100
AcDbLine
 10
169.9557
 20
292.188
 30
0.0
 11
169.8028
 21
291.391
 31
0.0
  0
LINE
  5
EDA
330
1D
100
AcDbEntity
  8
0
100
AcDbLine
 10
169.8028
 20
291.391
 30
0.0
 11
169.668
 21
290.962
 31
0.0
  0
LINE
  5
EDB
330
1D
100
AcDbEntity
  8
0
100
AcDbLine
 10
169.998
 20
293.54
 30
0.0
 11
169.97189663448
 21
293.67423748735
 31
0.0
  0
LINE
  5
EDC
330
1D
100
AcDbEntity
  8
0
100
AcDbLine
 10
168.6517
 20
296.801
 30
0.0
 11
168.4445
 21
296.926
 31
0.0
  0
LINE
  5
EDD
330
1D
100
AcDbEntity
  8
0
100
AcDbLine
 10
167.9424
 20
297.1
 30
0.0
 11
167.7743
 21
297.147
 31
0.0
  0
LINE
  5
EDE
330
1D
100
AcDbEntity
  8
0
100
AcDbLine
 10
168.4445
 20
296.926
 30
0.0
 11
167.9424
 21
297.1
 31
0.0
  0
LINE
  5
EDF
330
1D
100
AcDbEntity
  8
0
100
AcDbLine
 10
168.8107
 20
296.667
 30
0.0
 11
168.6517
 21
296.801
 31
0.0
  0
LINE
  5
EE0
330
1D
100
AcDbEntity
  8
0
100
AcDbLine
 10
167.2401
 20
297.268
 30
0.0
 11
166.4392
 21
297.393
 31
0.0
  0
LINE
  5
EE1
330
1D
100
AcDbEntity
  8
0
100
AcDbLine
 10
167.7743
 20
297.147
 30
0.0
 11
167.2401
 21
297.268
 31
0.0
  0
LINE
  5
EE2
330
1D
100
AcDbEntity
  8
0
100
AcDbLine
 10
169.02
 20
296.421
 30
0.0
 11
168.8107
 21
296.667
 31
0.0
  0
LINE
  5
EE3
330
1D
100
AcDbEntity
  8
0
100
AcDbLine
 10
166.4392
 20
297.393
 30
0.0
 11
165.0406
 21
297.542
 31
0.0
  0
LINE
  5
EE4
330
1D
100
AcDbEntity
  8
0
100
AcDbLine
 10
162.9729
 20
297.686
 30
0.0
 11
160.5832
 21
297.797
 31
0.0
  0
LINE
  5
EE5
330
1D
100
AcDbEntity
  8
0
100
AcDbLine
 10
164.1018
 20
297.615
 30
0.0
 11
162.9729
 21
297.686
 31
0.0
  0
LINE
  5
EE6
330
1D
100
AcDbEntity
  8
0
100
AcDbLine
 10
165.0406
 20
297.542
 30
0.0
 11
164.1018
 21
297.615
 31
0.0
  0
LINE
  5
EE7
330
1D
100
AcDbEntity
  8
0
100
AcDbLine
 10
169.6438
 20
295.108
 30
0.0
 11
169.02
 21
296.421
 31
0.0
  0
LINE
  5
EE8
330
1D
100
AcDbEntity
  8
0
100
AcDbLine
 10
169.7314
 20
294.911
 30
0.0
 11
169.6438
 21
295.108
 31
0.0
  0
LINE
  5
EE9
330
1D
100
AcDbEntity
  8
0
100
AcDbLine
 10
160.5832
 20
297.797
 30
0.0
 11
157.8485
 21
297.879
 31
0.0
  0
LINE
  5
EEA
330
1D
100
AcDbEntity
  8
0
100
AcDbLine
 10
169.967669407702
 20
293.695976151691
 30
0.0
 11
169.7314
 21
294.911
 31
0.0
  0
LINE
  5
EEB
330
1D
100
AcDbEntity
  8
0
100
AcDbLine
 10
170.0
 20
292.992
 30
0.0
 11
169.9557
 21
292.188
 31
0.0
  0
LINE
  5
EEC
330
1D
100
AcDbEntity
  8
0
100
AcDbLine
 10
170.0
 20
292.992
 30
0.0
 11
169.998
 21
293.54
 31
0.0
  0
LINE
  5
EED
330
1D
100
AcDbEntity
  8
0
100
AcDbLine
 10
151.6595
 20
297.971
 30
0.0
 11
149.007
 21
297.987
 31
0.0
  0
LINE
  5
EEE
330
1D
100
AcDbEntity
  8
0
100
AcDbLine
 10
149.007
 20
297.987
 30
0.0
 11
144.499
 21
297.998
 31
0.0
  0
LINE
  5
EEF
330
1D
100
AcDbEntity
  8
0
100
AcDbLine
 10
154.3188
 20
297.943
 30
0.0
 11
151.6595
 21
297.971
 31
0.0
  0
LINE
  5
19B1
330
1D
100
AcDbEntity
  8
0
100
AcDbLine
 10
12.64
 20
118.0
 30
0.0
 11
15.84
 21
118.0
 31
0.0
  0
LINE
  5
19B2
330
1D
100
AcDbEntity
  8
0
100
AcDbLine
 10
10.72
 20
118.0
 30
0.0
 11
12.64
 21
118.0
 31
0.0
  0
LINE
  5
19B4
330
1D
100
AcDbEntity
  8
0
100
AcDbLine
 10
10.0
 20
118.0
 30
0.0
 11
10.72
 21
118.0
 31
0.0
  0
LINE
  5
19B7
330
1D
100
AcDbEntity
  8
0
100
AcDbLine
 10
15.84
 20
118.0
 30
0.0
 11
20.08
 21
118.0
 31
0.0
  0
LINE
  5
19B9
330
1D
100
AcDbEntity
  8
0
100
AcDbLine
 10
24.88
 20
118.0
 30
0.0
 11
30.0
 21
118.0
 31
0.0
  0
LINE
  5
19BA
330
1D
100
AcDbEntity
  8
0
100
AcDbLine
 10
20.08
 20
118.0
 30
0.0
 11
24.88
 21
118.0
 31
0.0
  0
LINE
  5
19BB
330
1D
100
AcDbEntity
  8
0
100
AcDbLine
 10
30.0
 20
118.0
 30
0.0
 11
35.12
 21
118.0
 31
0.0
  0
LINE
  5
19C2
330
1D
100
AcDbEntity
  8
0
100
AcDbLine
 10
35.12
 20
118.0
 30
0.0
 11
39.92
 21
118.0
 31
0.0
  0
LINE
  5
19C3
330
1D
100
AcDbEntity
  8
0
100
AcDbLine
 10
39.92
 20
118.0
 30
0.0
 11
44.16
 21
118.0
 31
0.0
  0
LINE
  5
19C6
330
1D
100
AcDbEntity
  8
0
100
AcDbLine
 10
44.16
 20
118.0
 30
0.0
 11
47.36
 21
118.0
 31
0.0
  0
LINE
  5
19CA
330
1D
100
AcDbEntity
  8
0
100
AcDbLine
 10
47.36
 20
118.0
 30
0.0
 11
49.28
 21
118.0
 31
0.0
  0
LINE
  5
19CC
330
1D
100
AcDbEntity
  8
0
100
AcDbLine
 10
49.28
 20
118.0
 30
0.0
 11
50.0
 21
118.0
 31
0.0
  0
LINE
  5
1C14
330
1D
100
AcDbEntity
  8
0
100
AcDbLine
 10
133.6
 20
118.0
 30
0.0
 11
140.0
 21
118.0
 31
0.0
  0
LINE
  5
1C15
330
1D
100
AcDbEntity
  8
0
100
AcDbLine
 10
127.6
 20
118.0
 30
0.0
 11
133.6
 21
118.0
 31
0.0
  0
LINE
  5
1C16
330
1D
100
AcDbEntity
  8
0
100
AcDbLine
 10
122.3
 20
118.0
 30
0.0
 11
127.6
 21
118.0
 31
0.0
  0
LINE
  5
1C17
330
1D
100
AcDbEntity
  8
0
100
AcDbLine
 10
118.3
 20
118.0
 30
0.0
 11
122.3
 21
118.0
 31
0.0
  0
LINE
  5
1C18
330
1D
100
AcDbEntity
  8
0
100
AcDbLine
 10
115.9
 20
118.0
 30
0.0
 11
118.3
 21
118.0
 31
0.0
  0
LINE
  5
1C19
330
1D
100
AcDbEntity
  8
0
100
AcDbLine
 10
140.0
 20
118.0
 30
0.0
 11
146.4
 21
118.0
 31
0.0
  0
LINE
  5
1C1A
330
1D
100
AcDbEntity
  8
0
100
AcDbLine
 10
146.4
 20
118.0
 30
0.0
 11
152.4
 21
118.0
 31
0.0
  0
LINE
  5
1C1B
330
1D
100
AcDbEntity
  8
0
100
AcDbLine
 10
152.4
 20
118.0
 30
0.0
 11
157.7
 21
118.0
 31
0.0
  0
LINE
  5
1C1D
330
1D
100
AcDbEntity
  8
0
100
AcDbLine
 10
157.7
 20
118.0
 30
0.0
 11
161.7
 21
118.0
 31
0.0
  0
LINE
  5
1C5A
330
1D
100
AcDbEntity
  8
0
100
AcDbLine
 10
161.7
 20
118.0
 30
0.0
 11
164.1
 21
118.0
 31
0.0
  0
LINE
  5
1C5C
330
1D
100
AcDbEntity
  8
0
100
AcDbLine
 10
164.1
 20
118.0
 30
0.0
 11
165.0
 21
118.0
 31
0.0
  0
LINE
  5
1C5F
330
1D
100
AcDbEntity
  8
0
100
AcDbLine
 10
115.0
 20
118.0
 30
0.0
 11
115.9
 21
118.0
 31
0.0
  0
ENDSEC
  0
SECTION
  2
OBJECTS
  0
DICTIONARY
  5
C
330
0
100
AcDbDictionary
281
     1
  3
ACAD_GROUP
350
D
  3
ACAD_LAYOUT
350
1A
  3
ACAD_MLEADERSTYLE
350
E4B
  3
ACAD_MLINESTYLE
350
17
  3
ACAD_PLOTSETTINGS
350
19
  3
ACAD_PLOTSTYLENAME
350
E
  3
ACAD_SCALELIST
350
D05
  3
AcDbVariableDictionary
350
2957
  3
DWGPROPS
350
295C
  0
DICTIONARY
  5
D
102
{ACAD_REACTORS
330
C
102
}
330
C
100
AcDbDictionary
281
     1
  0
DICTIONARY
  5
1A
102
{ACAD_REACTORS
330
C
102
}
330
C
100
AcDbDictionary
281
     1
  3
Layout1
350
1C
  3
Model
350
1E
  0
DICTIONARY
  5
E4B
102
{ACAD_REACTORS
330
C
102
}
330
C
100
AcDbDictionary
281
     1
  0
DICTIONARY
  5
17
102
{ACAD_REACTORS
330
C
102
}
330
C
100
AcDbDictionary
281
     1
  3
Standard
350
18
  0
DICTIONARY
  5
19
102
{ACAD_REACTORS
330
C
102
}
330
C
100
AcDbDictionary
281
     1
  0
ACDBDICTIONARYWDFLT
  5
E
102
{ACAD_REACTORS
330
C
102
}
330
C
100
AcDbDictionary
281
     1
  3
Normal
350
F
100
AcDbDictionaryWithDefault
340
F
  0
DICTIONARY
  5
D05
102
{ACAD_REACTORS
330
C
102
}
330
C
100
AcDbDictionary
281
     1
  3
A0
350
D06
  3
A1
350
D07
  3
A2
350
D08
  3
A3
350
D09
  3
A4
350
D0A
  3
A5
350
D0B
  3
A6
350
D0C
  3
A7
350
D0D
  3
A8
350
D0E
  3
A9
350
D0F
  3
B0
350
D10
  3
B1
350
D11
  3
B2
350
D12
  3
B3
350
D13
  3
B4
350
D14
  3
B5
350
D15
  3
B6
350
D16
  3
B7
350
D17
  3
B8
350
D18
  3
B9
350
D19
  3
C0
350
D1A
  3
C1
350
D1B
  3
C2
350
D1C
  3
C3
350
D1D
  3
C4
350
D1E
  3
C5
350
D1F
  3
C6
350
D20
  3
C7
350
D21
  3
C8
350
D22
  3
C9
350
D23
  3
D0
350
D24
  3
D1
350
D25
  3
D2
350
D26
  0
DICTIONARY
  5
2957
102
{ACAD_REACTORS
330
C
102
}
330
C
100
AcDbDictionary
281
     1
  0
XRECORD
  5
295C
102
{ACAD_REACTORS
330
C
102
}
330
C
100
AcDbXrecord
280
     1
  1
DWGPROPS COOKIE
  2

  3

  4

  6

  7

  8
MARTIN
  9

300
=
301
=
302
=
303
=
304
=
305
=
306
=
307
=
308
=
309
=
 40
0.0
 41
2455824.77280978
 42
2455824.777705614
  1

 90
        0
  0
LAYOUT
  5
1C
102
{ACAD_REACTORS
330
1A
102
}
330
1A
100
AcDbPlotSettings
  1

  2
none_device
  4

  6

 40
0.0
 41
0.0
 42
0.0
 43
0.0
 44
0.0
 45
0.0
 46
0.0
 47
0.0
 48
0.0
 49
0.0
140
0.0
141
0.0
142
1.0
143
1.0
 70
   688
 72
     0
 73
     0
 74
     5
  7

 75
    16
147
1.0
148
0.0
149
0.0
100
AcDbLayout
  1
Layout1
 70
     1
 71
     1
 10
0.0
 20
0.0
 11
12.0
 21
9.0
 12
0.0
 22
0.0
 32
0.0
 14
1.000000000000E+20
 24
1.000000000000E+20
 34
1.000000000000E+20
 15
-1.000000000000E+20
 25
-1.000000000000E+20
 35
-1.000000000000E+20
146
0.0
 13
0.0
 23
0.0
 33
0.0
 16
1.0
 26
0.0
 36
0.0
 17
0.0
 27
1.0
 37
0.0
 76
     0
330
1B
  0
LAYOUT
  5
1E
102
{ACAD_REACTORS
330
1A
102
}
330
1A
100
AcDbPlotSettings
  1

  2
none_device
  4

  6

 40
0.0
 41
0.0
 42
0.0
 43
0.0
 44
0.0
 45
0.0
 46
0.0
 47
0.0
 48
0.0
 49
0.0
140
0.0
141
0.0
142
1.0
143
1.0
 70
  1712
 72
     0
 73
     0
 74
     0
  7

 75
     0
147
1.0
148
0.0
149
0.0
100
AcDbLayout
  1
Model
 70
     1
 71
     0
 10
0.0
 20
0.0
 11
12.0
 21
9.0
 12
0.0
 22
0.0
 32
0.0
 14
0.0
 24
118.0
 34
0.0
 15
280.0
 25
298.0
 35
0.0
146
0.0
 13
0.0
 23
0.0
 33
0.0
 16
1.0
 26
0.0
 36
0.0
 17
0.0
 27
1.0
 37
0.0
 76
     0
330
1D
331
D00
  0
MLINESTYLE
  5
18
102
{ACAD_REACTORS
330
17
102
}
330
17
100
AcDbMlineStyle
  2
Standard
 70
     0
  3

 62
   256
 51
90.0
 52
90.0
 71
     2
 49
0.5
 62
   256
  6
BYLAYER
 49
-0.5
 62
   256
  6
BYLAYER
  0
ACDBPLACEHOLDER
  5
F
102
{ACAD_REACTORS
330
E
102
}
330
E
  0
SCALE
  5
D06
102
{ACAD_REACTORS
330
D05
102
}
330
D05
100
AcDbScale
 70
     0
300
1:1
140
1.0
141
1.0
290
     1
  0
SCALE
  5
D07
102
{ACAD_REACTORS
330
D05
102
}
330
D05
100
AcDbScale
 70
     0
300
1:2
140
1.0
141
2.0
290
     0
  0
SCALE
  5
D08
102
{ACAD_REACTORS
330
D05
102
}
330
D05
100
AcDbScale
 70
     0
300
1:4
140
1.0
141
4.0
290
     0
  0
SCALE
  5
D09
102
{ACAD_REACTORS
330
D05
102
}
330
D05
100
AcDbScale
 70
     0
300
1:5
140
1.0
141
5.0
290
     0
  0
SCALE
  5
D0A
102
{ACAD_REACTORS
330
D05
102
}
330
D05
100
AcDbScale
 70
     0
300
1:8
140
1.0
141
8.0
290
     0
  0
SCALE
  5
D0B
102
{ACAD_REACTORS
330
D05
102
}
330
D05
100
AcDbScale
 70
     0
300
1:10
140
1.0
141
10.0
290
     0
  0
SCALE
  5
D0C
102
{ACAD_REACTORS
330
D05
102
}
330
D05
100
AcDbScale
 70
     0
300
1:16
140
1.0
141
16.0
290
     0
  0
SCALE
  5
D0D
102
{ACAD_REACTORS
330
D05
102
}
330
D05
100
AcDbScale
 70
     0
300
1:20
140
1.0
141
20.0
290
     0
  0
SCALE
  5
D0E
102
{ACAD_REACTORS
330
D05
102
}
330
D05
100
AcDbScale
 70
     0
300
1:30
140
1.0
141
30.0
290
     0
  0
SCALE
  5
D0F
102
{ACAD_REACTORS
330
D05
102
}
330
D05
100
AcDbScale
 70
     0
300
1:40
140
1.0
141
40.0
290
     0
  0
SCALE
  5
D10
102
{ACAD_REACTORS
330
D05
102
}
330
D05
100
AcDbScale
 70
     0
300
1:50
140
1.0
141
50.0
290
     0
  0
SCALE
  5
D11
102
{ACAD_REACTORS
330
D05
102
}
330
D05
100
AcDbScale
 70
     0
300
1:100
140
1.0
141
100.0
290
     0
  0
SCALE
  5
D12
102
{ACAD_REACTORS
330
D05
102
}
330
D05
100
AcDbScale
 70
     0
300
2:1
140
2.0
141
1.0
290
     0
  0
SCALE
  5
D13
102
{ACAD_REACTORS
330
D05
102
}
330
D05
100
AcDbScale
 70
     0
300
4:1
140
4.0
141
1.0
290
     0
  0
SCALE
  5
D14
102
{ACAD_REACTORS
330
D05
102
}
330
D05
100
AcDbScale
 70
     0
300
8:1
140
8.0
141
1.0
290
     0
  0
SCALE
  5
D15
102
{ACAD_REACTORS
330
D05
102
}
330
D05
100
AcDbScale
 70
     0
300
10:1
140
10.0
141
1.0
290
     0
  0
SCALE
  5
D16
102
{ACAD_REACTORS
330
D05
102
}
330
D05
100
AcDbScale
 70
     0
300
100:1
140
100.0
141
1.0
290
     0
  0
SCALE
  5
D17
102
{ACAD_REACTORS
330
D05
102
}
330
D05
100
AcDbScale
 70
     0
300
1/128" = 1'-0"
140
0.0078125
141
12.0
290
     0
  0
SCALE
  5
D18
102
{ACAD_REACTORS
330
D05
102
}
330
D05
100
AcDbScale
 70
     0
300
1/64" = 1'-0"
140
0.015625
141
12.0
290
     0
  0
SCALE
  5
D19
102
{ACAD_REACTORS
330
D05
102
}
330
D05
100
AcDbScale
 70
     0
300
1/32" = 1'-0"
140
0.03125
141
12.0
290
     0
  0
SCALE
  5
D1A
102
{ACAD_REACTORS
330
D05
102
}
330
D05
100
AcDbScale
 70
     0
300
1/16" = 1'-0"
140
0.0625
141
12.0
290
     0
  0
SCALE
  5
D1B
102
{ACAD_REACTORS
330
D05
102
}
330
D05
100
AcDbScale
 70
     0
300
3/32" = 1'-0"
140
0.09375
141
12.0
290
     0
  0
SCALE
  5
D1C
102
{ACAD_REACTORS
330
D05
102
}
330
D05
100
AcDbScale
 70
     0
300
1/8" = 1'-0"
140
0.125
141
12.0
290
     0
  0
SCALE
  5
D1D
102
{ACAD_REACTORS
330
D05
102
}
330
D05
100
AcDbScale
 70
     0
300
3/16" = 1'-0"
140
0.1875
141
12.0
290
     0
  0
SCALE
  5
D1E
102
{ACAD_REACTORS
330
D05
102
}
330
D05
100
AcDbScale
 70
     0
300
1/4" = 1'-0"
140
0.25
141
12.0
290
     0
  0
SCALE
  5
D1F
102
{ACAD_REACTORS
330
D05
102
}
330
D05
100
AcDbScale
 70
     0
300
3/8" = 1'-0"
140
0.375
141
12.0
290
     0
  0
SCALE
  5
D20
102
{ACAD_REACTORS
330
D05
102
}
330
D05
100
AcDbScale
 70
     0
300
1/2" = 1'-0"
140
0.5
141
12.0
290
     0
  0
SCALE
  5
D21
102
{ACAD_REACTORS
330
D05
102
}
330
D05
100
AcDbScale
 70
     0
300
3/4" = 1'-0"
140
0.75
141
12.0
290
     0
  0
SCALE
  5
D22
102
{ACAD_REACTORS
330
D05
102
}
330
D05
100
AcDbScale
 70
     0
300
1" = 1'-0"
140
1.0
141
12.0
290
     0
  0
SCALE
  5
D23
102
{ACAD_REACTORS
330
D05
102
}
330
D05
100
AcDbScale
 70
     0
300
1-1/2" = 1'-0"
140
1.5
141
12.0
290
     0
  0
SCALE
  5
D24
102
{ACAD_REACTORS
330
D05
102
}
330
D05
100
AcDbScale
 70
     0
300
3" = 1'-0"
140
3.0
141
12.0
290
     0
  0
SCALE
  5
D25
102
{ACAD_REACTORS
330
D05
102
}
330
D05
100
AcDbScale
 70
     0
300
6" = 1'-0"
140
6.0
141
12.0
290
     0
  0
SCALE
  5
D26
102
{ACAD_REACTORS
330
D05
102
}
330
D05
100
AcDbScale
 70
     0
300
1'-0" = 1'-0"
140
12.0
141
12.0
290
     0
  0
ENDSEC
  0
SECTION
  2
THUMBNAILIMAGE
 90
    16364
310
28000000B40000005500000001000800000000000000000000000000000000000000000000000000FFFFFF000000FF0000FFFF0000FF0000FFFF0000FF000000FF00FF000000000080808000C0C0C0000000FF007F7FFF000000A5005252A50000007F003F3F7F0000004C0026264C000000260013132600003FFF007F9FFF
310
000029A5005267A500001F7F003F4F7F0000134C00262F4C000009260013172600007FFF007FBFFF000052A500527CA500003F7F003F5F7F0000264C0026394C0000132600131C260000BFFF007FDFFF00007CA5005291A500005F7F003F6F7F0000394C0026424C00001C26001321260000FFFF007FFFFF0000A5A50052A5
310
A500007F7F003F7F7F00004C4C00264C4C00002626001326260000FFBF007FFFDF0000A57C0052A59100007F5F003F7F6F00004C3900264C420000261C001326210000FF7F007FFFBF0000A5520052A57C00007F3F003F7F5F00004C2600264C39000026130013261C0000FF3F007FFF9F0000A5290052A56700007F1F003F
310
7F4F00004C1300264C2F00002609001326170000FF00007FFF7F0000A5000052A55200007F00003F7F3F00004C0000264C260000260000132613003FFF00009FFF7F0029A5000067A552001F7F00004F7F3F00134C00002F4C260009260000172613007FFF0000BFFF7F0052A500007CA552003F7F00005F7F3F00264C0000
310
394C2600132600001C261300BFFF0000DFFF7F007CA5000091A552005F7F00006F7F3F00394C0000424C26001C26000021261300FFFF0000FFFF7F00A5A50000A5A552007F7F00007F7F3F004C4C00004C4C26002626000026261300FFBF0000FFDF7F00A57C0000A59152007F5F00007F6F3F004C3900004C422600261C00
310
0026211300FF7F0000FFBF7F00A5520000A57C52007F3F00007F5F3F004C2600004C39260026130000261C1300FF3F0000FF9F7F00A5290000A56752007F1F00007F4F3F004C1300004C2F26002609000026171300FF000000FF7F7F00A5000000A55252007F0000007F3F3F004C0000004C2626002600000026131300FF00
310
3F00FF7F9F00A5002900A55267007F001F007F3F4F004C0013004C262F002600090026131700FF007F00FF7FBF00A5005200A5527C007F003F007F3F5F004C0026004C2639002600130026131C00FF00BF00FF7FDF00A5007C00A55291007F005F007F3F6F004C0039004C26420026001C0026132100FF00FF00FF7FFF00A5
310
00A500A552A5007F007F007F3F7F004C004C004C264C002600260026132600BF00FF00DF7FFF007C00A5009152A5005F007F006F3F7F0039004C0042264C001C002600211326007F00FF00BF7FFF005200A5007C52A5003F007F005F3F7F0026004C0039264C00130026001C1326003F00FF009F7FFF002900A5006752A500
310
1F007F004F3F7F0013004C002F264C000900260017132600000000002D2D2D005B5B5B0089898900B7B7B700B3B3B30000000000000000000000000000000000000000000000000000000000000000000000000000000000000000000000000000000000000000000000000000000000000000000000000000000000000000
310
00000000000000000707070707070700000000000000000000000000000000000000000000000000000000000000000000000000000000000000000000000000000000000000000000000000000000000000000000000000000000000000000000000000000000000000000000000000000000000000000000000000000000
310
00000000000000000000000000000000000000000000000000000000000000000000000000000000000000000000000000000000000000000000000000070000000000070000000000000000000000000000000000000000000000000000000000000000000000000000000000000000000000000000000000000000000000
310
00000000000000000000000000000000000000000000000000000000000000000000000000000000000000000000000000000000000000000000000000000000000000000000000000000000000000000000000000000000000000000000000000000000000000000000000000000000000007000000000007000000000000
310
00000000000000000000000000000000000000000000000000000000000000000000000000000000000000000000000000000000000000000000000000000000000000000000000000000000000000000000000000000000000000000000000000000000000000000000000000000000000000000000000000000000000000
310
00000000000000000007070707070707000000000000000000000000000000000000000000000000070000000000070000000000000000000000000000000000000000000000000707070707070700000000000000000000000000000000000000000000000000000000000000000000000000000000000000000000000000
310
00000000000000000000000000000000000000000000000000000000000000000000000000000000000000000000000000000000000000000000000000000700000000000700000000000000000000000000000000000000000000070707070707070707070700000000000000000000000000000000000000000000070000
310
00000007000000000000000000000000000000000000000000000000000000000000000000000000000000000000000000000000000000000000000000000000000000000000000000000000000000000000000000000000000000000000000000000000000000000000000000000000000000070000000000070000000000
310
00000000000000000000000000000000000700000000000000000007000000000000000000000000000000000000000000000700000000000700000000000000000000000000000000000000000000000000000000000000000000000000000000000000000000000000000000000000000000000000000000000000000000
310
00000000000000000000000000000000000000000000000000000000000000000000000000000000000700000000000700000000000000000000000000000000000000000000070000000000000000000700000000000000000000000000000000000000000000070000000000070000000000000000000000000000000000
310
00000000000000000000000000000000000000000000000000000000000000000000000000000000000000000000000000000000000000000000000000000000000000000000000000000000000000000000000000000000000000000000070000000000070000000000000000000000000000000000000000000007000000
310
00000000000007000000000000000000000000000000000000000000000700000000000700000000000000000000000000000000000000000000000000000000000000000000000000000000000000000000000000000000000000000000000000000000000000000000000000000000000000000000000000000000000000
310
00000000000000000000000000000000000000000700000000000700000000000000000000000000000000000000000000070000000000000000000700000000000000000000000000000000000000000000070000000000070000000000000000000000000000000000000000000000000000000000000000000000000000
310
00000000000000000000000000000000000000000000000000000000000000000000000000000000000000000000000000000000000000000000000000000000000000000000000007070707070707070700000000000000000000000000000000000000000007000000000000000000070000000000000000000000000000
310
00000000000000070707070707070707000000000000000000000000000000000000000000000000000000000000000000000000000000000000000000000000000000000000000000000000000000000000000000000000000000000000000000000000000000000000000000000000000000000000000000000000000700
310
00000000000007000000000000000000000000000000000000000000070000000000000000000700000000000000000000000000000000000000000007000000000000000700000000000000000000000000000000000000000000000000000000000000000000000000000000000000000000000000000000000000000000
310
00000000000000000000000000000000000000000000000000000000000000000000000000000000000000000000000000000007000000000000000700000000000000000000000000000000000000000007000000000000000000070000000000000000000000000000000000000000000700000000000000070000000000
310
00000000000000000000000000000000000000000000000000000000000000000000000000000000000000000000000000000000000000000000000000000000000000000000000000000000000000000000000000000000000000000000000000000000000000000700000000000000070707070707070707000000000000
310
00070707070707070000000000000000000707070707070700000000000000070707070707070707000000000000000700000000000000000000000000000000000000000000000000000000000000000000000000000000000000000000000000000000000000000000000000000000000000000000000000000000000000
310
00000000000000000000000000000000000000000000000000000000000007000000000000000000000700070000070707070707070707000700070000000000000000000000000007000700070707070707070707000007000700000000000000000000070000000000000000000000000000000000000000000000000000
310
00000000000000000000000000000000000000000000000000000000000000000000000000000000000000000000000000000000000000000000000000000000000000000000000000000000000000000000000700000000000000000000070007000007000000000000000700070007000000000000000000000000000700
310
07000700000000000000070000070007000000000000000000000700000000000000000000000000000000000000000000000000000000000000000000000000000000000000000000000000000000000000000000000000000000000000000000000000000000000000000000000000000000000000000000000000000000
310
00000000000000000007000000000000000000000700070000070707070707070707000700070000000000000000000000000007000700070707070707070707000007000700000000000000000000070000000000000000000000000000000000000000000000000000000000000000000000000000000000000000000000
310
00000000000000000000000000000000000000000000000000000000000000000000000000000000000000000000000000000000000000000000000000000700000000000000000000070707070707000000000000000707070707000000000000000000000000000707070707000000000000000707070707070000000000
310
00000000000700000000000000000000000000000000000000000000000000000000000000000000000000000000000000000000000000000000000000000000000000000000000000000000000000000000000000000000000000000000000000000000000000000000000000000000000000070000000000000007070707
310
00000000000000000000000000000000070707000000000000000000070707000000000000000000000000000000000707070700000000000000070000000000000000000000000000000000000000000000000000000000000000000000000000000000000000000000000000000000000000000000000000000000000000
310
00000000000000000000000000000000000000000000000000000000000000000000000000000000000700000000000000070000000000000000000000000000000000000000000707070707070707070707000000000000000000000000000000000000000000070000000000000007000000000000000000000000000000
310
00000000000000000000000000000000000000000000000000000000000000000000000000000000000000000000000000000000000000000000000000000000000000000000000000000000000000000000000000000000000000000000070000000000000007000000000000000000000000000000000000000000000700
310
00000000000007000000000000000000000000000000000000000000000700000000000000070000000000000000000000000000000000000000000000000000000000000000000000000000000000000000000000000000000000000000000000000000000000000000000000000000000000000000000000000000000000
310
00000000000000000000000000000000000000000700000000000000070000000000000000000000000000000000000000000007000000000000000700000000000000000000000000000000000000000000070000000000000007000000000000000000000000000000000000000000000000000000000000000000000000
310
00000000000000000000000000000000000000000000000000000000000000000000000000000000000000000000000000000000000000000000000000000000000000000000000000070000000000000007000000000000000000000000000000000000000000000700000000000000070000000000000000000000000000
310
00000000000000000700000000000000070000000000000000000000000000000000000000000000000000000000000000000000000000000000000000000000000000000000000000000000000000000000000000000000000000000000000000000000000000000000000000000000000000000000000000000000000007
310
00000000000000070000000000000000000000000000000000000000000007000000000000000700000000000000000000000000000000000000000000070000000000000007000000000000000000000000000000000000000000000000000000000000000000000000000000000000000000000000000000000000000000
310
00000000000000000000000000000000000000000000000000000000000000000000000000000000000000000000000000000000070000000000000007000000000000000000000000000000000000000000000700000000000000070000000000000000000000000000000000000000000007000000000000000700000000
310
00000000000000000000000000000000000000000000000000000000000000000000000000000000000000000000000000000000000000000000000000000000000000000000000000000000000000000000000000000000000000000000000000000000000000000007000000000000000700000000000000000000000000
310
00000000000000000007000000000000000700000000000000000000000000000000000000000000070000000000000007000000000000000000000000000000000000000000000000000000000000000000000000000000000000000000000000000000000000000000000000000000000000000000000000000000000000
310
00000000000000000000000000000000000000000000000000000000000007070000000000000007070000000000000000000000000000000000000007070700000000000000070707000000000000000000000000000000000000000707000000000000000707000000000000000000000000000000000000000000000000
310
00000000000000000000000000000000000000000000000000000000000000000000000000000000000000000000000000000000000000000000000000000000000000000000000000000000000000000000000707070707070707070707070000000000000000000000000000000000070707070707070707070707070707
310
00000000000000000000000000000000000707070707070707070707070000000000000000000000000000000000000000000000000000000000000000000000000000000000000000000000000000000000000000000000000000000000000000000000000000000000000000000000000000000000000000000000000000
310
00000000000000000007000000000000000000000700000000000000000000000000000000000700000000000000000000000000070000000000000000000000000000000000070000000000000000000007000000000000000000000000000000000000000000000000000000000000000000000000000000000000000000
310
00000000000000000000000000000000000000000000000000000000000000000000000000000000000000000000000000000000000000000000000000000707070707070707070707070000000000000000000000000000000000070707070707070707070707070707000000000000000000000000000000000007070707
310
07070707070707070000000000000000000000000000000000000000000000000000000000000000000000000000000000000000000000000000000000000000000000000000000000000000000000000000000000000000000000000000000000000000000000000000000000000000000000070707070707070707070707
310
00000000000000000000000000000000000707070707070707070707070707070000000000000000000000000000000000070707070707070707070707000000000000000000000000000000000000000000000000000000000000000000000000000000000000000000000000000000000000000000000000000000000000
310
00000000000000000000000000000000000000000000000000000000000000000000000000000000000007000000000000000700000000000000000000000000000000000000000000070000000000000007000000000000000000000000000000000000000000000700000000000000070000000000000000000000000000
310
00000000000000000000000000000000000000000000000000000000000000000000000000000000000000000000000000000000000000000000000000000000000000000000000000000000000000000000000000000000000000000000000700000000000000070000000000000000000000000000000000000000000007
310
00000000000000070000000000000000000000000000000000000000000007000000000000000700000000000000000000000000000000000000000000000000000000000000000000000000000000000000000000000000000000000000000000000000000000000000000000000000000000000000000000000000000000
310
00000000000000000000000000000000000000070707070707070707070707070000000000000000000000000000000000070707070707070707070707070707000000000000000000000000000000000007070707070700070707070707000000000000000000000000000000000000000000000000000000000000000000
310
00000000000000000000000000000000000000000000000000000000000000000000000000000000000000000000000000000000000000000000000000000000000000000000070707070707070707070707070707070707000000000000000000000007070707070707070707070707070707070707070700000000000000
310
00000000070707070707070707000707070707070707000000000000000000000000000000000000000000000000000000000000000000000000000000000000000000000000000000000000000000000000000000000000000000000000000000000000000000000000000000000000000000000000000000000007000000
310
00000000000000000000000000070000000000000000000000070000000000000000000000000000000000000007000000000000000000000007000000000000000000000000000000000700000000000000000000000000000000000000000000000000000000000000000000000000000000000000000000000000000000
310
00000000000000000000000000000000000000000000000000000000000000000000000000000000000000000000000000070707070707070700070707070707070707000000000000000000000007070707070707070707070707070707070707070700000000000000000000000707070707070707070007070707070707
310
07000000000000000000000000000000000000000000000000000000000000000000000000000000000000000000000000000000000000000000000000000000000000000000000000000000000000000000000000000000000000000000000000000000000007070707070707070707070707070707070000000000000000
310
00000000000707070707070707070707070707070707070700000000000000000000000000070707070707070707070707070707070700000000000000000000000000000000000000000000000000000000000000000000000000000000000000000000000000000000000000000000000000000000000000000000000000
310
00000000000000000000000000000000000000000000000000000000000000000700000000000000070000000000000000000000000000000000000000070000000000000000000000070000000000000000000000000000000000000000070000000000000007000000000000000000000000000000000000000000000000
310
00000000000000000000000000000000000000000000000000000000000000000000000000000000000000000000000000000000000000000000000000000000000000000000000000000000000000000000000000070000000000000007000000000000000000000000000000000000000007000000000000000000000007
310
00000000000000000000000000000000000000000700000000000000070000000000000000000000000000000000000000000000000000000000000000000000000000000000000000000000000000000000000000000000000000000000000000000000000000000000000000000000000000000000000000000000000000
310
00000000000000000000000700000000000000070000000000000000000000000000000000000000070000000000000000000000070000000000000000000000000000000000000000070000000000000007000000000000000000000000000000000000000000000000000000000000000000000000000000000000000000
310
00000000000000000000000000000000000000000000000000000000000000000000000000000000000000000000000000000000000000000000000000000000070000000000000000070000000000000000000000000000000000000007000000000000000000000007000000000000000000000000000000000000000700
310
00000000000000070000000000000000000000000000000000000000000000000000000000000000000000000000000000000000000000000000000000000000000000000000000000000000000000000000000000000000000000000000000000000000000000000000000000000000000000000007000000000000000007
310
00000000000000000000000000000000000000070000000000000000000000070000000000000000000000000000000000000007000000000000000007000000000000000000000000000000000000000000000000000000000000000000000000000000000000000000000000000000000000000000000000000000000000
310
00000000000000000000000000000000000000000000000000000000000000000000000000000000000000070000000000000000070000000000000000000000000000000000000007000000000000000000000007000000000000000000000000000000000000000700000000000000000700000000000000000000000000
310
00000000000000000000000000000000000000000000000000000000000000000000000000000000000000000000000000000000000000000000000000000000000000000000000000000000000000000000000000000000000000000000000007000000000000000007000000000000000000000000000000000000000700
310
00000000000000000000070000000000000000000000000000000000000007000000000000000007000000000000000000000000000000000000000000000000000000000000000000000000000000000000000000000000000000000000000000000000000000000000000000000000000000000000000000000000000000
310
00000000000000000000000000000000000000000000070000000000000000070000000000000000000000000000000000000007000000000000000000000007000000000000000000000000000000000000000700000000000000000700000000000000000000000000000000000000000000000000000000000000000000
310
00000000000000000000000000000000000000000000000000000000000000000000000000000000000000000000000000000000000000000000000000000000000000000000000000000007000000000000000007000000000000000000000000000000000000000700000000000000000000000700000000000000000000
310
00000000000000000007000000000000000007000000000000000000000000000000000000000000000000000000000000000000000000000000000000000000000000000000000000000000000000000000000000000000000000000000000000000000000000000000000000000000000000000000000000000000000000
310
00070000000000000000070000000000000000000000000000000000000007000000000000000000000007000000000000000000000000000000000000000700000000000000000700000000000000000000000000000000000000000000000000000000000000000000000000000000000000000000000000000000000000
310
00000000000000000000000000000000000000000000000000000000000000000000000000000000000000000000000000000000000007000000000000000007000000000000000000000000000000000000000700000000000000000000000700000000000000000000000000000000000000070000000000000000070000
310
00000000000000000000000000000000000000000000000000000000000000000000000000000000000000000000000000000000000000000000000000000000000000000000000000000000000000000000000000000000000000000000000000000000000000000000000000000000000000000000000000000000000000
310
00000000000000000007000000000000000000000007000000000000000000000000000000000000000000000000000000000000000000000000000000000000000000000000000000000000000000000000000000000000000000000000000000000000000000000000000000000000000000000000000000000000000000
310
00000000000000000000000000000000000000000000000000000000000000000007000000000000000007000000000000000000000000000000000000000700000000000000000000000700000000000000000000000000000000000000070000000000000000070000000000000000000000000000000000000000000000
310
00000000000000000000000000000000000000000000000000000000000000000000000000000000000000000000000000000000000000000000000000000000000000000000000000000000000000000000000000070000000000000000000700000000000000000000000000000000000000070000000000000000000000
310
07000000000000000000000000000000000000000700000000000000000700000000000000000000000000000000000000000000000000000000000000000000000000000000000000000000000000000000000000000000000000000000000000000000000000000000000000000000000000000000000000000000000000
310
00000000000000000000000700000000000000000007000000000000000000000000000000000000000700000000000000000000000700000000000000000000000000000000000000070000000000000000000700000000000000000000000000000000000000000000000000000000000000000000000000000000000000
310
00000000000000000000000000000000000000000000000000000000000000000000000000000000000000000000000000000000000000000000000000000000070000000000000000000700000000000000000000000000000000000000070000000000000000000000070000000000000000000000000000000000000007
310
00000000000000000007000000000000000000000000000000000000000000000000000000000000000000000000000000000000000000000000000000000000000000000000000000000000000000000000000000000000000000000000000000000000000000000000000000000000000000000007000000000000000000
310
07000000000000000000000000000000000000000700000000000000000000000700000000000000000000000000000000000000070000000000000000000700000000000000000000000000000000000000000000000000000000000000000000000000000000000000000000000000000000000000000000000000000000
310
00000000000000000000000000000000000000000000000000000000000000000000000000000000000000070000000000000000000007000000000000000000000000000000000000070000000000000000000000070000000000000000000000000000000000000700000000000000000000070000000000000000000000
310
00000000000000000000000000000000000000000000000000000000000000000000000000000000000000000000000000000000000000000000000000000000000000000000000000000000000000000000000000000000000000000000000007070707070707070707070700000000000000000000000000000000000007
310
00000000000000000000000700000000000000000000000000000000000007070707070707070707070700000000000000000000000000000000000000000000000000000000000000000000000000000000000000000000000000000000000000000000000000000000000000000000000000000000000000000000000000
310
00000000000000000000000000000000000000000000000000000000000000000000000000000000000000000000000000000000070000000000000000000000070000000000000000000000000000000000000000000000000000000000000000000000000000000000000000000000000000000000000000000000000000
310
00000000000000000000000000000000000000000000000000000000000000000000000000000000000000000000000000000000000000000000000000000000000000000000000000000000000000000000000000000000000000000000000000000000000000000007000000000000000000000007000000000000000000
310
00000000000000000000000000000000000000000000000000000000000000000000000000000000000000000000000000000000000000000000000000000000000000000000000000000000000000000000000000000000000000000000000000000000000000000000000000000000000000000000000000000000000000
310
00000000000000000000000000000000000000000000000000000000000000070000000000000000000000070000000000000000000000000000000000000000000000000000000000000000000000000000000000000000000000000000000000000000000000000000000000000000000000000000000000000000000000
310
00000000000000000000000000000000000000000000000000000000000000000000000000000000000000000000000000000000000000000000000000000000000000000000000000000000000000000000000007000000000000000000000000000000000000000000000000000000000000000000000000000000000000
310
00000000000000000000000000000000000000000000000000000000000000000000000000000000000000000000000000000000000000000000000000000000000000000000000000000000000000000000000000000000000000000000000000000000000000000000000000000000000000000000000000000000000000
310
00000000000000000000070000000000000000000000070000000000000000000000000000000000000000000000000000000000000000000000000000000000000000000000000000000000000000000000000000000000000000000000000000000000000000000000000000000000000000000000000000000000000000
310
00000000000000000000000000000000000000000000000000000000000000000000000000000000000000000000000000000000000000000000000000000007000000000000000000000007000000000000000000000000000000000000000000000000000000000000000000000000000000000000000000000000000000
310
00000000000000000000000000000000000000000000000000000000000000000000000000000000000000000000000000000000000000000000000000000000000000000000000000000000000000000000000000000000000000000000000000000000000000000000000000000000000000070000000000000000000000
310
00000700000000000000000000000000000000000000000000000000000000000000000000000000000000000000000000000000000000000000000000000000000000000000000000000000000000000000000000000000000000000000000000000000000000000000000000000000000000000000000000000000000000
310
00000000000000000000000000000000000000000000000000000000000000000000000000000000000700000000000000000000000000070000000000000000000000000000000000000000000000000000000000000000000000000000000000000000000000000000000000000000000000000000000000000000000000
310
00000000000000000000000000000000000000000000000000000000000000000000000000000000000000000000000000000000000000000000000000000000000000000000000000000000000000000000000000000000000000000000070000000000000000000000000007000000000000000000000000000000000000
310
00000000000000000000000000000000000000000000000000000000000000000000000000000000000000000000000000000000000000000000000000000000000000000000000000000000000000000000000000000000000000000000000000000000000000000000000000000000000000000000000000000000000000
310
00000000000000000000000000000000000000000700000000000000000000000000070000000000000000000000000000000000000000000000000000000000000000000000000000000000000000000000000000000000000000000000000000000000000000000000000000000000000000000000000000000000000000
310
00000000000000000000000000000000000000000000000000000000000000000000000000000000000000000000000000000000000000000000000000000000000000000000000000070000000000000000000000000007000000000000000000000000000000000000000000000000000000000000000000000000000000
310
00000000000000000000000000000000000000000000000000000000000000000000000000000000000000000000000000000000000000000000000000000000000000000000000000000000000000000000000000000000000000000000000000000000000000000000000000000000000000000000000000000000000007
310
00000000000000000000000000070000000000000000000000000000000000000000000000000000000000000000000000000000000000000000000000000000000000000000000000000000000000000000000000000000000000000000000000000000000000000000000000000000000000000000000000000000000000
310
00000000000000000000000000000000000000000000000000000000000000000000000000000000000000000000000000000000070000000000000000000000000007000000000000000000000000000000000000000000000000000000000000000000000000000000000000000000000000000000000000000000000000
310
00000000000000000000000000000000000000000000000000000000000000000000000000000000000000000000000000000000000000000000000000000000000000000000000000000000000000000000000000000000000000000000000000000000000000000007000000000000000000000000000700000000000000
310
00000000000000000000000000000000000000000000000000000000000000000000000000000000000000000000000000000000000000000000000000000000000000000000000000000000000000000000000000000000000000000000000000000000000000000000000000000000000000000000000000000000000000
310
00000000000000000000000000000000000000000000000000000000000000070000000000000000000000000007000000000000000000000000000000000000000000000000000000000000000000000000000000000000000000000000000000000000000000000000000000000000000000000000000000000000000000
310
00000000000000000000000000000000000000000000000000000000000000000000000000000000000000000000000000000000000000000000000000000000000000000000000000000000000000000000000007000000000000000000000000000700000000000000000000000000000000000000000000000000000000
310
00000000000000000000000000000000000000000000000000000000000000000000000000000000000000000000000000000000000000000000000000000000000000000000000000000000000000000000000000000000000000000000000000000000000000000000000000000000000000000000000000000000000000
310
00000000000000000000070000000000000000000000000007000000000000000000000000000000000000000000000000000000000000000000000000000000000000000000000000000000000000000000000000000000000000000000000000000000000000000000000000000000000000000000000000000000000000
310
00000000000000000000000000000000000000000000000000000000000000000000000000000000000000000000000000000000000000000000000000000007000000000000000000000000000700000000000000000000000000000000000000000000000000000000000000000000000000000000000000000000000000
310
00000000000000000000000000000000000000000000000000000000000000000000000000000000000000000000000000000000000000000000000000000000000000000000000000000000000000000000000000000000000000000000000000000000000000000000000000000000000000000700000007070707070707
310
00000007000000000000000000000000000000000000000000000000000000000000000000000000000000000000000000000000000000000000000000000000000000000000000000000000000000000000000000000000000000000000000000000000000000000000000000000000000000000000000000000000000000
310
00000000000000000000000000000000000000000000000000000000000000000000000000000000000000000000070707070707070000000000000000000000000000000000000000000000000000000000000000000000000000000000000000000000000000000000000000000000000000000000000000000000000000
310
00000000000000000000000000000000000000000000000000000000000000000000000000000000000000000000000000000000000000000000000000000000000000000000000000000000000000000000000000000000000000000000000700000707070000000707070000070000000000000000000000000000000000
310
00000000000000000000000000000000000000000000000000000000000000000000000000000000000000000000000000000000000000000000000000000000000000000000000000000000000000000000000000000000000000000000000000000000000000000000000000000000000000000000000000000000000000
310
00000000000000000000000000000000000000000007000000000707000707000000000700000000000000000000000000000000000000000000000000000000000000000000000000000000000000000000000000000000000000000000000000000000000000000000000000000000000000000000000000000000000000
310
00000000000000000000000000000000000000000000000000000000000000000000000000000000000000000000000000000000000000000000000000000000000000000000000000000700000000000000000000000000070000000000000000000000000000000000000000000000000000000000000000000000000000
310
00000000000000000000000000000000000000000000000000000000000000000000000000000000000000000000000000000000000000000000000000000000000000000000000000000000000000000000000000000000000000000000000000000000000000000000000000000000000000000000000000000000000007
310
00000000000000000000000000000007000000000000000000000000000000000000000000000000000000000000000000000000000000000000000000000000000000000000000000000000000000000000000000000000000000000000000000000000000000000000000000000000000000000000000000000000000000
310
00000000000000000000000000000000000000000000000000000000000000000000000000000000000000000000000000000000070000000000000000000000000000000700000000000000000000000000000000000000000000000000000000000000000000000000000000000000000000000000000000000000000000
310
00000000000000000000000000000000000000000000000000000000000000000000000000000000000000000000000000000000000000000000000000000000000000000000000000000000000000000000000000000000000000000000000000000000000000000007000000000000000000000000000000070000000000
310
00000000000000000000000000000000000000000000000000000000000000000000000000000000000000000000000000000000000000000000000000000000000000000000000000000000000000000000000000000000000000000000000000000000000000000000000000000000000000000000000000000000000000
310
00000000000000000000000000000000000000000000000000000000000000070000000000000000000000000000000700000000000000000000000000000000000000000000000000000000000000000000000000000000000000000000000000000000000000000000000000000000000000000000000000000000000000
310
00000000000000000000000000000000000000000000000000000000000000000000000000000000000000000000000000000000000000000000000000000000000000000000000000000000000000000000000007070707070707070007070707070707070000000000000000000000000000000000000000000000000000
310
00000000000000000000000000000000000000000000000000000000000000000000000000000000000000000000000000000000000000000000000000000000000000000000000000000000000000000000000000000000000000000000000000000000000000000000000000000000000000000000000000000000000000
310
000000000000000000000000000000000000000000000000000000000000000000000000000000000000000000000000000000000000000000000000000000000000000000000000000000000000000000000000000000000000000000000000000000000000000000000000
  0
ENDSEC
  0
EOF
