  0
SECTION
  2
HEADER
  9
$ACADVER
  1
AC1014
  9
$ACADMAINTVER
 70
     9
  9
$DWGCODEPAGE
  3
ANSI_1252
  9
$INSBASE
 10
0.0
 20
0.0
 30
0.0
  9
$EXTMIN
 10
0.0
 20
-0.0000000000000058
 30
0.0
  9
$EXTMAX
 10
422.0
 20
52.0
 30
0.0
  9
$LIMMIN
 10
0.0
 20
0.0
  9
$LIMMAX
 10
12.0
 20
9.0
  9
$ORTHOMODE
 70
     0
  9
$REGENMODE
 70
     1
  9
$FILLMODE
 70
     1
  9
$QTEXTMODE
 70
     0
  9
$MIRRTEXT
 70
     1
  9
$DRAGMODE
 70
     2
  9
$LTSCALE
 40
1.0
  9
$OSMODE
 70
    37
  9
$ATTMODE
 70
     1
  9
$TEXTSIZE
 40
0.2
  9
$TRACEWID
 40
0.05
  9
$TEXTSTYLE
  7
STANDARD
  9
$CLAYER
  8
0
  9
$CELTYPE
  6
CONTINUOUS
  9
$CECOLOR
 62
   256
  9
$CELTSCALE
 40
1.0
  9
$DELOBJ
 70
     1
  9
$DISPSILH
 70
     0
  9
$DIMSCALE
 40
1.0
  9
$DIMASZ
 40
0.18
  9
$DIMEXO
 40
0.0625
  9
$DIMDLI
 40
0.38
  9
$DIMRND
 40
0.0
  9
$DIMDLE
 40
0.0
  9
$DIMEXE
 40
0.18
  9
$DIMTP
 40
0.0
  9
$DIMTM
 40
0.0
  9
$DIMTXT
 40
0.18
  9
$DIMCEN
 40
0.09
  9
$DIMTSZ
 40
0.0
  9
$DIMTOL
 70
     0
  9
$DIMLIM
 70
     0
  9
$DIMTIH
 70
     1
  9
$DIMTOH
 70
     1
  9
$DIMSE1
 70
     0
  9
$DIMSE2
 70
     0
  9
$DIMTAD
 70
     0
  9
$DIMZIN
 70
     0
  9
$DIMBLK
  1

  9
$DIMASO
 70
     1
  9
$DIMSHO
 70
     1
  9
$DIMPOST
  1

  9
$DIMAPOST
  1

  9
$DIMALT
 70
     0
  9
$DIMALTD
 70
     2
  9
$DIMALTF
 40
25.4
  9
$DIMLFAC
 40
1.0
  9
$DIMTOFL
 70
     0
  9
$DIMTVP
 40
0.0
  9
$DIMTIX
 70
     0
  9
$DIMSOXD
 70
     0
  9
$DIMSAH
 70
     0
  9
$DIMBLK1
  1

  9
$DIMBLK2
  1

  9
$DIMSTYLE
  2
STANDARD
  9
$DIMCLRD
 70
     0
  9
$DIMCLRE
 70
     0
  9
$DIMCLRT
 70
     0
  9
$DIMTFAC
 40
1.0
  9
$DIMGAP
 40
0.09
  9
$DIMJUST
 70
     0
  9
$DIMSD1
 70
     0
  9
$DIMSD2
 70
     0
  9
$DIMTOLJ
 70
     1
  9
$DIMTZIN
 70
     0
  9
$DIMALTZ
 70
     0
  9
$DIMALTTZ
 70
     0
  9
$DIMFIT
 70
     3
  9
$DIMUPT
 70
     0
  9
$DIMUNIT
 70
     2
  9
$DIMDEC
 70
     4
  9
$DIMTDEC
 70
     4
  9
$DIMALTU
 70
     2
  9
$DIMALTTD
 70
     2
  9
$DIMTXSTY
  7
STANDARD
  9
$DIMAUNIT
 70
     0
  9
$LUNITS
 70
     2
  9
$LUPREC
 70
     4
  9
$SKETCHINC
 40
0.1
  9
$FILLETRAD
 40
0.0
  9
$AUNITS
 70
     0
  9
$AUPREC
 70
     0
  9
$MENU
  1
.
  9
$ELEVATION
 40
0.0
  9
$PELEVATION
 40
0.0
  9
$THICKNESS
 40
0.0
  9
$LIMCHECK
 70
     0
  9
$BLIPMODE
 70
     0
  9
$CHAMFERA
 40
0.0
  9
$CHAMFERB
 40
0.0
  9
$CHAMFERC
 40
0.0
  9
$CHAMFERD
 40
0.0
  9
$SKPOLY
 70
     0
  9
$TDCREATE
 40
2455236.852805439
  9
$TDUPDATE
 40
2455236.860186447
  9
$TDINDWG
 40
0.0073811921
  9
$TDUSRTIMER
 40
0.0073811921
  9
$USRTIMER
 70
     1
  9
$ANGBASE
 50
0.0
  9
$ANGDIR
 70
     0
  9
$PDMODE
 70
     0
  9
$PDSIZE
 40
0.0
  9
$PLINEWID
 40
0.0
  9
$COORDS
 70
     1
  9
$SPLFRAME
 70
     0
  9
$SPLINETYPE
 70
     6
  9
$SPLINESEGS
 70
     8
  9
$ATTDIA
 70
     0
  9
$ATTREQ
 70
     1
  9
$HANDLING
 70
 22529
  9
$HANDSEED
  5
926
  9
$SURFTAB1
 70
     6
  9
$SURFTAB2
 70
     6
  9
$SURFTYPE
 70
     6
  9
$SURFU
 70
     6
  9
$SURFV
 70
     6
  9
$UCSNAME
  2

  9
$UCSORG
 10
0.0
 20
0.0
 30
0.0
  9
$UCSXDIR
 10
1.0
 20
0.0
 30
0.0
  9
$UCSYDIR
 10
0.0
 20
1.0
 30
0.0
  9
$PUCSNAME
  2

  9
$PUCSORG
 10
0.0
 20
0.0
 30
0.0
  9
$PUCSXDIR
 10
1.0
 20
0.0
 30
0.0
  9
$PUCSYDIR
 10
0.0
 20
1.0
 30
0.0
  9
$USERI1
 70
     0
  9
$USERI2
 70
     0
  9
$USERI3
 70
     0
  9
$USERI4
 70
     0
  9
$USERI5
 70
     0
  9
$USERR1
 40
0.0
  9
$USERR2
 40
0.0
  9
$USERR3
 40
0.0
  9
$USERR4
 40
0.0
  9
$USERR5
 40
0.0
  9
$WORLDVIEW
 70
     1
  9
$SHADEDGE
 70
     3
  9
$SHADEDIF
 70
    70
  9
$TILEMODE
 70
     1
  9
$MAXACTVP
 70
    64
  9
$PINSBASE
 10
0.0
 20
0.0
 30
0.0
  9
$PLIMCHECK
 70
     0
  9
$PEXTMIN
 10
1.000000000000000E+20
 20
1.000000000000000E+20
 30
1.000000000000000E+20
  9
$PEXTMAX
 10
-1.000000000000000E+20
 20
-1.000000000000000E+20
 30
-1.000000000000000E+20
  9
$PLIMMIN
 10
0.0
 20
0.0
  9
$PLIMMAX
 10
12.0
 20
9.0
  9
$UNITMODE
 70
     0
  9
$VISRETAIN
 70
     1
  9
$PLINEGEN
 70
     0
  9
$PSLTSCALE
 70
     1
  9
$TREEDEPTH
 70
  3020
  9
$PICKSTYLE
 70
     1
  9
$CMLSTYLE
  2
STANDARD
  9
$CMLJUST
 70
     0
  9
$CMLSCALE
 40
1.0
  9
$PROXYGRAPHICS
 70
     1
  9
$MEASUREMENT
 70
     0
  0
ENDSEC
  0
SECTION
  2
CLASSES
  0
CLASS
  1
ACDBDICTIONARYWDFLT
  2
AcDbDictionaryWithDefault
  3
AutoCAD 2000
 90
        0
280
     0
281
     0
  0
CLASS
  1
ACDBPLACEHOLDER
  2
AcDbPlaceHolder
  3
AutoCAD 2000
 90
        0
280
     0
281
     0
  0
CLASS
  1
LAYOUT
  2
AcDbLayout
  3
AutoCAD 2000
 90
        0
280
     0
281
     0
  0
CLASS
  1
DICTIONARYVAR
  2
AcDbDictionaryVar
  3
AutoCAD 2000
 90
        0
280
     0
281
     0
  0
CLASS
  1
LONG_TRANSACTION
  2
AcDbLongTransaction
  3
AutoCAD 2000
 90
        0
280
     0
281
     0
  0
CLASS
  1
LWPOLYLINE
  2
AcDbPolyline
  3
AutoCAD 2000
 90
        0
280
     0
281
     1
  0
CLASS
  1
HATCH
  2
AcDbHatch
  3
AutoCAD 2000
 90
        0
280
     0
281
     1
  0
CLASS
  1
XRECORD
  2
AcDbXrecord
  3
AutoCAD 2000
 90
        0
280
     0
281
     0
  0
ENDSEC
  0
SECTION
  2
TABLES
  0
TABLE
  2
VPORT
  5
8
330
0
100
AcDbSymbolTable
 70
     3
  0
VPORT
  5
901
330
8
100
AcDbSymbolTableRecord
100
AcDbViewportTableRecord
  2
*ACTIVE
 70
     0
 10
0.0
 20
0.0
 11
1.0
 21
1.0
 12
211.0
 22
25.99999999999999
 13
0.0
 23
0.0
 14
1.0
 24
1.0
 15
0.0
 25
0.0
 16
0.0
 26
0.0
 36
1.0
 17
0.0
 27
0.0
 37
0.0
 40
207.3634796166104
 41
2.041621029572836
 42
50.0
 43
0.0
 44
0.0
 50
0.0
 51
0.0
 71
     0
 72
   100
 73
     1
 74
     3
 75
     0
 76
     0
 77
     0
 78
     0
  0
ENDTAB
  0
TABLE
  2
LTYPE
  5
5
330
0
100
AcDbSymbolTable
 70
     1
  0
LTYPE
  5
13
330
5
100
AcDbSymbolTableRecord
100
AcDbLinetypeTableRecord
  2
BYBLOCK
 70
     0
  3

 72
    65
 73
     0
 40
0.0
  0
LTYPE
  5
14
330
5
100
AcDbSymbolTableRecord
100
AcDbLinetypeTableRecord
  2
BYLAYER
 70
     0
  3

 72
    65
 73
     0
 40
0.0
  0
LTYPE
  5
15
330
5
100
AcDbSymbolTableRecord
100
AcDbLinetypeTableRecord
  2
CONTINUOUS
 70
     0
  3
Solid line
 72
    65
 73
     0
 40
0.0
  0
ENDTAB
  0
TABLE
  2
LAYER
  5
2
330
0
100
AcDbSymbolTable
 70
     1
  0
LAYER
  5
10
330
2
100
AcDbSymbolTableRecord
100
AcDbLayerTableRecord
  2
0
 70
     0
 62
     7
  6
CONTINUOUS
  0
ENDTAB
  0
TABLE
  2
STYLE
  5
3
330
0
100
AcDbSymbolTable
 70
     1
  0
STYLE
  5
11
330
3
100
AcDbSymbolTableRecord
100
AcDbTextStyleTableRecord
  2
STANDARD
 70
     0
 40
0.0
 41
1.0
 50
0.0
 71
     0
 42
0.2
  3
txt
  4

  0
ENDTAB
  0
TABLE
  2
VIEW
  5
6
330
0
100
AcDbSymbolTable
 70
     0
  0
ENDTAB
  0
TABLE
  2
UCS
  5
7
330
0
100
AcDbSymbolTable
 70
     0
  0
ENDTAB
  0
TABLE
  2
APPID
  5
9
330
0
100
AcDbSymbolTable
 70
     1
  0
APPID
  5
12
330
9
100
AcDbSymbolTableRecord
100
AcDbRegAppTableRecord
  2
ACAD
 70
     0
  0
ENDTAB
  0
TABLE
  2
DIMSTYLE
  5
A
330
0
100
AcDbSymbolTable
 70
     1
  0
DIMSTYLE
105
6B7
330
A
100
AcDbSymbolTableRecord
100
AcDbDimStyleTableRecord
  2
STANDARD
 70
     0
  3

  4

  5

  6

  7

 40
1.0
 41
0.18
 42
0.0625
 43
0.38
 44
0.18
 45
0.0
 46
0.0
 47
0.0
 48
0.0
140
0.18
141
0.09
142
0.0
143
25.4
144
1.0
145
0.0
146
1.0
147
0.09
 71
     0
 72
     0
 73
     1
 74
     1
 75
     0
 76
     0
 77
     0
 78
     0
170
     0
171
     2
172
     0
173
     0
174
     0
175
     0
176
     0
177
     0
178
     0
270
     2
271
     4
272
     4
273
     2
274
     2
340
11
275
     0
280
     0
281
     0
282
     0
283
     1
284
     0
285
     0
286
     0
287
     3
288
     0
  0
ENDTAB
  0
TABLE
  2
BLOCK_RECORD
  5
1
330
0
100
AcDbSymbolTable
 70
     0
  0
BLOCK_RECORD
  5
1E
102
{ACAD_XDICTIONARY
360
924
102
}
330
1
100
AcDbSymbolTableRecord
100
AcDbBlockTableRecord
  2
*MODEL_SPACE
  0
BLOCK_RECORD
  5
1A
102
{ACAD_XDICTIONARY
360
922
102
}
330
1
100
AcDbSymbolTableRecord
100
AcDbBlockTableRecord
  2
*PAPER_SPACE
  0
ENDTAB
  0
ENDSEC
  0
SECTION
  2
BLOCKS
  0
BLOCK
  5
1F
330
1E
100
AcDbEntity
  8
0
100
AcDbBlockBegin
  2
*MODEL_SPACE
 70
     0
 10
0.0
 20
0.0
 30
0.0
  3
*MODEL_SPACE
  1

  0
ENDBLK
  5
20
330
1E
100
AcDbEntity
  8
0
100
AcDbBlockEnd
  0
BLOCK
  5
1B
330
1A
100
AcDbEntity
 67
     1
  8
0
100
AcDbBlockBegin
  2
*PAPER_SPACE
 70
     0
 10
0.0
 20
0.0
 30
0.0
  3
*PAPER_SPACE
  1

  0
ENDBLK
  5
1C
330
1A
100
AcDbEntity
 67
     1
  8
0
100
AcDbBlockEnd
  0
ENDSEC
  0
SECTION
  2
ENTITIES
  0
LINE
  5
22
330
1E
100
AcDbEntity
  8
0
100
AcDbLine
 10
15.624
 20
5.75599999999999
 30
0.0
 11
21.0
 21
4.99999999999999
 31
0.0
  0
LINE
  5
23
330
1E
100
AcDbEntity
  8
0
100
AcDbLine
 10
10.584
 20
7.772
 30
0.0
 11
15.624
 21
5.75599999999999
 31
0.0
  0
LINE
  5
24
330
1E
100
AcDbEntity
  8
0
100
AcDbLine
 10
21.0
 20
4.99999999999999
 30
0.0
 11
26.37599999999999
 21
5.75599999999999
 31
0.0
  0
LINE
  5
25
330
1E
100
AcDbEntity
  8
0
100
AcDbLine
 10
15.88
 20
6.719999999999999
 30
0.0
 11
21.0
 21
6.0
 31
0.0
  0
LINE
  5
26
330
1E
100
AcDbEntity
  8
0
100
AcDbLine
 10
6.13199999999997
 20
11.13199999999999
 30
0.0
 11
10.584
 21
7.772
 31
0.0
  0
LINE
  5
27
330
1E
100
AcDbEntity
  8
0
100
AcDbLine
 10
11.08
 20
8.64
 30
0.0
 11
15.88
 21
6.719999999999999
 31
0.0
  0
LINE
  5
28
330
1E
100
AcDbEntity
  8
0
100
AcDbLine
 10
21.0
 20
6.0
 30
0.0
 11
26.12
 21
6.719999999999999
 31
0.0
  0
LINE
  5
29
330
1E
100
AcDbEntity
  8
0
100
AcDbLine
 10
17.16
 20
11.53999999999999
 30
0.0
 11
21.0
 21
11.0
 31
0.0
  0
LINE
  5
2A
330
1E
100
AcDbEntity
  8
0
100
AcDbLine
 10
26.37599999999999
 20
5.75599999999999
 30
0.0
 11
31.416
 21
7.772
 31
0.0
  0
LINE
  5
2B
330
1E
100
AcDbEntity
  8
0
100
AcDbLine
 10
26.12
 20
6.719999999999999
 30
0.0
 11
30.92
 21
8.64
 31
0.0
  0
LINE
  5
2C
330
1E
100
AcDbEntity
  8
0
100
AcDbLine
 10
21.0
 20
11.0
 30
0.0
 11
24.83999999999999
 21
11.53999999999999
 31
0.0
  0
LINE
  5
2D
330
1E
100
AcDbEntity
  8
0
100
AcDbLine
 10
6.83999999999999
 20
11.83999999999999
 30
0.0
 11
11.08
 21
8.64
 31
0.0
  0
LINE
  5
2E
330
1E
100
AcDbEntity
  8
0
100
AcDbLine
 10
21.0
 20
15.0
 30
0.0
 11
23.816
 21
15.396
 31
0.0
  0
LINE
  5
2F
330
1E
100
AcDbEntity
  8
0
100
AcDbLine
 10
13.56
 20
12.98
 30
0.0
 11
17.16
 21
11.53999999999999
 31
0.0
  0
LINE
  5
30
330
1E
100
AcDbEntity
  8
0
100
AcDbLine
 10
10.38
 20
15.38
 30
0.0
 11
13.56
 21
12.98
 31
0.0
  0
LINE
  5
31
330
1E
100
AcDbEntity
  8
0
100
AcDbLine
 10
24.83999999999999
 20
11.53999999999999
 30
0.0
 11
28.44
 21
12.98
 31
0.0
  0
LINE
  5
32
330
1E
100
AcDbEntity
  8
0
100
AcDbLine
 10
31.416
 20
7.772
 30
0.0
 11
35.868
 21
11.13199999999999
 31
0.0
  0
LINE
  5
33
330
1E
100
AcDbEntity
  8
0
100
AcDbLine
 10
30.92
 20
8.64
 30
0.0
 11
35.16
 21
11.83999999999999
 31
0.0
  0
LINE
  5
34
330
1E
100
AcDbEntity
  8
0
100
AcDbLine
 10
28.44
 20
12.98
 30
0.0
 11
31.62
 21
15.38
 31
0.0
  0
LINE
  5
35
330
1E
100
AcDbEntity
  8
0
100
AcDbLine
 10
2.771999999999999
 20
15.584
 30
0.0
 11
6.13199999999997
 21
11.13199999999999
 31
0.0
  0
LINE
  5
36
330
1E
100
AcDbEntity
  8
0
100
AcDbLine
 10
3.639999999999979
 20
16.07999999999999
 30
0.0
 11
6.83999999999999
 21
11.83999999999999
 31
0.0
  0
LINE
  5
37
330
1E
100
AcDbEntity
  8
0
100
AcDbLine
 10
23.816
 20
15.396
 30
0.0
 11
26.45599999999999
 21
16.452
 31
0.0
  0
LINE
  5
38
330
1E
100
AcDbEntity
  8
0
100
AcDbLine
 10
26.45599999999999
 20
16.452
 30
0.0
 11
28.788
 21
18.212
 31
0.0
  0
LINE
  5
39
330
1E
100
AcDbEntity
  8
0
100
AcDbLine
 10
18.184
 20
15.396
 30
0.0
 11
21.0
 21
15.0
 31
0.0
  0
LINE
  5
3A
330
1E
100
AcDbEntity
  8
0
100
AcDbLine
 10
20.011
 20
17.3443
 30
0.0
 11
20.537
 21
17.0631
 31
0.0
  0
LINE
  5
3C
330
1E
100
AcDbEntity
  8
0
100
AcDbLine
 10
21.463
 20
17.0631
 30
0.0
 11
21.989
 21
17.3443
 31
0.0
  0
LINE
  5
3D
330
1E
100
AcDbEntity
  8
0
100
AcDbLine
 10
21.463
 20
17.0631
 30
0.0
 11
21.989
 21
17.3443
 31
0.0
  0
LINE
  5
41
330
1E
100
AcDbEntity
  8
0
100
AcDbLine
 10
21.989
 20
17.3443
 30
0.0
 11
23.176
 21
18.0075
 31
0.0
  0
LINE
  5
42
330
1E
100
AcDbEntity
  8
0
100
AcDbLine
 10
21.989
 20
17.3443
 30
0.0
 11
23.176
 21
18.0075
 31
0.0
  0
LINE
  5
43
330
1E
100
AcDbEntity
  8
0
100
AcDbLine
 10
23.176
 20
18.0075
 30
0.0
 11
25.072
 21
19.0962
 31
0.0
  0
LINE
  5
44
330
1E
100
AcDbEntity
  8
0
100
AcDbLine
 10
23.176
 20
18.0075
 30
0.0
 11
25.072
 21
19.0962
 31
0.0
  0
LINE
  5
49
330
1E
100
AcDbEntity
  8
0
100
AcDbLine
 10
20.537
 20
17.0631
 30
0.0
 11
21.0
 21
17.0
 31
0.0
  0
LINE
  5
4A
330
1E
100
AcDbEntity
  8
0
100
AcDbLine
 10
20.011
 20
17.3443
 30
0.0
 11
20.537
 21
17.0631
 31
0.0
  0
LINE
  5
4C
330
1E
100
AcDbEntity
  8
0
100
AcDbLine
 10
18.824
 20
18.0075
 30
0.0
 11
20.011
 21
17.3443
 31
0.0
  0
LINE
  5
4D
330
1E
100
AcDbEntity
  8
0
100
AcDbLine
 10
18.824
 20
18.0075
 30
0.0
 11
20.011
 21
17.3443
 31
0.0
  0
LINE
  5
50
330
1E
100
AcDbEntity
  8
0
100
AcDbLine
 10
16.928
 20
19.0962
 30
0.0
 11
18.824
 21
18.0075
 31
0.0
  0
LINE
  5
53
330
1E
100
AcDbEntity
  8
0
100
AcDbLine
 10
25.072
 20
19.0962
 30
0.0
 11
26.979
 21
20.19089999999999
 31
0.0
  0
LINE
  5
55
330
1E
100
AcDbEntity
  8
0
100
AcDbLine
 10
25.072
 20
19.0962
 30
0.0
 11
26.979
 21
20.19089999999999
 31
0.0
  0
LINE
  5
57
330
1E
100
AcDbEntity
  8
0
100
AcDbLine
 10
16.928
 20
19.0962
 30
0.0
 11
18.824
 21
18.0075
 31
0.0
  0
LINE
  5
59
330
1E
100
AcDbEntity
  8
0
100
AcDbLine
 10
13.212
 20
18.212
 30
0.0
 11
15.544
 21
16.452
 31
0.0
  0
LINE
  5
5A
330
1E
100
AcDbEntity
  8
0
100
AcDbLine
 10
28.788
 20
18.212
 30
0.0
 11
30.548
 21
20.544
 31
0.0
  0
LINE
  5
5B
330
1E
100
AcDbEntity
  8
0
100
AcDbLine
 10
15.544
 20
16.452
 30
0.0
 11
18.184
 21
15.396
 31
0.0
  0
LINE
  5
5C
330
1E
100
AcDbEntity
  8
0
100
AcDbLine
 10
7.97999999999998
 20
18.55999999999999
 30
0.0
 11
10.38
 21
15.38
 31
0.0
  0
LINE
  5
5D
330
1E
100
AcDbEntity
  8
0
100
AcDbLine
 10
31.62
 20
15.38
 30
0.0
 11
34.02
 21
18.55999999999999
 31
0.0
  0
LINE
  5
5E
330
1E
100
AcDbEntity
  8
0
100
AcDbLine
 10
35.868
 20
11.13199999999999
 30
0.0
 11
39.228
 21
15.584
 31
0.0
  0
LINE
  5
5F
330
1E
100
AcDbEntity
  8
0
100
AcDbLine
 10
39.228
 20
15.584
 30
0.0
 11
41.244
 21
20.624
 31
0.0
  0
LINE
  5
60
330
1E
100
AcDbEntity
  8
0
100
AcDbLine
 10
35.16
 20
11.83999999999999
 30
0.0
 11
38.36
 21
16.07999999999999
 31
0.0
  0
LINE
  5
61
330
1E
100
AcDbEntity
  8
0
100
AcDbLine
 10
38.36
 20
16.07999999999999
 30
0.0
 11
40.28
 21
20.88
 31
0.0
  0
LINE
  5
62
330
1E
100
AcDbEntity
  8
0
100
AcDbLine
 10
39.7944
 20
17.0
 30
0.0
 11
46.0
 21
17.0
 31
0.0
  0
LINE
  5
63
330
1E
100
AcDbEntity
  8
0
100
AcDbLine
 10
46.0
 20
17.0
 30
0.0
 11
46.0
 21
17.324
 31
0.0
  0
LINE
  5
64
330
1E
100
AcDbEntity
  8
0
100
AcDbLine
 10
46.0
 20
17.324
 30
0.0
 11
46.0
 21
17.0
 31
0.0
  0
LINE
  5
65
330
1E
100
AcDbEntity
  8
0
100
AcDbLine
 10
46.0
 20
17.324
 30
0.0
 11
46.0
 21
18.18799999999999
 31
0.0
  0
LINE
  5
66
330
1E
100
AcDbEntity
  8
0
100
AcDbLine
 10
46.0
 20
19.0
 30
0.0
 11
52.0
 21
19.0
 31
0.0
  0
LINE
  5
67
330
1E
100
AcDbEntity
  8
0
100
AcDbLine
 10
52.0
 20
19.0
 30
0.0
 11
52.0
 21
19.252
 31
0.0
  0
LINE
  5
68
330
1E
100
AcDbEntity
  8
0
100
AcDbLine
 10
46.0
 20
18.18799999999999
 30
0.0
 11
46.0
 21
17.324
 31
0.0
  0
LINE
  5
69
330
1E
100
AcDbEntity
  8
0
100
AcDbLine
 10
46.0
 20
18.18799999999999
 30
0.0
 11
46.0
 21
19.628
 31
0.0
  0
LINE
  5
6A
330
1E
100
AcDbEntity
  8
0
100
AcDbLine
 10
34.02
 20
18.55999999999999
 30
0.0
 11
35.46
 21
22.16
 31
0.0
  0
LINE
  5
6B
330
1E
100
AcDbEntity
  8
0
100
AcDbLine
 10
52.0
 20
19.252
 30
0.0
 11
52.0
 21
19.0
 31
0.0
  0
LINE
  5
6C
330
1E
100
AcDbEntity
  8
0
100
AcDbLine
 10
52.0
 20
19.252
 30
0.0
 11
52.0
 21
19.92399999999999
 31
0.0
  0
LINE
  5
6D
330
1E
100
AcDbEntity
  8
0
100
AcDbLine
 10
52.4762
 20
19.2678
 30
0.0
 11
52.4762
 21
19.1591
 31
0.0
  0
LINE
  5
6E
330
1E
100
AcDbEntity
  8
0
100
AcDbLine
 10
52.4762
 20
19.1591
 30
0.0
 11
52.95239999999999
 21
19.0
 31
0.0
  0
LINE
  5
6F
330
1E
100
AcDbEntity
  8
0
100
AcDbLine
 10
52.4762
 20
19.1591
 30
0.0
 11
52.4762
 21
19.2678
 31
0.0
  0
LINE
  5
70
330
1E
100
AcDbEntity
  8
0
100
AcDbLine
 10
61.0476
 20
19.0
 30
0.0
 11
61.5238
 21
19.1591
 31
0.0
  0
LINE
  5
71
330
1E
100
AcDbEntity
  8
0
100
AcDbLine
 10
61.5238
 20
19.2678
 30
0.0
 11
61.8007
 21
19.7836
 31
0.0
  0
LINE
  5
72
330
1E
100
AcDbEntity
  8
0
100
AcDbLine
 10
61.5238
 20
19.2678
 30
0.0
 11
61.5238
 21
19.1591
 31
0.0
  0
LINE
  5
73
330
1E
100
AcDbEntity
  8
0
100
AcDbLine
 10
61.5238
 20
19.1591
 30
0.0
 11
61.8571
 21
19.6363
 31
0.0
  0
LINE
  5
75
330
1E
100
AcDbEntity
  8
0
100
AcDbLine
 10
61.5238
 20
19.1591
 30
0.0
 11
61.5238
 21
19.2678
 31
0.0
  0
LINE
  5
76
330
1E
100
AcDbEntity
  8
0
100
AcDbLine
 10
52.95239999999999
 20
19.0
 30
0.0
 11
61.0476
 21
19.0
 31
0.0
  0
LINE
  5
7B
330
1E
100
AcDbEntity
  8
0
100
AcDbLine
 10
46.0
 20
19.628
 30
0.0
 11
46.0
 21
18.18799999999999
 31
0.0
  0
LINE
  5
7C
330
1E
100
AcDbEntity
  8
0
100
AcDbLine
 10
46.0
 20
19.628
 30
0.0
 11
46.0
 21
21.53599999999999
 31
0.0
  0
LINE
  5
7F
330
1E
100
AcDbEntity
  8
0
100
AcDbLine
 10
61.8571
 20
19.6363
 30
0.0
 11
62.0
 21
20.1137
 31
0.0
  0
LINE
  5
80
330
1E
100
AcDbEntity
  8
0
100
AcDbLine
 10
52.1429
 20
19.6363
 30
0.0
 11
52.4762
 21
19.1591
 31
0.0
  0
LINE
  5
89
330
1E
100
AcDbEntity
  8
0
100
AcDbLine
 10
52.0
 20
19.92399999999999
 30
0.0
 11
52.0
 21
19.252
 31
0.0
  0
LINE
  5
8A
330
1E
100
AcDbEntity
  8
0
100
AcDbLine
 10
52.0
 20
19.92399999999999
 30
0.0
 11
52.0
 21
21.044
 31
0.0
  0
LINE
  5
8B
330
1E
100
AcDbEntity
  8
0
100
AcDbLine
 10
52.1993
 20
19.7836
 30
0.0
 11
52.4762
 21
19.2678
 31
0.0
  0
LINE
  5
8C
330
1E
100
AcDbEntity
  8
0
100
AcDbLine
 10
62.0
 20
20.1137
 30
0.0
 11
62.0
 21
20.3363
 31
0.0
  0
LINE
  5
8D
330
1E
100
AcDbEntity
  8
0
100
AcDbLine
 10
61.8007
 20
19.7836
 30
0.0
 11
61.9038
 21
20.6304
 31
0.0
  0
LINE
  5
91
330
1E
100
AcDbEntity
  8
0
100
AcDbLine
 10
26.979
 20
20.19089999999999
 30
0.0
 11
28.314
 21
20.95759999999999
 31
0.0
  0
LINE
  5
94
330
1E
100
AcDbEntity
  8
0
100
AcDbLine
 10
15.02099999999999
 20
20.19089999999999
 30
0.0
 11
16.928
 21
19.0962
 31
0.0
  0
LINE
  5
95
330
1E
100
AcDbEntity
  8
0
100
AcDbLine
 10
15.02099999999999
 20
20.19089999999999
 30
0.0
 11
16.928
 21
19.0962
 31
0.0
  0
LINE
  5
99
330
1E
100
AcDbEntity
  8
0
100
AcDbLine
 10
62.0
 20
20.3363
 30
0.0
 11
62.0
 21
20.1137
 31
0.0
  0
LINE
  5
9A
330
1E
100
AcDbEntity
  8
0
100
AcDbLine
 10
62.0
 20
20.3363
 30
0.0
 11
62.0
 21
20.9091
 31
0.0
  0
LINE
  5
9B
330
1E
100
AcDbEntity
  8
0
100
AcDbLine
 10
52.0
 20
20.1137
 30
0.0
 11
52.1429
 21
19.6363
 31
0.0
  0
LINE
  5
A1
330
1E
100
AcDbEntity
  8
0
100
AcDbLine
 10
121.0
 20
17.0
 30
0.0
 11
121.0
 21
17.324
 31
0.0
  0
LINE
  5
A2
330
1E
100
AcDbEntity
  8
0
100
AcDbLine
 10
121.0
 20
17.0
 30
0.0
 11
121.8736
 21
17.0
 31
0.0
  0
LINE
  5
A3
330
1E
100
AcDbEntity
  8
0
100
AcDbLine
 10
121.0
 20
19.0
 30
0.0
 11
121.0
 21
18.18799999999999
 31
0.0
  0
LINE
  5
A4
330
1E
100
AcDbEntity
  8
0
100
AcDbLine
 10
121.0
 20
17.324
 30
0.0
 11
121.0
 21
17.0
 31
0.0
  0
LINE
  5
A5
330
1E
100
AcDbEntity
  8
0
100
AcDbLine
 10
121.0
 20
17.324
 30
0.0
 11
121.0
 21
18.18799999999999
 31
0.0
  0
LINE
  5
A6
330
1E
100
AcDbEntity
  8
0
100
AcDbLine
 10
121.0
 20
18.18799999999999
 30
0.0
 11
121.0
 21
17.324
 31
0.0
  0
LINE
  5
A7
330
1E
100
AcDbEntity
  8
0
100
AcDbLine
 10
121.0
 20
18.18799999999999
 30
0.0
 11
121.0
 21
19.184
 31
0.0
  0
LINE
  5
A8
330
1E
100
AcDbEntity
  8
0
100
AcDbLine
 10
121.0
 20
18.18799999999999
 30
0.0
 11
121.0
 21
19.0
 31
0.0
  0
LINE
  5
B5
330
1E
100
AcDbEntity
  8
0
100
AcDbLine
 10
120.9359999999999
 20
19.344
 30
0.0
 11
123.432
 21
13.104
 31
0.0
  0
LINE
  5
B6
330
1E
100
AcDbEntity
  8
0
100
AcDbLine
 10
121.0
 20
19.184
 30
0.0
 11
121.0
 21
19.0
 31
0.0
  0
LINE
  5
B7
330
1E
100
AcDbEntity
  8
0
100
AcDbLine
 10
121.0
 20
19.184
 30
0.0
 11
121.0
 21
18.18799999999999
 31
0.0
  0
LINE
  5
C1
330
1E
100
AcDbEntity
  8
0
100
AcDbLine
 10
0.7560000000000161
 20
20.624
 30
0.0
 11
2.771999999999999
 21
15.584
 31
0.0
  0
LINE
  5
C5
330
1E
100
AcDbEntity
  8
0
100
AcDbLine
 10
41.244
 20
20.624
 30
0.0
 11
42.0
 21
26.0
 31
0.0
  0
LINE
  5
C6
330
1E
100
AcDbEntity
  8
0
100
AcDbLine
 10
30.548
 20
20.544
 30
0.0
 11
31.604
 21
23.184
 31
0.0
  0
LINE
  5
C7
330
1E
100
AcDbEntity
  8
0
100
AcDbLine
 10
11.45199999999999
 20
20.544
 30
0.0
 11
13.212
 21
18.212
 31
0.0
  0
LINE
  5
CA
330
1E
100
AcDbEntity
  8
0
100
AcDbLine
 10
1.719999999999989
 20
20.88
 30
0.0
 11
3.639999999999979
 21
16.07999999999999
 31
0.0
  0
LINE
  5
CB
330
1E
100
AcDbEntity
  8
0
100
AcDbLine
 10
40.28
 20
20.88
 30
0.0
 11
41.0
 21
26.0
 31
0.0
  0
LINE
  5
CF
330
1E
100
AcDbEntity
  8
0
100
AcDbLine
 10
52.0963
 20
20.6304
 30
0.0
 11
52.1732
 21
21.48179999999999
 31
0.0
  0
LINE
  5
D0
330
1E
100
AcDbEntity
  8
0
100
AcDbLine
 10
52.0963
 20
20.6304
 30
0.0
 11
52.1993
 21
19.7836
 31
0.0
  0
LINE
  5
D1
330
1E
100
AcDbEntity
  8
0
100
AcDbLine
 10
62.0
 20
20.9091
 30
0.0
 11
62.0
 21
21.8318
 31
0.0
  0
LINE
  5
D2
330
1E
100
AcDbEntity
  8
0
100
AcDbLine
 10
62.0
 20
20.9091
 30
0.0
 11
62.0
 21
20.3363
 31
0.0
  0
LINE
  5
D6
330
1E
100
AcDbEntity
  8
0
100
AcDbLine
 10
28.314
 20
20.95759999999999
 30
0.0
 11
28.794
 21
21.23299999999999
 31
0.0
  0
LINE
  5
D9
330
1E
100
AcDbEntity
  8
0
100
AcDbLine
 10
13.686
 20
20.95759999999999
 30
0.0
 11
15.02099999999999
 21
20.19089999999999
 31
0.0
  0
LINE
  5
DA
330
1E
100
AcDbEntity
  8
0
100
AcDbLine
 10
62.0
 20
21.0
 30
0.0
 11
105.0
 21
21.0
 31
0.0
  0
LINE
  5
DF
330
1E
100
AcDbEntity
  8
0
100
AcDbLine
 10
28.794
 20
21.23299999999999
 30
0.0
 11
29.0
 21
21.4886
 31
0.0
  0
LINE
  5
E0
330
1E
100
AcDbEntity
  8
0
100
AcDbLine
 10
29.0
 20
21.4886
 30
0.0
 11
29.0
 21
22.02789999999999
 31
0.0
  0
LINE
  5
E2
330
1E
100
AcDbEntity
  8
0
100
AcDbLine
 10
13.20599999999999
 20
21.23299999999999
 30
0.0
 11
13.686
 21
20.95759999999999
 31
0.0
  0
LINE
  5
E3
330
1E
100
AcDbEntity
  8
0
100
AcDbLine
 10
46.0
 20
21.53599999999999
 30
0.0
 11
46.0
 21
19.628
 31
0.0
  0
LINE
  5
E4
330
1E
100
AcDbEntity
  8
0
100
AcDbLine
 10
46.0
 20
21.53599999999999
 30
0.0
 11
46.0
 21
23.69599999999999
 31
0.0
  0
LINE
  5
EC
330
1E
100
AcDbEntity
  8
0
100
AcDbLine
 10
13.0
 20
21.4886
 30
0.0
 11
13.0
 21
22.02789999999999
 31
0.0
  0
LINE
  5
ED
330
1E
100
AcDbEntity
  8
0
100
AcDbLine
 10
13.0
 20
21.4886
 30
0.0
 11
13.20599999999999
 21
21.23299999999999
 31
0.0
  0
LINE
  5
F0
330
1E
100
AcDbEntity
  8
0
100
AcDbLine
 10
52.0
 20
21.8318
 30
0.0
 11
52.0
 21
23.0727
 31
0.0
  0
LINE
  5
F2
330
1E
100
AcDbEntity
  8
0
100
AcDbLine
 10
62.0
 20
21.8318
 30
0.0
 11
62.0
 21
23.0727
 31
0.0
  0
LINE
  5
F3
330
1E
100
AcDbEntity
  8
0
100
AcDbLine
 10
62.0
 20
21.8318
 30
0.0
 11
62.0
 21
20.9091
 31
0.0
  0
LINE
  5
F4
330
1E
100
AcDbEntity
  8
0
100
AcDbLine
 10
61.8269
 20
21.48179999999999
 30
0.0
 11
61.9038
 21
20.6304
 31
0.0
  0
LINE
  5
F7
330
1E
100
AcDbEntity
  8
0
100
AcDbLine
 10
52.1732
 20
21.48179999999999
 30
0.0
 11
52.4762
 21
22.07809999999999
 31
0.0
  0
LINE
  5
F8
330
1E
100
AcDbEntity
  8
0
100
AcDbLine
 10
52.0
 20
21.044
 30
0.0
 11
52.0
 21
19.92399999999999
 31
0.0
  0
LINE
  5
F9
330
1E
100
AcDbEntity
  8
0
100
AcDbLine
 10
52.0
 20
21.044
 30
0.0
 11
52.0
 21
22.528
 31
0.0
  0
LINE
  5
FE
330
1E
100
AcDbEntity
  8
0
100
AcDbLine
 10
29.0
 20
22.02789999999999
 30
0.0
 11
29.0
 21
23.93819999999999
 31
0.0
  0
LINE
  5
FF
330
1E
100
AcDbEntity
  8
0
100
AcDbLine
 10
29.0
 20
22.02789999999999
 30
0.0
 11
29.0
 21
21.4886
 31
0.0
  0
LINE
  5
102
330
1E
100
AcDbEntity
  8
0
100
AcDbLine
 10
13.0
 20
22.02789999999999
 30
0.0
 11
13.0
 21
23.93819999999999
 31
0.0
  0
LINE
  5
103
330
1E
100
AcDbEntity
  8
0
100
AcDbLine
 10
13.0
 20
22.02789999999999
 30
0.0
 11
13.0
 21
21.4886
 31
0.0
  0
LINE
  5
105
330
1E
100
AcDbEntity
  8
0
100
AcDbLine
 10
6.54
 20
22.16
 30
0.0
 11
7.97999999999998
 21
18.55999999999999
 31
0.0
  0
LINE
  5
109
330
1E
100
AcDbEntity
  8
0
100
AcDbLine
 10
35.46
 20
22.16
 30
0.0
 11
36.0
 21
26.0
 31
0.0
  0
LINE
  5
10A
330
1E
100
AcDbEntity
  8
0
100
AcDbLine
 10
52.4762
 20
22.07809999999999
 30
0.0
 11
52.4762
 21
22.5954
 31
0.0
  0
LINE
  5
10B
330
1E
100
AcDbEntity
  8
0
100
AcDbLine
 10
52.0
 20
22.528
 30
0.0
 11
52.0
 21
21.044
 31
0.0
  0
LINE
  5
10C
330
1E
100
AcDbEntity
  8
0
100
AcDbLine
 10
52.0
 20
22.528
 30
0.0
 11
52.0
 21
24.208
 31
0.0
  0
LINE
  5
10F
330
1E
100
AcDbEntity
  8
0
100
AcDbLine
 10
52.4762
 20
22.5954
 30
0.0
 11
52.4762
 21
22.91059999999999
 31
0.0
  0
LINE
  5
110
330
1E
100
AcDbEntity
  8
0
100
AcDbLine
 10
52.4762
 20
22.5954
 30
0.0
 11
52.4762
 21
22.07809999999999
 31
0.0
  0
LINE
  5
111
330
1E
100
AcDbEntity
  8
0
100
AcDbLine
 10
52.95239999999999
 20
22.49109999999999
 30
0.0
 11
61.0476
 21
22.49109999999999
 31
0.0
  0
LINE
  5
116
330
1E
100
AcDbEntity
  8
0
100
AcDbLine
 10
21.0
 20
23.0
 30
0.0
 11
21.768
 21
23.10799999999999
 31
0.0
  0
LINE
  5
117
330
1E
100
AcDbEntity
  8
0
100
AcDbLine
 10
21.0
 20
23.0
 30
0.0
 11
21.768
 21
23.10799999999999
 31
0.0
  0
LINE
  5
11A
330
1E
100
AcDbEntity
  8
0
100
AcDbLine
 10
52.0
 20
23.0727
 30
0.0
 11
52.0
 21
21.8318
 31
0.0
  0
LINE
  5
11C
330
1E
100
AcDbEntity
  8
0
100
AcDbLine
 10
52.4762
 20
22.91059999999999
 30
0.0
 11
52.4762
 21
22.5954
 31
0.0
  0
LINE
  5
11F
330
1E
100
AcDbEntity
  8
0
100
AcDbLine
 10
61.5238
 20
22.5954
 30
0.0
 11
61.5238
 21
22.91059999999999
 31
0.0
  0
LINE
  5
122
330
1E
100
AcDbEntity
  8
0
100
AcDbLine
 10
61.5238
 20
22.91059999999999
 30
0.0
 11
61.8857
 21
24.3963
 31
0.0
  0
LINE
  5
123
330
1E
100
AcDbEntity
  8
0
100
AcDbLine
 10
61.5238
 20
22.91059999999999
 30
0.0
 11
61.5238
 21
22.5954
 31
0.0
  0
LINE
  5
124
330
1E
100
AcDbEntity
  8
0
100
AcDbLine
 10
62.0
 20
23.0727
 30
0.0
 11
62.0
 21
24.4727
 31
0.0
  0
LINE
  5
125
330
1E
100
AcDbEntity
  8
0
100
AcDbLine
 10
62.0
 20
23.0727
 30
0.0
 11
62.0
 21
21.8318
 31
0.0
  0
LINE
  5
126
330
1E
100
AcDbEntity
  8
0
100
AcDbLine
 10
61.5238
 20
22.07809999999999
 30
0.0
 11
61.8269
 21
21.48179999999999
 31
0.0
  0
LINE
  5
127
330
1E
100
AcDbEntity
  8
0
100
AcDbLine
 10
61.5238
 20
22.07809999999999
 30
0.0
 11
61.5238
 21
22.5954
 31
0.0
  0
LINE
  5
12A
330
1E
100
AcDbEntity
  8
0
100
AcDbLine
 10
20.232
 20
23.10799999999999
 30
0.0
 11
21.0
 21
23.0
 31
0.0
  0
LINE
  5
12B
330
1E
100
AcDbEntity
  8
0
100
AcDbLine
 10
20.232
 20
23.10799999999999
 30
0.0
 11
21.0
 21
23.0
 31
0.0
  0
LINE
  5
12C
330
1E
100
AcDbEntity
  8
0
100
AcDbLine
 10
21.768
 20
23.10799999999999
 30
0.0
 11
22.488
 21
23.396
 31
0.0
  0
LINE
  5
12D
330
1E
100
AcDbEntity
  8
0
100
AcDbLine
 10
21.768
 20
23.10799999999999
 30
0.0
 11
22.488
 21
23.396
 31
0.0
  0
LINE
  5
130
330
1E
100
AcDbEntity
  8
0
100
AcDbLine
 10
31.604
 20
23.184
 30
0.0
 11
32.0
 21
26.0
 31
0.0
  0
LINE
  5
131
330
1E
100
AcDbEntity
  8
0
100
AcDbLine
 10
19.512
 20
23.396
 30
0.0
 11
20.232
 21
23.10799999999999
 31
0.0
  0
LINE
  5
132
330
1E
100
AcDbEntity
  8
0
100
AcDbLine
 10
19.512
 20
23.396
 30
0.0
 11
20.232
 21
23.10799999999999
 31
0.0
  0
LINE
  5
133
330
1E
100
AcDbEntity
  8
0
100
AcDbLine
 10
18.87599999999999
 20
23.87599999999999
 30
0.0
 11
19.512
 21
23.396
 31
0.0
  0
LINE
  5
134
330
1E
100
AcDbEntity
  8
0
100
AcDbLine
 10
18.87599999999999
 20
23.87599999999999
 30
0.0
 11
19.512
 21
23.396
 31
0.0
  0
LINE
  5
135
330
1E
100
AcDbEntity
  8
0
100
AcDbLine
 10
22.488
 20
23.396
 30
0.0
 11
23.124
 21
23.87599999999999
 31
0.0
  0
LINE
  5
136
330
1E
100
AcDbEntity
  8
0
100
AcDbLine
 10
23.124
 20
23.87599999999999
 30
0.0
 11
23.60399999999999
 21
24.512
 31
0.0
  0
LINE
  5
139
330
1E
100
AcDbEntity
  8
0
100
AcDbLine
 10
46.0
 20
23.69599999999999
 30
0.0
 11
46.0
 21
21.53599999999999
 31
0.0
  0
LINE
  5
13A
330
1E
100
AcDbEntity
  8
0
100
AcDbLine
 10
46.0
 20
23.69599999999999
 30
0.0
 11
46.0
 21
26.0
 31
0.0
  0
LINE
  5
13B
330
1E
100
AcDbEntity
  8
0
100
AcDbLine
 10
29.0
 20
23.93819999999999
 30
0.0
 11
29.0
 21
26.0
 31
0.0
  0
LINE
  5
13C
330
1E
100
AcDbEntity
  8
0
100
AcDbLine
 10
29.0
 20
23.93819999999999
 30
0.0
 11
29.0
 21
22.02789999999999
 31
0.0
  0
LINE
  5
13D
330
1E
100
AcDbEntity
  8
0
100
AcDbLine
 10
52.0
 20
24.208
 30
0.0
 11
52.0
 21
22.528
 31
0.0
  0
LINE
  5
13E
330
1E
100
AcDbEntity
  8
0
100
AcDbLine
 10
52.0
 20
24.208
 30
0.0
 11
52.0
 21
26.0
 31
0.0
  0
LINE
  5
140
330
1E
100
AcDbEntity
  8
0
100
AcDbLine
 10
13.0
 20
23.93819999999999
 30
0.0
 11
13.0
 21
26.0
 31
0.0
  0
LINE
  5
141
330
1E
100
AcDbEntity
  8
0
100
AcDbLine
 10
13.0
 20
23.93819999999999
 30
0.0
 11
13.0
 21
22.02789999999999
 31
0.0
  0
LINE
  5
145
330
1E
100
AcDbEntity
  8
0
100
AcDbLine
 10
10.39599999999999
 20
23.184
 30
0.0
 11
11.45199999999999
 21
20.544
 31
0.0
  0
LINE
  5
146
330
1E
100
AcDbEntity
  8
0
100
AcDbLine
 10
52.1143
 20
24.3963
 30
0.0
 11
52.4762
 21
22.91059999999999
 31
0.0
  0
LINE
  5
14A
330
1E
100
AcDbEntity
  8
0
100
AcDbLine
 10
18.396
 20
24.512
 30
0.0
 11
18.87599999999999
 21
23.87599999999999
 31
0.0
  0
LINE
  5
14B
330
1E
100
AcDbEntity
  8
0
100
AcDbLine
 10
18.396
 20
24.512
 30
0.0
 11
18.87599999999999
 21
23.87599999999999
 31
0.0
  0
LINE
  5
14C
330
1E
100
AcDbEntity
  8
0
100
AcDbLine
 10
23.60399999999999
 20
24.512
 30
0.0
 11
23.892
 21
25.232
 31
0.0
  0
LINE
  5
14F
330
1E
100
AcDbEntity
  8
0
100
AcDbLine
 10
52.0
 20
24.4727
 30
0.0
 11
52.0
 21
26.0
 31
0.0
  0
LINE
  5
150
330
1E
100
AcDbEntity
  8
0
100
AcDbLine
 10
62.0
 20
24.4727
 30
0.0
 11
62.0
 21
23.0727
 31
0.0
  0
LINE
  5
151
330
1E
100
AcDbEntity
  8
0
100
AcDbLine
 10
62.0
 20
24.4727
 30
0.0
 11
62.0
 21
26.0
 31
0.0
  0
LINE
  5
152
330
1E
100
AcDbEntity
  8
0
100
AcDbLine
 10
61.8857
 20
24.3963
 30
0.0
 11
61.9524
 21
26.0
 31
0.0
  0
LINE
  5
15D
330
1E
100
AcDbEntity
  8
0
100
AcDbLine
 10
18.108
 20
25.232
 30
0.0
 11
18.396
 21
24.512
 31
0.0
  0
LINE
  5
15E
330
1E
100
AcDbEntity
  8
0
100
AcDbLine
 10
46.0
 20
26.0
 30
0.0
 11
46.0
 21
28.304
 31
0.0
  0
LINE
  5
15F
330
1E
100
AcDbEntity
  8
0
100
AcDbLine
 10
46.0
 20
26.0
 30
0.0
 11
46.0
 21
23.69599999999999
 31
0.0
  0
LINE
  5
160
330
1E
100
AcDbEntity
  8
0
100
AcDbLine
 10
23.892
 20
25.232
 30
0.0
 11
24.0
 21
26.0
 31
0.0
  0
LINE
  5
163
330
1E
100
AcDbEntity
  8
0
100
AcDbLine
 10
0.0
 20
26.0
 30
0.0
 11
0.7560000000000161
 21
31.37599999999999
 31
0.0
  0
LINE
  5
164
330
1E
100
AcDbEntity
  8
0
100
AcDbLine
 10
0.0
 20
26.0
 30
0.0
 11
0.7560000000000161
 21
20.624
 31
0.0
  0
LINE
  5
165
330
1E
100
AcDbEntity
  8
0
100
AcDbLine
 10
0.999999999999987
 20
26.0
 30
0.0
 11
1.719999999999989
 21
31.12
 31
0.0
  0
LINE
  5
166
330
1E
100
AcDbEntity
  8
0
100
AcDbLine
 10
0.999999999999987
 20
26.0
 30
0.0
 11
1.719999999999989
 21
20.88
 31
0.0
  0
LINE
  5
167
330
1E
100
AcDbEntity
  8
0
100
AcDbLine
 10
18.0
 20
26.0
 30
0.0
 11
18.108
 21
26.768
 31
0.0
  0
LINE
  5
168
330
1E
100
AcDbEntity
  8
0
100
AcDbLine
 10
18.0
 20
26.0
 30
0.0
 11
18.108
 21
25.232
 31
0.0
  0
LINE
  5
169
330
1E
100
AcDbEntity
  8
0
100
AcDbLine
 10
29.0
 20
26.0
 30
0.0
 11
29.0
 21
28.0618
 31
0.0
  0
LINE
  5
16C
330
1E
100
AcDbEntity
  8
0
100
AcDbLine
 10
13.0
 20
26.0
 30
0.0
 11
13.0
 21
23.93819999999999
 31
0.0
  0
LINE
  5
16D
330
1E
100
AcDbEntity
  8
0
100
AcDbLine
 10
13.0
 20
26.0
 30
0.0
 11
13.0
 21
28.0618
 31
0.0
  0
LINE
  5
16E
330
1E
100
AcDbEntity
  8
0
100
AcDbLine
 10
13.0
 20
26.0
 30
0.0
 11
13.0
 21
28.0618
 31
0.0
  0
LINE
  5
16F
330
1E
100
AcDbEntity
  8
0
100
AcDbLine
 10
10.0
 20
26.0
 30
0.0
 11
10.39599999999999
 21
28.816
 31
0.0
  0
LINE
  5
170
330
1E
100
AcDbEntity
  8
0
100
AcDbLine
 10
10.0
 20
26.0
 30
0.0
 11
10.39599999999999
 21
23.184
 31
0.0
  0
LINE
  5
171
330
1E
100
AcDbEntity
  8
0
100
AcDbLine
 10
5.99999999999999
 20
26.0
 30
0.0
 11
6.54
 21
29.83999999999999
 31
0.0
  0
LINE
  5
172
330
1E
100
AcDbEntity
  8
0
100
AcDbLine
 10
5.99999999999999
 20
26.0
 30
0.0
 11
6.54
 21
22.16
 31
0.0
  0
LINE
  5
173
330
1E
100
AcDbEntity
  8
0
100
AcDbLine
 10
52.0
 20
26.0
 30
0.0
 11
52.0
 21
24.4727
 31
0.0
  0
LINE
  5
174
330
1E
100
AcDbEntity
  8
0
100
AcDbLine
 10
52.0
 20
26.0
 30
0.0
 11
52.0
 21
27.79199999999999
 31
0.0
  0
LINE
  5
175
330
1E
100
AcDbEntity
  8
0
100
AcDbLine
 10
52.0
 20
26.0
 30
0.0
 11
52.0
 21
24.208
 31
0.0
  0
LINE
  5
176
330
1E
100
AcDbEntity
  8
0
100
AcDbLine
 10
62.0
 20
26.0
 30
0.0
 11
62.0
 21
27.5273
 31
0.0
  0
LINE
  5
177
330
1E
100
AcDbEntity
  8
0
100
AcDbLine
 10
62.0
 20
26.0
 30
0.0
 11
62.0
 21
24.4727
 31
0.0
  0
LINE
  5
178
330
1E
100
AcDbEntity
  8
0
100
AcDbLine
 10
52.0476
 20
26.0
 30
0.0
 11
52.1143
 21
27.60369999999999
 31
0.0
  0
LINE
  5
179
330
1E
100
AcDbEntity
  8
0
100
AcDbLine
 10
52.0476
 20
26.0
 30
0.0
 11
52.1143
 21
24.3963
 31
0.0
  0
LINE
  5
17B
330
1E
100
AcDbEntity
  8
0
100
AcDbLine
 10
23.892
 20
26.768
 30
0.0
 11
24.0
 21
26.0
 31
0.0
  0
LINE
  5
17C
330
1E
100
AcDbEntity
  8
0
100
AcDbLine
 10
23.60399999999999
 20
27.488
 30
0.0
 11
23.892
 21
26.768
 31
0.0
  0
LINE
  5
17D
330
1E
100
AcDbEntity
  8
0
100
AcDbLine
 10
18.396
 20
27.488
 30
0.0
 11
18.87599999999999
 21
28.124
 31
0.0
  0
LINE
  5
17E
330
1E
100
AcDbEntity
  8
0
100
AcDbLine
 10
18.108
 20
26.768
 30
0.0
 11
18.396
 21
27.488
 31
0.0
  0
LINE
  5
17F
330
1E
100
AcDbEntity
  8
0
100
AcDbLine
 10
18.108
 20
26.768
 30
0.0
 11
18.396
 21
27.488
 31
0.0
  0
LINE
  5
182
330
1E
100
AcDbEntity
  8
0
100
AcDbLine
 10
52.0
 20
27.5273
 30
0.0
 11
52.0
 21
28.9273
 31
0.0
  0
LINE
  5
183
330
1E
100
AcDbEntity
  8
0
100
AcDbLine
 10
62.0
 20
27.5273
 30
0.0
 11
62.0
 21
26.0
 31
0.0
  0
LINE
  5
184
330
1E
100
AcDbEntity
  8
0
100
AcDbLine
 10
62.0
 20
27.5273
 30
0.0
 11
62.0
 21
28.9273
 31
0.0
  0
LINE
  5
18C
330
1E
100
AcDbEntity
  8
0
100
AcDbLine
 10
13.0
 20
28.0618
 30
0.0
 11
13.0
 21
29.9721
 31
0.0
  0
LINE
  5
18D
330
1E
100
AcDbEntity
  8
0
100
AcDbLine
 10
13.0
 20
28.0618
 30
0.0
 11
13.0
 21
26.0
 31
0.0
  0
LINE
  5
18E
330
1E
100
AcDbEntity
  8
0
100
AcDbLine
 10
13.0
 20
28.0618
 30
0.0
 11
13.0
 21
26.0
 31
0.0
  0
LINE
  5
192
330
1E
100
AcDbEntity
  8
0
100
AcDbLine
 10
13.0
 20
28.0618
 30
0.0
 11
13.0
 21
29.9721
 31
0.0
  0
LINE
  5
193
330
1E
100
AcDbEntity
  8
0
100
AcDbLine
 10
22.488
 20
28.604
 30
0.0
 11
23.124
 21
28.124
 31
0.0
  0
LINE
  5
194
330
1E
100
AcDbEntity
  8
0
100
AcDbLine
 10
23.124
 20
28.124
 30
0.0
 11
23.60399999999999
 21
27.488
 31
0.0
  0
LINE
  5
195
330
1E
100
AcDbEntity
  8
0
100
AcDbLine
 10
19.512
 20
28.604
 30
0.0
 11
20.232
 21
28.892
 31
0.0
  0
LINE
  5
196
330
1E
100
AcDbEntity
  8
0
100
AcDbLine
 10
18.87599999999999
 20
28.124
 30
0.0
 11
19.512
 21
28.604
 31
0.0
  0
LINE
  5
198
330
1E
100
AcDbEntity
  8
0
100
AcDbLine
 10
52.0
 20
27.79199999999999
 30
0.0
 11
52.0
 21
26.0
 31
0.0
  0
LINE
  5
199
330
1E
100
AcDbEntity
  8
0
100
AcDbLine
 10
52.0
 20
27.79199999999999
 30
0.0
 11
52.0
 21
29.472
 31
0.0
  0
LINE
  5
19A
330
1E
100
AcDbEntity
  8
0
100
AcDbLine
 10
46.0
 20
28.304
 30
0.0
 11
46.0
 21
26.0
 31
0.0
  0
LINE
  5
19B
330
1E
100
AcDbEntity
  8
0
100
AcDbLine
 10
46.0
 20
28.304
 30
0.0
 11
46.0
 21
30.464
 31
0.0
  0
LINE
  5
19C
330
1E
100
AcDbEntity
  8
0
100
AcDbLine
 10
29.0
 20
28.0618
 30
0.0
 11
29.0
 21
29.9721
 31
0.0
  0
LINE
  5
19F
330
1E
100
AcDbEntity
  8
0
100
AcDbLine
 10
21.768
 20
28.892
 30
0.0
 11
22.488
 21
28.604
 31
0.0
  0
LINE
  5
1A0
330
1E
100
AcDbEntity
  8
0
100
AcDbLine
 10
20.232
 20
28.892
 30
0.0
 11
21.0
 21
29.0
 31
0.0
  0
LINE
  5
1A1
330
1E
100
AcDbEntity
  8
0
100
AcDbLine
 10
31.604
 20
28.816
 30
0.0
 11
32.0
 21
26.0
 31
0.0
  0
LINE
  5
1A2
330
1E
100
AcDbEntity
  8
0
100
AcDbLine
 10
10.39599999999999
 20
28.816
 30
0.0
 11
11.45199999999999
 21
31.45599999999999
 31
0.0
  0
LINE
  5
1A3
330
1E
100
AcDbEntity
  8
0
100
AcDbLine
 10
21.0
 20
29.0
 30
0.0
 11
21.768
 21
28.892
 31
0.0
  0
LINE
  5
1A9
330
1E
100
AcDbEntity
  8
0
100
AcDbLine
 10
52.0
 20
28.9273
 30
0.0
 11
52.0
 21
30.1682
 31
0.0
  0
LINE
  5
1AA
330
1E
100
AcDbEntity
  8
0
100
AcDbLine
 10
52.0
 20
28.9273
 30
0.0
 11
52.0
 21
27.5273
 31
0.0
  0
LINE
  5
1AB
330
1E
100
AcDbEntity
  8
0
100
AcDbLine
 10
52.4762
 20
29.0894
 30
0.0
 11
52.4762
 21
29.4045
 31
0.0
  0
LINE
  5
1AF
330
1E
100
AcDbEntity
  8
0
100
AcDbLine
 10
52.1143
 20
27.60369999999999
 30
0.0
 11
52.4762
 21
29.0894
 31
0.0
  0
LINE
  5
1B0
330
1E
100
AcDbEntity
  8
0
100
AcDbLine
 10
62.0
 20
28.9273
 30
0.0
 11
62.0
 21
30.1682
 31
0.0
  0
LINE
  5
1B1
330
1E
100
AcDbEntity
  8
0
100
AcDbLine
 10
62.0
 20
28.9273
 30
0.0
 11
62.0
 21
27.5273
 31
0.0
  0
LINE
  5
1B3
330
1E
100
AcDbEntity
  8
0
100
AcDbLine
 10
61.8857
 20
27.60369999999999
 30
0.0
 11
61.9524
 21
26.0
 31
0.0
  0
LINE
  5
1B5
330
1E
100
AcDbEntity
  8
0
100
AcDbLine
 10
61.5238
 20
29.0894
 30
0.0
 11
61.8857
 21
27.60369999999999
 31
0.0
  0
LINE
  5
1B9
330
1E
100
AcDbEntity
  8
0
100
AcDbLine
 10
52.0
 20
29.472
 30
0.0
 11
52.0
 21
27.79199999999999
 31
0.0
  0
LINE
  5
1BA
330
1E
100
AcDbEntity
  8
0
100
AcDbLine
 10
52.0
 20
29.472
 30
0.0
 11
52.0
 21
30.956
 31
0.0
  0
LINE
  5
1BB
330
1E
100
AcDbEntity
  8
0
100
AcDbLine
 10
52.4762
 20
29.4045
 30
0.0
 11
52.4762
 21
29.0894
 31
0.0
  0
LINE
  5
1BC
330
1E
100
AcDbEntity
  8
0
100
AcDbLine
 10
52.4762
 20
29.4045
 30
0.0
 11
52.4762
 21
29.9219
 31
0.0
  0
LINE
  5
1C1
330
1E
100
AcDbEntity
  8
0
100
AcDbLine
 10
52.95239999999999
 20
29.5088
 30
0.0
 11
61.0476
 21
29.5088
 31
0.0
  0
LINE
  5
1D4
330
1E
100
AcDbEntity
  8
0
100
AcDbLine
 10
35.46
 20
29.83999999999999
 30
0.0
 11
36.0
 21
26.0
 31
0.0
  0
LINE
  5
1D5
330
1E
100
AcDbEntity
  8
0
100
AcDbLine
 10
29.0
 20
29.9721
 30
0.0
 11
29.0
 21
28.0618
 31
0.0
  0
LINE
  5
1D6
330
1E
100
AcDbEntity
  8
0
100
AcDbLine
 10
29.0
 20
29.9721
 30
0.0
 11
29.0
 21
30.5114
 31
0.0
  0
LINE
  5
1DB
330
1E
100
AcDbEntity
  8
0
100
AcDbLine
 10
13.0
 20
29.9721
 30
0.0
 11
13.0
 21
28.0618
 31
0.0
  0
LINE
  5
1DC
330
1E
100
AcDbEntity
  8
0
100
AcDbLine
 10
13.0
 20
29.9721
 30
0.0
 11
13.0
 21
30.5114
 31
0.0
  0
LINE
  5
1DD
330
1E
100
AcDbEntity
  8
0
100
AcDbLine
 10
13.0
 20
29.9721
 30
0.0
 11
13.0
 21
28.0618
 31
0.0
  0
LINE
  5
1DF
330
1E
100
AcDbEntity
  8
0
100
AcDbLine
 10
6.54
 20
29.83999999999999
 30
0.0
 11
7.97999999999998
 21
33.43999999999999
 31
0.0
  0
LINE
  5
1E1
330
1E
100
AcDbEntity
  8
0
100
AcDbLine
 10
52.4762
 20
29.9219
 30
0.0
 11
52.4762
 21
29.4045
 31
0.0
  0
LINE
  5
1E7
330
1E
100
AcDbEntity
  8
0
100
AcDbLine
 10
52.0
 20
30.1682
 30
0.0
 11
52.0
 21
28.9273
 31
0.0
  0
LINE
  5
1E8
330
1E
100
AcDbEntity
  8
0
100
AcDbLine
 10
62.0
 20
30.1682
 30
0.0
 11
62.0
 21
28.9273
 31
0.0
  0
LINE
  5
1E9
330
1E
100
AcDbEntity
  8
0
100
AcDbLine
 10
62.0
 20
30.1682
 30
0.0
 11
62.0
 21
31.0909
 31
0.0
  0
LINE
  5
1EA
330
1E
100
AcDbEntity
  8
0
100
AcDbLine
 10
61.5238
 20
29.9219
 30
0.0
 11
61.8269
 21
30.5182
 31
0.0
  0
LINE
  5
1EF
330
1E
100
AcDbEntity
  8
0
100
AcDbLine
 10
46.0
 20
30.464
 30
0.0
 11
46.0
 21
28.304
 31
0.0
  0
LINE
  5
1F0
330
1E
100
AcDbEntity
  8
0
100
AcDbLine
 10
46.0
 20
30.464
 30
0.0
 11
46.0
 21
32.372
 31
0.0
  0
LINE
  5
1F1
330
1E
100
AcDbEntity
  8
0
100
AcDbLine
 10
29.0
 20
30.5114
 30
0.0
 11
29.0
 21
29.9721
 31
0.0
  0
LINE
  5
1F3
330
1E
100
AcDbEntity
  8
0
100
AcDbLine
 10
13.0
 20
30.5114
 30
0.0
 11
13.0
 21
29.9721
 31
0.0
  0
LINE
  5
1F4
330
1E
100
AcDbEntity
  8
0
100
AcDbLine
 10
13.0
 20
30.5114
 30
0.0
 11
13.20599999999999
 21
30.767
 31
0.0
  0
LINE
  5
1F7
330
1E
100
AcDbEntity
  8
0
100
AcDbLine
 10
61.8269
 20
30.5182
 30
0.0
 11
61.9038
 21
31.3696
 31
0.0
  0
LINE
  5
1FA
330
1E
100
AcDbEntity
  8
0
100
AcDbLine
 10
52.0
 20
30.956
 30
0.0
 11
52.0
 21
29.472
 31
0.0
  0
LINE
  5
1FB
330
1E
100
AcDbEntity
  8
0
100
AcDbLine
 10
52.0
 20
30.956
 30
0.0
 11
52.0
 21
32.076
 31
0.0
  0
LINE
  5
1FC
330
1E
100
AcDbEntity
  8
0
100
AcDbLine
 10
28.794
 20
30.767
 30
0.0
 11
29.0
 21
30.5114
 31
0.0
  0
LINE
  5
1FF
330
1E
100
AcDbEntity
  8
0
100
AcDbLine
 10
13.20599999999999
 20
30.767
 30
0.0
 11
13.686
 21
31.0424
 31
0.0
  0
LINE
  5
200
330
1E
100
AcDbEntity
  8
0
100
AcDbLine
 10
62.0
 20
31.0
 30
0.0
 11
105.0
 21
31.0
 31
0.0
  0
LINE
  5
201
330
1E
100
AcDbEntity
  8
0
100
AcDbLine
 10
52.1732
 20
30.5182
 30
0.0
 11
52.4762
 21
29.9219
 31
0.0
  0
LINE
  5
208
330
1E
100
AcDbEntity
  8
0
100
AcDbLine
 10
28.314
 20
31.0424
 30
0.0
 11
28.794
 21
30.767
 31
0.0
  0
LINE
  5
20B
330
1E
100
AcDbEntity
  8
0
100
AcDbLine
 10
0.7560000000000161
 20
31.37599999999999
 30
0.0
 11
2.771999999999999
 21
36.41599999999999
 31
0.0
  0
LINE
  5
20C
330
1E
100
AcDbEntity
  8
0
100
AcDbLine
 10
1.719999999999989
 20
31.12
 30
0.0
 11
3.639999999999979
 21
35.92
 31
0.0
  0
LINE
  5
210
330
1E
100
AcDbEntity
  8
0
100
AcDbLine
 10
13.686
 20
31.0424
 30
0.0
 11
15.02099999999999
 21
31.8091
 31
0.0
  0
LINE
  5
211
330
1E
100
AcDbEntity
  8
0
100
AcDbLine
 10
41.244
 20
31.37599999999999
 30
0.0
 11
42.0
 21
26.0
 31
0.0
  0
LINE
  5
212
330
1E
100
AcDbEntity
  8
0
100
AcDbLine
 10
40.28
 20
31.12
 30
0.0
 11
41.0
 21
26.0
 31
0.0
  0
LINE
  5
213
330
1E
100
AcDbEntity
  8
0
100
AcDbLine
 10
30.548
 20
31.45599999999999
 30
0.0
 11
31.604
 21
28.816
 31
0.0
  0
LINE
  5
214
330
1E
100
AcDbEntity
  8
0
100
AcDbLine
 10
11.45199999999999
 20
31.45599999999999
 30
0.0
 11
13.212
 21
33.788
 31
0.0
  0
LINE
  5
215
330
1E
100
AcDbEntity
  8
0
100
AcDbLine
 10
62.0
 20
31.0909
 30
0.0
 11
62.0
 21
31.6636
 31
0.0
  0
LINE
  5
216
330
1E
100
AcDbEntity
  8
0
100
AcDbLine
 10
62.0
 20
31.0909
 30
0.0
 11
62.0
 21
30.1682
 31
0.0
  0
LINE
  5
219
330
1E
100
AcDbEntity
  8
0
100
AcDbLine
 10
52.0963
 20
31.3696
 30
0.0
 11
52.1732
 21
30.5182
 31
0.0
  0
LINE
  5
21A
330
1E
100
AcDbEntity
  8
0
100
AcDbLine
 10
52.0963
 20
31.3696
 30
0.0
 11
52.1993
 21
32.2164
 31
0.0
  0
LINE
  5
21D
330
1E
100
AcDbEntity
  8
0
100
AcDbLine
 10
62.0
 20
31.6636
 30
0.0
 11
62.0
 21
31.88639999999999
 31
0.0
  0
LINE
  5
21E
330
1E
100
AcDbEntity
  8
0
100
AcDbLine
 10
62.0
 20
31.6636
 30
0.0
 11
62.0
 21
31.0909
 31
0.0
  0
LINE
  5
224
330
1E
100
AcDbEntity
  8
0
100
AcDbLine
 10
26.979
 20
31.8091
 30
0.0
 11
28.314
 21
31.0424
 31
0.0
  0
LINE
  5
229
330
1E
100
AcDbEntity
  8
0
100
AcDbLine
 10
15.02099999999999
 20
31.8091
 30
0.0
 11
16.928
 21
32.90379999999999
 31
0.0
  0
LINE
  5
22B
330
1E
100
AcDbEntity
  8
0
100
AcDbLine
 10
6.13199999999997
 20
40.868
 30
0.0
 11
10.584
 21
44.228
 31
0.0
  0
LINE
  5
22C
330
1E
100
AcDbEntity
  8
0
100
AcDbLine
 10
2.771999999999999
 20
36.41599999999999
 30
0.0
 11
6.13199999999997
 21
40.868
 31
0.0
  0
LINE
  5
22D
330
1E
100
AcDbEntity
  8
0
100
AcDbLine
 10
6.83999999999999
 20
40.16
 30
0.0
 11
11.08
 21
43.36
 31
0.0
  0
LINE
  5
22E
330
1E
100
AcDbEntity
  8
0
100
AcDbLine
 10
3.639999999999979
 20
35.92
 30
0.0
 11
6.83999999999999
 21
40.16
 31
0.0
  0
LINE
  5
22F
330
1E
100
AcDbEntity
  8
0
100
AcDbLine
 10
13.212
 20
33.788
 30
0.0
 11
15.544
 21
35.548
 31
0.0
  0
LINE
  5
232
330
1E
100
AcDbEntity
  8
0
100
AcDbLine
 10
18.824
 20
33.9925
 30
0.0
 11
20.011
 21
34.6557
 31
0.0
  0
LINE
  5
236
330
1E
100
AcDbEntity
  8
0
100
AcDbLine
 10
16.928
 20
32.90379999999999
 30
0.0
 11
18.824
 21
33.9925
 31
0.0
  0
LINE
  5
242
330
1E
100
AcDbEntity
  8
0
100
AcDbLine
 10
25.072
 20
32.90379999999999
 30
0.0
 11
26.979
 21
31.8091
 31
0.0
  0
LINE
  5
244
330
1E
100
AcDbEntity
  8
0
100
AcDbLine
 10
23.176
 20
33.9925
 30
0.0
 11
25.072
 21
32.90379999999999
 31
0.0
  0
LINE
  5
246
330
1E
100
AcDbEntity
  8
0
100
AcDbLine
 10
21.989
 20
34.6557
 30
0.0
 11
23.176
 21
33.9925
 31
0.0
  0
LINE
  5
24B
330
1E
100
AcDbEntity
  8
0
100
AcDbLine
 10
21.463
 20
34.9369
 30
0.0
 11
21.989
 21
34.6557
 31
0.0
  0
LINE
  5
24C
330
1E
100
AcDbEntity
  8
0
100
AcDbLine
 10
21.0
 20
35.0
 30
0.0
 11
21.463
 21
34.9369
 31
0.0
  0
LINE
  5
24D
330
1E
100
AcDbEntity
  8
0
100
AcDbLine
 10
20.537
 20
34.9369
 30
0.0
 11
21.0
 21
35.0
 31
0.0
  0
LINE
  5
251
330
1E
100
AcDbEntity
  8
0
100
AcDbLine
 10
20.011
 20
34.6557
 30
0.0
 11
20.537
 21
34.9369
 31
0.0
  0
LINE
  5
255
330
1E
100
AcDbEntity
  8
0
100
AcDbLine
 10
23.816
 20
36.604
 30
0.0
 11
26.45599999999999
 21
35.548
 31
0.0
  0
LINE
  5
256
330
1E
100
AcDbEntity
  8
0
100
AcDbLine
 10
26.45599999999999
 20
35.548
 30
0.0
 11
28.788
 21
33.788
 31
0.0
  0
LINE
  5
257
330
1E
100
AcDbEntity
  8
0
100
AcDbLine
 10
28.788
 20
33.788
 30
0.0
 11
30.548
 21
31.45599999999999
 31
0.0
  0
LINE
  5
258
330
1E
100
AcDbEntity
  8
0
100
AcDbLine
 10
18.184
 20
36.604
 30
0.0
 11
21.0
 21
37.0
 31
0.0
  0
LINE
  5
259
330
1E
100
AcDbEntity
  8
0
100
AcDbLine
 10
15.544
 20
35.548
 30
0.0
 11
18.184
 21
36.604
 31
0.0
  0
LINE
  5
25A
330
1E
100
AcDbEntity
  8
0
100
AcDbLine
 10
31.62
 20
36.61999999999999
 30
0.0
 11
34.02
 21
33.43999999999999
 31
0.0
  0
LINE
  5
25B
330
1E
100
AcDbEntity
  8
0
100
AcDbLine
 10
46.0
 20
33.0
 30
0.0
 11
52.0
 21
33.0
 31
0.0
  0
LINE
  5
25C
330
1E
100
AcDbEntity
  8
0
100
AcDbLine
 10
46.0
 20
35.0
 30
0.0
 11
46.0
 21
34.676
 31
0.0
  0
LINE
  5
25D
330
1E
100
AcDbEntity
  8
0
100
AcDbLine
 10
46.0
 20
34.676
 30
0.0
 11
46.0
 21
33.81199999999999
 31
0.0
  0
LINE
  5
25E
330
1E
100
AcDbEntity
  8
0
100
AcDbLine
 10
46.0
 20
34.676
 30
0.0
 11
46.0
 21
35.0
 31
0.0
  0
LINE
  5
25F
330
1E
100
AcDbEntity
  8
0
100
AcDbLine
 10
46.0
 20
33.81199999999999
 30
0.0
 11
46.0
 21
32.372
 31
0.0
  0
LINE
  5
260
330
1E
100
AcDbEntity
  8
0
100
AcDbLine
 10
46.0
 20
33.81199999999999
 30
0.0
 11
46.0
 21
34.676
 31
0.0
  0
LINE
  5
261
330
1E
100
AcDbEntity
  8
0
100
AcDbLine
 10
52.0
 20
33.0
 30
0.0
 11
52.0
 21
32.748
 31
0.0
  0
LINE
  5
262
330
1E
100
AcDbEntity
  8
0
100
AcDbLine
 10
52.0
 20
32.748
 30
0.0
 11
52.0
 21
32.076
 31
0.0
  0
LINE
  5
263
330
1E
100
AcDbEntity
  8
0
100
AcDbLine
 10
52.0
 20
32.748
 30
0.0
 11
52.0
 21
33.0
 31
0.0
  0
LINE
  5
264
330
1E
100
AcDbEntity
  8
0
100
AcDbLine
 10
52.0
 20
32.076
 30
0.0
 11
52.0
 21
30.956
 31
0.0
  0
LINE
  5
265
330
1E
100
AcDbEntity
  8
0
100
AcDbLine
 10
52.0
 20
32.076
 30
0.0
 11
52.0
 21
32.748
 31
0.0
  0
LINE
  5
266
330
1E
100
AcDbEntity
  8
0
100
AcDbLine
 10
46.0
 20
32.372
 30
0.0
 11
46.0
 21
30.464
 31
0.0
  0
LINE
  5
267
330
1E
100
AcDbEntity
  8
0
100
AcDbLine
 10
46.0
 20
32.372
 30
0.0
 11
46.0
 21
33.81199999999999
 31
0.0
  0
LINE
  5
268
330
1E
100
AcDbEntity
  8
0
100
AcDbLine
 10
39.228
 20
36.41599999999999
 30
0.0
 11
41.244
 21
31.37599999999999
 31
0.0
  0
LINE
  5
269
330
1E
100
AcDbEntity
  8
0
100
AcDbLine
 10
38.36
 20
35.92
 30
0.0
 11
40.28
 21
31.12
 31
0.0
  0
LINE
  5
26A
330
1E
100
AcDbEntity
  8
0
100
AcDbLine
 10
39.7944
 20
35.0
 30
0.0
 11
46.0
 21
35.0
 31
0.0
  0
LINE
  5
26B
330
1E
100
AcDbEntity
  8
0
100
AcDbLine
 10
34.02
 20
33.43999999999999
 30
0.0
 11
35.46
 21
29.83999999999999
 31
0.0
  0
LINE
  5
26C
330
1E
100
AcDbEntity
  8
0
100
AcDbLine
 10
10.584
 20
44.228
 30
0.0
 11
15.624
 21
46.244
 31
0.0
  0
LINE
  5
26D
330
1E
100
AcDbEntity
  8
0
100
AcDbLine
 10
11.08
 20
43.36
 30
0.0
 11
15.88
 21
45.28
 31
0.0
  0
LINE
  5
26E
330
1E
100
AcDbEntity
  8
0
100
AcDbLine
 10
21.0
 20
37.0
 30
0.0
 11
23.816
 21
36.604
 31
0.0
  0
LINE
  5
26F
330
1E
100
AcDbEntity
  8
0
100
AcDbLine
 10
24.83999999999999
 20
40.46
 30
0.0
 11
28.44
 21
39.02
 31
0.0
  0
LINE
  5
270
330
1E
100
AcDbEntity
  8
0
100
AcDbLine
 10
35.16
 20
40.16
 30
0.0
 11
38.36
 21
35.92
 31
0.0
  0
LINE
  5
271
330
1E
100
AcDbEntity
  8
0
100
AcDbLine
 10
28.44
 20
39.02
 30
0.0
 11
31.62
 21
36.61999999999999
 31
0.0
  0
LINE
  5
272
330
1E
100
AcDbEntity
  8
0
100
AcDbLine
 10
21.0
 20
47.0
 30
0.0
 11
26.37599999999999
 21
46.244
 31
0.0
  0
LINE
  5
273
330
1E
100
AcDbEntity
  8
0
100
AcDbLine
 10
15.624
 20
46.244
 30
0.0
 11
21.0
 21
47.0
 31
0.0
  0
LINE
  5
274
330
1E
100
AcDbEntity
  8
0
100
AcDbLine
 10
21.0
 20
46.0
 30
0.0
 11
26.12
 21
45.28
 31
0.0
  0
LINE
  5
275
330
1E
100
AcDbEntity
  8
0
100
AcDbLine
 10
15.88
 20
45.28
 30
0.0
 11
21.0
 21
46.0
 31
0.0
  0
LINE
  5
276
330
1E
100
AcDbEntity
  8
0
100
AcDbLine
 10
35.868
 20
40.868
 30
0.0
 11
39.228
 21
36.41599999999999
 31
0.0
  0
LINE
  5
277
330
1E
100
AcDbEntity
  8
0
100
AcDbLine
 10
26.37599999999999
 20
46.244
 30
0.0
 11
31.416
 21
44.228
 31
0.0
  0
LINE
  5
278
330
1E
100
AcDbEntity
  8
0
100
AcDbLine
 10
31.416
 20
44.228
 30
0.0
 11
35.868
 21
40.868
 31
0.0
  0
LINE
  5
279
330
1E
100
AcDbEntity
  8
0
100
AcDbLine
 10
26.12
 20
45.28
 30
0.0
 11
30.92
 21
43.36
 31
0.0
  0
LINE
  5
27A
330
1E
100
AcDbEntity
  8
0
100
AcDbLine
 10
30.92
 20
43.36
 30
0.0
 11
35.16
 21
40.16
 31
0.0
  0
LINE
  5
27B
330
1E
100
AcDbEntity
  8
0
100
AcDbLine
 10
21.0
 20
41.0
 30
0.0
 11
24.83999999999999
 21
40.46
 31
0.0
  0
LINE
  5
27C
330
1E
100
AcDbEntity
  8
0
100
AcDbLine
 10
17.16
 20
40.46
 30
0.0
 11
21.0
 21
41.0
 31
0.0
  0
LINE
  5
27D
330
1E
100
AcDbEntity
  8
0
100
AcDbLine
 10
13.56
 20
39.02
 30
0.0
 11
17.16
 21
40.46
 31
0.0
  0
LINE
  5
27E
330
1E
100
AcDbEntity
  8
0
100
AcDbLine
 10
10.38
 20
36.61999999999999
 30
0.0
 11
13.56
 21
39.02
 31
0.0
  0
LINE
  5
27F
330
1E
100
AcDbEntity
  8
0
100
AcDbLine
 10
7.97999999999998
 20
33.43999999999999
 30
0.0
 11
10.38
 21
36.61999999999999
 31
0.0
  0
LINE
  5
280
330
1E
100
AcDbEntity
  8
0
100
AcDbLine
 10
52.0
 20
31.88639999999999
 30
0.0
 11
52.1429
 21
32.36359999999999
 31
0.0
  0
LINE
  5
281
330
1E
100
AcDbEntity
  8
0
100
AcDbLine
 10
52.1993
 20
32.2164
 30
0.0
 11
52.4762
 21
32.7322
 31
0.0
  0
LINE
  5
282
330
1E
100
AcDbEntity
  8
0
100
AcDbLine
 10
52.4762
 20
32.7322
 30
0.0
 11
52.4762
 21
32.84089999999999
 31
0.0
  0
LINE
  5
283
330
1E
100
AcDbEntity
  8
0
100
AcDbLine
 10
61.5238
 20
32.7322
 30
0.0
 11
61.5238
 21
32.84089999999999
 31
0.0
  0
LINE
  5
284
330
1E
100
AcDbEntity
  8
0
100
AcDbLine
 10
61.5238
 20
32.7322
 30
0.0
 11
61.8007
 21
32.2164
 31
0.0
  0
LINE
  5
285
330
1E
100
AcDbEntity
  8
0
100
AcDbLine
 10
61.5238
 20
32.84089999999999
 30
0.0
 11
61.8571
 21
32.36359999999999
 31
0.0
  0
LINE
  5
287
330
1E
100
AcDbEntity
  8
0
100
AcDbLine
 10
61.5238
 20
32.84089999999999
 30
0.0
 11
61.5238
 21
32.7322
 31
0.0
  0
LINE
  5
288
330
1E
100
AcDbEntity
  8
0
100
AcDbLine
 10
62.0
 20
31.88639999999999
 30
0.0
 11
62.0
 21
31.6636
 31
0.0
  0
LINE
  5
289
330
1E
100
AcDbEntity
  8
0
100
AcDbLine
 10
61.8571
 20
32.36359999999999
 30
0.0
 11
62.0
 21
31.88639999999999
 31
0.0
  0
LINE
  5
28C
330
1E
100
AcDbEntity
  8
0
100
AcDbLine
 10
61.8007
 20
32.2164
 30
0.0
 11
61.9038
 21
31.3696
 31
0.0
  0
LINE
  5
28E
330
1E
100
AcDbEntity
  8
0
100
AcDbLine
 10
52.95239999999999
 20
33.0
 30
0.0
 11
61.0476
 21
33.0
 31
0.0
  0
LINE
  5
28F
330
1E
100
AcDbEntity
  8
0
100
AcDbLine
 10
61.0476
 20
33.0
 30
0.0
 11
61.5238
 21
32.84089999999999
 31
0.0
  0
LINE
  5
290
330
1E
100
AcDbEntity
  8
0
100
AcDbLine
 10
52.4762
 20
32.84089999999999
 30
0.0
 11
52.95239999999999
 21
33.0
 31
0.0
  0
LINE
  5
291
330
1E
100
AcDbEntity
  8
0
100
AcDbLine
 10
52.4762
 20
32.84089999999999
 30
0.0
 11
52.4762
 21
32.7322
 31
0.0
  0
LINE
  5
292
330
1E
100
AcDbEntity
  8
0
100
AcDbLine
 10
52.1429
 20
32.36359999999999
 30
0.0
 11
52.4762
 21
32.84089999999999
 31
0.0
  0
LINE
  5
2FF
330
1E
100
AcDbEntity
  8
0
100
AcDbLine
 10
120.0
 20
26.0
 30
0.0
 11
120.9359999999999
 21
32.656
 31
0.0
  0
LINE
  5
300
330
1E
100
AcDbEntity
  8
0
100
AcDbLine
 10
120.0
 20
26.0
 30
0.0
 11
120.9359999999999
 21
19.344
 31
0.0
  0
LINE
  5
30B
330
1E
100
AcDbEntity
  8
0
100
AcDbLine
 10
120.9359999999999
 20
32.656
 30
0.0
 11
123.432
 21
38.896
 31
0.0
  0
LINE
  5
30C
330
1E
100
AcDbEntity
  8
0
100
AcDbLine
 10
121.0
 20
32.816
 30
0.0
 11
121.0
 21
33.81199999999999
 31
0.0
  0
LINE
  5
312
330
1E
100
AcDbEntity
  8
0
100
AcDbLine
 10
121.0
 20
33.0
 30
0.0
 11
121.0
 21
32.816
 31
0.0
  0
LINE
  5
313
330
1E
100
AcDbEntity
  8
0
100
AcDbLine
 10
121.0
 20
33.0
 30
0.0
 11
121.0
 21
33.81199999999999
 31
0.0
  0
LINE
  5
314
330
1E
100
AcDbEntity
  8
0
100
AcDbLine
 10
121.0
 20
35.0
 30
0.0
 11
121.0
 21
34.676
 31
0.0
  0
LINE
  5
315
330
1E
100
AcDbEntity
  8
0
100
AcDbLine
 10
121.0
 20
35.0
 30
0.0
 11
121.8736
 21
35.0
 31
0.0
  0
LINE
  5
316
330
1E
100
AcDbEntity
  8
0
100
AcDbLine
 10
121.0
 20
34.676
 30
0.0
 11
121.0
 21
35.0
 31
0.0
  0
LINE
  5
317
330
1E
100
AcDbEntity
  8
0
100
AcDbLine
 10
121.0
 20
34.676
 30
0.0
 11
121.0
 21
33.81199999999999
 31
0.0
  0
LINE
  5
318
330
1E
100
AcDbEntity
  8
0
100
AcDbLine
 10
121.0
 20
33.81199999999999
 30
0.0
 11
121.0
 21
34.676
 31
0.0
  0
LINE
  5
319
330
1E
100
AcDbEntity
  8
0
100
AcDbLine
 10
121.0
 20
33.81199999999999
 30
0.0
 11
121.0
 21
33.0
 31
0.0
  0
LINE
  5
31A
330
1E
100
AcDbEntity
  8
0
100
AcDbLine
 10
121.0
 20
33.81199999999999
 30
0.0
 11
121.0
 21
32.816
 31
0.0
  0
LINE
  5
32C
330
1E
100
AcDbEntity
  8
0
100
AcDbLine
 10
139.344
 20
0.9359999999999949
 30
0.0
 11
146.0
 21
-0.0000000000000058
 31
0.0
  0
LINE
  5
32D
330
1E
100
AcDbEntity
  8
0
100
AcDbLine
 10
146.0
 20
-0.0000000000000058
 30
0.0
 11
152.656
 21
0.9359999999999949
 31
0.0
  0
LINE
  5
32E
330
1E
100
AcDbEntity
  8
0
100
AcDbLine
 10
139.5999999999999
 20
1.899999999999989
 30
0.0
 11
146.0
 21
0.9999999999999939
 31
0.0
  0
LINE
  5
32F
330
1E
100
AcDbEntity
  8
0
100
AcDbLine
 10
152.656
 20
0.9359999999999949
 30
0.0
 11
158.896
 21
3.431999999999999
 31
0.0
  0
LINE
  5
330
330
1E
100
AcDbEntity
  8
0
100
AcDbLine
 10
146.0
 20
0.9999999999999939
 30
0.0
 11
152.4
 21
1.899999999999989
 31
0.0
  0
LINE
  5
331
330
1E
100
AcDbEntity
  8
0
100
AcDbLine
 10
127.592
 20
7.592
 30
0.0
 11
133.1039999999999
 21
3.431999999999999
 31
0.0
  0
LINE
  5
332
330
1E
100
AcDbEntity
  8
0
100
AcDbLine
 10
133.1039999999999
 20
3.431999999999999
 30
0.0
 11
139.344
 21
0.9359999999999949
 31
0.0
  0
LINE
  5
333
330
1E
100
AcDbEntity
  8
0
100
AcDbLine
 10
146.0
 20
7.99999999999999
 30
0.0
 11
150.608
 21
8.64799999999999
 31
0.0
  0
LINE
  5
334
330
1E
100
AcDbEntity
  8
0
100
AcDbLine
 10
133.6
 20
4.299999999999999
 30
0.0
 11
139.5999999999999
 21
1.899999999999989
 31
0.0
  0
LINE
  5
335
330
1E
100
AcDbEntity
  8
0
100
AcDbLine
 10
128.3
 20
8.3
 30
0.0
 11
133.6
 21
4.299999999999999
 31
0.0
  0
LINE
  5
336
330
1E
100
AcDbEntity
  8
0
100
AcDbLine
 10
152.4
 20
1.899999999999989
 30
0.0
 11
158.4
 21
4.299999999999999
 31
0.0
  0
LINE
  5
337
330
1E
100
AcDbEntity
  8
0
100
AcDbLine
 10
158.896
 20
3.431999999999999
 30
0.0
 11
164.4079999999999
 21
7.592
 31
0.0
  0
LINE
  5
338
330
1E
100
AcDbEntity
  8
0
100
AcDbLine
 10
164.4079999999999
 20
7.592
 30
0.0
 11
168.5679999999999
 21
13.104
 31
0.0
  0
LINE
  5
339
330
1E
100
AcDbEntity
  8
0
100
AcDbLine
 10
158.4
 20
4.299999999999999
 30
0.0
 11
163.7
 21
8.3
 31
0.0
  0
LINE
  5
33A
330
1E
100
AcDbEntity
  8
0
100
AcDbLine
 10
141.6479999999999
 20
9.612
 30
0.0
 11
146.0
 21
9.0
 31
0.0
  0
LINE
  5
33B
330
1E
100
AcDbEntity
  8
0
100
AcDbLine
 10
146.0
 20
9.0
 30
0.0
 11
150.3519999999999
 21
9.612
 31
0.0
  0
LINE
  5
33C
330
1E
100
AcDbEntity
  8
0
100
AcDbLine
 10
150.3519999999999
 20
9.612
 30
0.0
 11
154.432
 21
11.244
 31
0.0
  0
LINE
  5
33D
330
1E
100
AcDbEntity
  8
0
100
AcDbLine
 10
141.392
 20
8.64799999999999
 30
0.0
 11
146.0
 21
7.99999999999999
 31
0.0
  0
LINE
  5
33E
330
1E
100
AcDbEntity
  8
0
100
AcDbLine
 10
137.072
 20
10.376
 30
0.0
 11
141.392
 21
8.64799999999999
 31
0.0
  0
LINE
  5
33F
330
1E
100
AcDbEntity
  8
0
100
AcDbLine
 10
150.608
 20
8.64799999999999
 30
0.0
 11
154.9279999999999
 21
10.376
 31
0.0
  0
LINE
  5
340
330
1E
100
AcDbEntity
  8
0
100
AcDbLine
 10
123.432
 20
13.104
 30
0.0
 11
127.592
 21
7.592
 31
0.0
  0
LINE
  5
341
330
1E
100
AcDbEntity
  8
0
100
AcDbLine
 10
137.5679999999999
 20
11.244
 30
0.0
 11
141.6479999999999
 21
9.612
 31
0.0
  0
LINE
  5
342
330
1E
100
AcDbEntity
  8
0
100
AcDbLine
 10
154.432
 20
11.244
 30
0.0
 11
158.0359999999999
 21
13.964
 31
0.0
  0
LINE
  5
343
330
1E
100
AcDbEntity
  8
0
100
AcDbLine
 10
133.2559999999999
 20
13.25599999999999
 30
0.0
 11
137.072
 21
10.376
 31
0.0
  0
LINE
  5
344
330
1E
100
AcDbEntity
  8
0
100
AcDbLine
 10
154.9279999999999
 20
10.376
 30
0.0
 11
158.7439999999999
 21
13.25599999999999
 31
0.0
  0
LINE
  5
345
330
1E
100
AcDbEntity
  8
0
100
AcDbLine
 10
158.7439999999999
 20
13.25599999999999
 30
0.0
 11
161.6239999999999
 21
17.072
 31
0.0
  0
LINE
  5
346
330
1E
100
AcDbEntity
  8
0
100
AcDbLine
 10
133.9639999999999
 20
13.964
 30
0.0
 11
137.5679999999999
 21
11.244
 31
0.0
  0
LINE
  5
347
330
1E
100
AcDbEntity
  8
0
100
AcDbLine
 10
158.0359999999999
 20
13.964
 30
0.0
 11
160.756
 21
17.56799999999999
 31
0.0
  0
LINE
  5
348
330
1E
100
AcDbEntity
  8
0
100
AcDbLine
 10
131.244
 20
17.56799999999999
 30
0.0
 11
133.9639999999999
 21
13.964
 31
0.0
  0
LINE
  5
349
330
1E
100
AcDbEntity
  8
0
100
AcDbLine
 10
160.756
 20
17.56799999999999
 30
0.0
 11
162.3879999999999
 21
21.648
 31
0.0
  0
LINE
  5
34A
330
1E
100
AcDbEntity
  8
0
100
AcDbLine
 10
130.376
 20
17.072
 30
0.0
 11
133.2559999999999
 21
13.25599999999999
 31
0.0
  0
LINE
  5
34B
330
1E
100
AcDbEntity
  8
0
100
AcDbLine
 10
161.6239999999999
 20
17.072
 30
0.0
 11
163.352
 21
21.392
 31
0.0
  0
LINE
  5
34C
330
1E
100
AcDbEntity
  8
0
100
AcDbLine
 10
124.3
 20
13.6
 30
0.0
 11
128.3
 21
8.3
 31
0.0
  0
LINE
  5
34D
330
1E
100
AcDbEntity
  8
0
100
AcDbLine
 10
121.9
 20
19.6
 30
0.0
 11
124.3
 21
13.6
 31
0.0
  0
LINE
  5
34E
330
1E
100
AcDbEntity
  8
0
100
AcDbLine
 10
163.7
 20
8.3
 30
0.0
 11
167.6999999999999
 21
13.6
 31
0.0
  0
LINE
  5
34F
330
1E
100
AcDbEntity
  8
0
100
AcDbLine
 10
168.5679999999999
 20
13.104
 30
0.0
 11
171.064
 21
19.344
 31
0.0
  0
LINE
  5
350
330
1E
100
AcDbEntity
  8
0
100
AcDbLine
 10
167.6999999999999
 20
13.6
 30
0.0
 11
170.1
 21
19.6
 31
0.0
  0
LINE
  5
351
330
1E
100
AcDbEntity
  8
0
100
AcDbLine
 10
128.648
 20
21.392
 30
0.0
 11
130.376
 21
17.072
 31
0.0
  0
LINE
  5
352
330
1E
100
AcDbEntity
  8
0
100
AcDbLine
 10
129.6119999999999
 20
21.648
 30
0.0
 11
131.244
 21
17.56799999999999
 31
0.0
  0
LINE
  5
353
330
1E
100
AcDbEntity
  8
0
100
AcDbLine
 10
162.3879999999999
 20
21.648
 30
0.0
 11
163.0
 21
26.0
 31
0.0
  0
LINE
  5
354
330
1E
100
AcDbEntity
  8
0
100
AcDbLine
 10
162.3879999999999
 20
30.35199999999999
 30
0.0
 11
163.0
 21
26.0
 31
0.0
  0
LINE
  5
355
330
1E
100
AcDbEntity
  8
0
100
AcDbLine
 10
129.6119999999999
 20
30.35199999999999
 30
0.0
 11
131.244
 21
34.43199999999999
 31
0.0
  0
LINE
  5
356
330
1E
100
AcDbEntity
  8
0
100
AcDbLine
 10
129.0
 20
26.0
 30
0.0
 11
129.6119999999999
 21
30.35199999999999
 31
0.0
  0
LINE
  5
357
330
1E
100
AcDbEntity
  8
0
100
AcDbLine
 10
129.0
 20
26.0
 30
0.0
 11
129.6119999999999
 21
21.648
 31
0.0
  0
LINE
  5
358
330
1E
100
AcDbEntity
  8
0
100
AcDbLine
 10
163.352
 20
21.392
 30
0.0
 11
164.0
 21
26.0
 31
0.0
  0
LINE
  5
359
330
1E
100
AcDbEntity
  8
0
100
AcDbLine
 10
163.352
 20
30.608
 30
0.0
 11
164.0
 21
26.0
 31
0.0
  0
LINE
  5
35A
330
1E
100
AcDbEntity
  8
0
100
AcDbLine
 10
128.648
 20
30.608
 30
0.0
 11
130.376
 21
34.928
 31
0.0
  0
LINE
  5
35B
330
1E
100
AcDbEntity
  8
0
100
AcDbLine
 10
128.0
 20
26.0
 30
0.0
 11
128.648
 21
30.608
 31
0.0
  0
LINE
  5
35C
330
1E
100
AcDbEntity
  8
0
100
AcDbLine
 10
128.0
 20
26.0
 30
0.0
 11
128.648
 21
21.392
 31
0.0
  0
LINE
  5
35D
330
1E
100
AcDbEntity
  8
0
100
AcDbLine
 10
170.1
 20
19.6
 30
0.0
 11
171.0
 21
26.0
 31
0.0
  0
LINE
  5
35E
330
1E
100
AcDbEntity
  8
0
100
AcDbLine
 10
170.1263999999999
 20
17.0
 30
0.0
 11
171.0
 21
17.0
 31
0.0
  0
LINE
  5
35F
330
1E
100
AcDbEntity
  8
0
100
AcDbLine
 10
171.0
 20
17.0
 30
0.0
 11
171.0
 21
17.324
 31
0.0
  0
LINE
  5
360
330
1E
100
AcDbEntity
  8
0
100
AcDbLine
 10
171.0
 20
17.324
 30
0.0
 11
171.0
 21
17.0
 31
0.0
  0
LINE
  5
361
330
1E
100
AcDbEntity
  8
0
100
AcDbLine
 10
171.0
 20
17.324
 30
0.0
 11
171.0
 21
18.18799999999999
 31
0.0
  0
LINE
  5
362
330
1E
100
AcDbEntity
  8
0
100
AcDbLine
 10
171.0
 20
18.18799999999999
 30
0.0
 11
171.0
 21
17.324
 31
0.0
  0
LINE
  5
363
330
1E
100
AcDbEntity
  8
0
100
AcDbLine
 10
171.0
 20
18.18799999999999
 30
0.0
 11
171.0
 21
19.184
 31
0.0
  0
LINE
  5
36C
330
1E
100
AcDbEntity
  8
0
100
AcDbLine
 10
389.344
 20
0.9359999999999949
 30
0.0
 11
396.0
 21
-0.0000000000000058
 31
0.0
  0
LINE
  5
36D
330
1E
100
AcDbEntity
  8
0
100
AcDbLine
 10
396.0
 20
-0.0000000000000058
 30
0.0
 11
402.6559999999999
 21
0.9359999999999949
 31
0.0
  0
LINE
  5
36E
330
1E
100
AcDbEntity
  8
0
100
AcDbLine
 10
389.6
 20
1.899999999999989
 30
0.0
 11
396.0
 21
0.9999999999999939
 31
0.0
  0
LINE
  5
36F
330
1E
100
AcDbEntity
  8
0
100
AcDbLine
 10
402.6559999999999
 20
0.9359999999999949
 30
0.0
 11
408.8959999999999
 21
3.431999999999999
 31
0.0
  0
LINE
  5
370
330
1E
100
AcDbEntity
  8
0
100
AcDbLine
 10
396.0
 20
0.9999999999999939
 30
0.0
 11
402.4
 21
1.899999999999989
 31
0.0
  0
LINE
  5
371
330
1E
100
AcDbEntity
  8
0
100
AcDbLine
 10
377.5919999999999
 20
7.592
 30
0.0
 11
383.104
 21
3.431999999999999
 31
0.0
  0
LINE
  5
374
330
1E
100
AcDbEntity
  8
0
100
AcDbLine
 10
383.104
 20
3.431999999999999
 30
0.0
 11
389.344
 21
0.9359999999999949
 31
0.0
  0
LINE
  5
375
330
1E
100
AcDbEntity
  8
0
100
AcDbLine
 10
383.6
 20
4.299999999999999
 30
0.0
 11
389.6
 21
1.899999999999989
 31
0.0
  0
LINE
  5
376
330
1E
100
AcDbEntity
  8
0
100
AcDbLine
 10
378.3
 20
8.3
 30
0.0
 11
383.6
 21
4.299999999999999
 31
0.0
  0
LINE
  5
377
330
1E
100
AcDbEntity
  8
0
100
AcDbLine
 10
402.4
 20
1.899999999999989
 30
0.0
 11
408.3999999999999
 21
4.299999999999999
 31
0.0
  0
LINE
  5
378
330
1E
100
AcDbEntity
  8
0
100
AcDbLine
 10
408.8959999999999
 20
3.431999999999999
 30
0.0
 11
414.408
 21
7.592
 31
0.0
  0
LINE
  5
379
330
1E
100
AcDbEntity
  8
0
100
AcDbLine
 10
414.408
 20
7.592
 30
0.0
 11
418.568
 21
13.104
 31
0.0
  0
LINE
  5
37A
330
1E
100
AcDbEntity
  8
0
100
AcDbLine
 10
408.3999999999999
 20
4.299999999999999
 30
0.0
 11
413.6999999999999
 21
8.3
 31
0.0
  0
LINE
  5
37B
330
1E
100
AcDbEntity
  8
0
100
AcDbLine
 10
413.6999999999999
 20
8.3
 30
0.0
 11
417.6999999999999
 21
13.6
 31
0.0
  0
LINE
  5
38B
330
1E
100
AcDbEntity
  8
0
100
AcDbLine
 10
373.4319999999999
 20
13.104
 30
0.0
 11
377.5919999999999
 21
7.592
 31
0.0
  0
LINE
  5
38C
330
1E
100
AcDbEntity
  8
0
100
AcDbLine
 10
418.568
 20
13.104
 30
0.0
 11
421.064
 21
19.344
 31
0.0
  0
LINE
  5
38D
330
1E
100
AcDbEntity
  8
0
100
AcDbLine
 10
374.3
 20
13.6
 30
0.0
 11
378.3
 21
8.3
 31
0.0
  0
LINE
  5
38F
330
1E
100
AcDbEntity
  8
0
100
AcDbLine
 10
417.6999999999999
 20
13.6
 30
0.0
 11
420.1
 21
19.6
 31
0.0
  0
LINE
  5
3BD
330
1E
100
AcDbEntity
  8
0
100
AcDbLine
 10
171.0
 20
19.184
 30
0.0
 11
171.0
 21
18.18799999999999
 31
0.0
  0
LINE
  5
3BE
330
1E
100
AcDbEntity
  8
0
100
AcDbLine
 10
171.064
 20
19.344
 30
0.0
 11
172.0
 21
26.0
 31
0.0
  0
LINE
  5
449
330
1E
100
AcDbEntity
  8
0
100
AcDbLine
 10
370.9359999999999
 20
19.344
 30
0.0
 11
373.4319999999999
 21
13.104
 31
0.0
  0
LINE
  5
44A
330
1E
100
AcDbEntity
  8
0
100
AcDbLine
 10
421.064
 20
19.344
 30
0.0
 11
422.0
 21
26.0
 31
0.0
  0
LINE
  5
44B
330
1E
100
AcDbEntity
  8
0
100
AcDbLine
 10
371.8999999999999
 20
19.6
 30
0.0
 11
374.3
 21
13.6
 31
0.0
  0
LINE
  5
44C
330
1E
100
AcDbEntity
  8
0
100
AcDbLine
 10
420.1
 20
19.6
 30
0.0
 11
421.0
 21
26.0
 31
0.0
  0
LINE
  5
56B
330
1E
100
AcDbEntity
  8
0
100
AcDbLine
 10
370.0
 20
26.0
 30
0.0
 11
370.9359999999999
 21
32.656
 31
0.0
  0
LINE
  5
56C
330
1E
100
AcDbEntity
  8
0
100
AcDbLine
 10
370.0
 20
26.0
 30
0.0
 11
370.9359999999999
 21
19.344
 31
0.0
  0
LINE
  5
56D
330
1E
100
AcDbEntity
  8
0
100
AcDbLine
 10
371.0
 20
26.0
 30
0.0
 11
371.8999999999999
 21
32.4
 31
0.0
  0
LINE
  5
56E
330
1E
100
AcDbEntity
  8
0
100
AcDbLine
 10
371.0
 20
26.0
 30
0.0
 11
371.8999999999999
 21
19.6
 31
0.0
  0
LINE
  5
5FD
330
1E
100
AcDbEntity
  8
0
100
AcDbLine
 10
420.1
 20
32.4
 30
0.0
 11
421.0
 21
26.0
 31
0.0
  0
LINE
  5
5FE
330
1E
100
AcDbEntity
  8
0
100
AcDbLine
 10
371.8999999999999
 20
32.4
 30
0.0
 11
374.3
 21
38.39999999999999
 31
0.0
  0
LINE
  5
60D
330
1E
100
AcDbEntity
  8
0
100
AcDbLine
 10
170.1
 20
32.4
 30
0.0
 11
171.0
 21
26.0
 31
0.0
  0
LINE
  5
60E
330
1E
100
AcDbEntity
  8
0
100
AcDbLine
 10
123.432
 20
38.896
 30
0.0
 11
127.592
 21
44.408
 31
0.0
  0
LINE
  5
60F
330
1E
100
AcDbEntity
  8
0
100
AcDbLine
 10
158.0359999999999
 20
38.036
 30
0.0
 11
160.756
 21
34.43199999999999
 31
0.0
  0
LINE
  5
610
330
1E
100
AcDbEntity
  8
0
100
AcDbLine
 10
160.756
 20
34.43199999999999
 30
0.0
 11
162.3879999999999
 21
30.35199999999999
 31
0.0
  0
LINE
  5
611
330
1E
100
AcDbEntity
  8
0
100
AcDbLine
 10
133.9639999999999
 20
38.036
 30
0.0
 11
137.5679999999999
 21
40.756
 31
0.0
  0
LINE
  5
612
330
1E
100
AcDbEntity
  8
0
100
AcDbLine
 10
131.244
 20
34.43199999999999
 30
0.0
 11
133.9639999999999
 21
38.036
 31
0.0
  0
LINE
  5
613
330
1E
100
AcDbEntity
  8
0
100
AcDbLine
 10
158.7439999999999
 20
38.74399999999999
 30
0.0
 11
161.6239999999999
 21
34.928
 31
0.0
  0
LINE
  5
614
330
1E
100
AcDbEntity
  8
0
100
AcDbLine
 10
161.6239999999999
 20
34.928
 30
0.0
 11
163.352
 21
30.608
 31
0.0
  0
LINE
  5
615
330
1E
100
AcDbEntity
  8
0
100
AcDbLine
 10
150.3519999999999
 20
42.388
 30
0.0
 11
154.432
 21
40.756
 31
0.0
  0
LINE
  5
616
330
1E
100
AcDbEntity
  8
0
100
AcDbLine
 10
154.432
 20
40.756
 30
0.0
 11
158.0359999999999
 21
38.036
 31
0.0
  0
LINE
  5
617
330
1E
100
AcDbEntity
  8
0
100
AcDbLine
 10
146.0
 20
43.0
 30
0.0
 11
150.3519999999999
 21
42.388
 31
0.0
  0
LINE
  5
618
330
1E
100
AcDbEntity
  8
0
100
AcDbLine
 10
141.6479999999999
 20
42.388
 30
0.0
 11
146.0
 21
43.0
 31
0.0
  0
LINE
  5
619
330
1E
100
AcDbEntity
  8
0
100
AcDbLine
 10
137.5679999999999
 20
40.756
 30
0.0
 11
141.6479999999999
 21
42.388
 31
0.0
  0
LINE
  5
61A
330
1E
100
AcDbEntity
  8
0
100
AcDbLine
 10
150.608
 20
43.35199999999999
 30
0.0
 11
154.9279999999999
 21
41.62399999999999
 31
0.0
  0
LINE
  5
61B
330
1E
100
AcDbEntity
  8
0
100
AcDbLine
 10
154.9279999999999
 20
41.62399999999999
 30
0.0
 11
158.7439999999999
 21
38.74399999999999
 31
0.0
  0
LINE
  5
61C
330
1E
100
AcDbEntity
  8
0
100
AcDbLine
 10
141.392
 20
43.35199999999999
 30
0.0
 11
146.0
 21
44.0
 31
0.0
  0
LINE
  5
61D
330
1E
100
AcDbEntity
  8
0
100
AcDbLine
 10
137.072
 20
41.62399999999999
 30
0.0
 11
141.392
 21
43.35199999999999
 31
0.0
  0
LINE
  5
61E
330
1E
100
AcDbEntity
  8
0
100
AcDbLine
 10
133.2559999999999
 20
38.74399999999999
 30
0.0
 11
137.072
 21
41.62399999999999
 31
0.0
  0
LINE
  5
61F
330
1E
100
AcDbEntity
  8
0
100
AcDbLine
 10
130.376
 20
34.928
 30
0.0
 11
133.2559999999999
 21
38.74399999999999
 31
0.0
  0
LINE
  5
620
330
1E
100
AcDbEntity
  8
0
100
AcDbLine
 10
163.7
 20
43.7
 30
0.0
 11
167.6999999999999
 21
38.39999999999999
 31
0.0
  0
LINE
  5
621
330
1E
100
AcDbEntity
  8
0
100
AcDbLine
 10
171.064
 20
32.656
 30
0.0
 11
172.0
 21
26.0
 31
0.0
  0
LINE
  5
622
330
1E
100
AcDbEntity
  8
0
100
AcDbLine
 10
171.0
 20
32.816
 30
0.0
 11
171.0
 21
33.81199999999999
 31
0.0
  0
LINE
  5
62A
330
1E
100
AcDbEntity
  8
0
100
AcDbLine
 10
421.064
 20
32.656
 30
0.0
 11
422.0
 21
26.0
 31
0.0
  0
LINE
  5
62B
330
1E
100
AcDbEntity
  8
0
100
AcDbLine
 10
370.9359999999999
 20
32.656
 30
0.0
 11
373.4319999999999
 21
38.896
 31
0.0
  0
LINE
  5
640
330
1E
100
AcDbEntity
  8
0
100
AcDbLine
 10
168.5679999999999
 20
38.896
 30
0.0
 11
171.064
 21
32.656
 31
0.0
  0
LINE
  5
641
330
1E
100
AcDbEntity
  8
0
100
AcDbLine
 10
171.0
 20
35.0
 30
0.0
 11
171.0
 21
34.676
 31
0.0
  0
LINE
  5
642
330
1E
100
AcDbEntity
  8
0
100
AcDbLine
 10
171.0
 20
34.676
 30
0.0
 11
171.0
 21
33.81199999999999
 31
0.0
  0
LINE
  5
643
330
1E
100
AcDbEntity
  8
0
100
AcDbLine
 10
171.0
 20
34.676
 30
0.0
 11
171.0
 21
35.0
 31
0.0
  0
LINE
  5
644
330
1E
100
AcDbEntity
  8
0
100
AcDbLine
 10
171.0
 20
33.81199999999999
 30
0.0
 11
171.0
 21
32.816
 31
0.0
  0
LINE
  5
645
330
1E
100
AcDbEntity
  8
0
100
AcDbLine
 10
171.0
 20
33.81199999999999
 30
0.0
 11
171.0
 21
34.676
 31
0.0
  0
LINE
  5
646
330
1E
100
AcDbEntity
  8
0
100
AcDbLine
 10
170.1263999999999
 20
35.0
 30
0.0
 11
171.0
 21
35.0
 31
0.0
  0
LINE
  5
685
330
1E
100
AcDbEntity
  8
0
100
AcDbLine
 10
417.6999999999999
 20
38.39999999999999
 30
0.0
 11
420.1
 21
32.4
 31
0.0
  0
LINE
  5
686
330
1E
100
AcDbEntity
  8
0
100
AcDbLine
 10
373.4319999999999
 20
38.896
 30
0.0
 11
377.5919999999999
 21
44.408
 31
0.0
  0
LINE
  5
687
330
1E
100
AcDbEntity
  8
0
100
AcDbLine
 10
418.568
 20
38.896
 30
0.0
 11
421.064
 21
32.656
 31
0.0
  0
LINE
  5
688
330
1E
100
AcDbEntity
  8
0
100
AcDbLine
 10
413.6999999999999
 20
43.7
 30
0.0
 11
417.6999999999999
 21
38.39999999999999
 31
0.0
  0
LINE
  5
689
330
1E
100
AcDbEntity
  8
0
100
AcDbLine
 10
378.3
 20
43.7
 30
0.0
 11
383.6
 21
47.7
 31
0.0
  0
LINE
  5
68A
330
1E
100
AcDbEntity
  8
0
100
AcDbLine
 10
374.3
 20
38.39999999999999
 30
0.0
 11
378.3
 21
43.7
 31
0.0
  0
LINE
  5
690
330
1E
100
AcDbEntity
  8
0
100
AcDbLine
 10
167.6999999999999
 20
38.39999999999999
 30
0.0
 11
170.1
 21
32.4
 31
0.0
  0
LINE
  5
691
330
1E
100
AcDbEntity
  8
0
100
AcDbLine
 10
133.1039999999999
 20
48.568
 30
0.0
 11
139.344
 21
51.06399999999999
 31
0.0
  0
LINE
  5
692
330
1E
100
AcDbEntity
  8
0
100
AcDbLine
 10
127.592
 20
44.408
 30
0.0
 11
133.1039999999999
 21
48.568
 31
0.0
  0
LINE
  5
693
330
1E
100
AcDbEntity
  8
0
100
AcDbLine
 10
146.0
 20
44.0
 30
0.0
 11
150.608
 21
43.35199999999999
 31
0.0
  0
LINE
  5
694
330
1E
100
AcDbEntity
  8
0
100
AcDbLine
 10
152.4
 20
50.1
 30
0.0
 11
158.4
 21
47.7
 31
0.0
  0
LINE
  5
695
330
1E
100
AcDbEntity
  8
0
100
AcDbLine
 10
164.4079999999999
 20
44.408
 30
0.0
 11
168.5679999999999
 21
38.896
 31
0.0
  0
LINE
  5
697
330
1E
100
AcDbEntity
  8
0
100
AcDbLine
 10
414.408
 20
44.408
 30
0.0
 11
418.568
 21
38.896
 31
0.0
  0
LINE
  5
698
330
1E
100
AcDbEntity
  8
0
100
AcDbLine
 10
377.5919999999999
 20
44.408
 30
0.0
 11
383.104
 21
48.568
 31
0.0
  0
LINE
  5
69C
330
1E
100
AcDbEntity
  8
0
100
AcDbLine
 10
158.896
 20
48.568
 30
0.0
 11
164.4079999999999
 21
44.408
 31
0.0
  0
LINE
  5
69F
330
1E
100
AcDbEntity
  8
0
100
AcDbLine
 10
408.3999999999999
 20
47.7
 30
0.0
 11
413.6999999999999
 21
43.7
 31
0.0
  0
LINE
  5
6A0
330
1E
100
AcDbEntity
  8
0
100
AcDbLine
 10
383.104
 20
48.568
 30
0.0
 11
389.344
 21
51.06399999999999
 31
0.0
  0
LINE
  5
6A1
330
1E
100
AcDbEntity
  8
0
100
AcDbLine
 10
408.8959999999999
 20
48.568
 30
0.0
 11
414.408
 21
44.408
 31
0.0
  0
LINE
  5
6A2
330
1E
100
AcDbEntity
  8
0
100
AcDbLine
 10
402.4
 20
50.1
 30
0.0
 11
408.3999999999999
 21
47.7
 31
0.0
  0
LINE
  5
6A3
330
1E
100
AcDbEntity
  8
0
100
AcDbLine
 10
389.6
 20
50.1
 30
0.0
 11
396.0
 21
51.0
 31
0.0
  0
LINE
  5
6A4
330
1E
100
AcDbEntity
  8
0
100
AcDbLine
 10
383.6
 20
47.7
 30
0.0
 11
389.6
 21
50.1
 31
0.0
  0
LINE
  5
6A7
330
1E
100
AcDbEntity
  8
0
100
AcDbLine
 10
158.4
 20
47.7
 30
0.0
 11
163.7
 21
43.7
 31
0.0
  0
LINE
  5
6A8
330
1E
100
AcDbEntity
  8
0
100
AcDbLine
 10
146.0
 20
52.0
 30
0.0
 11
152.656
 21
51.06399999999999
 31
0.0
  0
LINE
  5
6A9
330
1E
100
AcDbEntity
  8
0
100
AcDbLine
 10
139.344
 20
51.06399999999999
 30
0.0
 11
146.0
 21
52.0
 31
0.0
  0
LINE
  5
6AA
330
1E
100
AcDbEntity
  8
0
100
AcDbLine
 10
402.6559999999999
 20
51.06399999999999
 30
0.0
 11
408.8959999999999
 21
48.568
 31
0.0
  0
LINE
  5
6AB
330
1E
100
AcDbEntity
  8
0
100
AcDbLine
 10
396.0
 20
52.0
 30
0.0
 11
402.6559999999999
 21
51.06399999999999
 31
0.0
  0
LINE
  5
6AC
330
1E
100
AcDbEntity
  8
0
100
AcDbLine
 10
389.344
 20
51.06399999999999
 30
0.0
 11
396.0
 21
52.0
 31
0.0
  0
LINE
  5
6AD
330
1E
100
AcDbEntity
  8
0
100
AcDbLine
 10
152.656
 20
51.06399999999999
 30
0.0
 11
158.896
 21
48.568
 31
0.0
  0
LINE
  5
6AE
330
1E
100
AcDbEntity
  8
0
100
AcDbLine
 10
396.0
 20
51.0
 30
0.0
 11
402.4
 21
50.1
 31
0.0
  0
LINE
  5
6AF
330
1E
100
AcDbEntity
  8
0
100
AcDbLine
 10
146.0
 20
51.0
 30
0.0
 11
152.4
 21
50.1
 31
0.0
  0
LINE
  5
6B0
330
1E
100
AcDbEntity
  8
0
100
AcDbLine
 10
139.5999999999999
 20
50.1
 30
0.0
 11
146.0
 21
51.0
 31
0.0
  0
LINE
  5
6B1
330
1E
100
AcDbEntity
  8
0
100
AcDbLine
 10
133.6
 20
47.7
 30
0.0
 11
139.5999999999999
 21
50.1
 31
0.0
  0
LINE
  5
6B2
330
1E
100
AcDbEntity
  8
0
100
AcDbLine
 10
128.3
 20
43.7
 30
0.0
 11
133.6
 21
47.7
 31
0.0
  0
LINE
  5
6B3
330
1E
100
AcDbEntity
  8
0
100
AcDbLine
 10
124.3
 20
38.39999999999999
 30
0.0
 11
128.3
 21
43.7
 31
0.0
  0
LINE
  5
6B4
330
1E
100
AcDbEntity
  8
0
100
AcDbLine
 10
121.9
 20
32.4
 30
0.0
 11
124.3
 21
38.39999999999999
 31
0.0
  0
LINE
  5
6B5
330
1E
100
AcDbEntity
  8
0
100
AcDbLine
 10
121.0
 20
26.0
 30
0.0
 11
121.9
 21
32.4
 31
0.0
  0
LINE
  5
6B6
330
1E
100
AcDbEntity
  8
0
100
AcDbLine
 10
121.0
 20
26.0
 30
0.0
 11
121.9
 21
19.6
 31
0.0
  0
LINE
  5
6BB
330
1E
100
AcDbEntity
  8
0
100
AcDbLine
 10
21.0
 20
17.0
 30
0.0
 11
21.463
 21
17.0631
 31
0.0
  0
LINE
  5
6BC
330
1E
100
AcDbEntity
  8
0
100
AcDbLine
 10
61.5238
 20
29.9219
 30
0.0
 11
61.5238
 21
29.0894
 31
0.0
  0
LINE
  5
6BD
330
1E
100
AcDbEntity
  8
0
100
AcDbLine
 10
105.1142999999999
 20
27.60369999999999
 30
0.0
 11
105.0475999999999
 21
26.0
 31
0.0
  0
LINE
  5
6BE
330
1E
100
AcDbEntity
  8
0
100
AcDbLine
 10
115.0
 20
27.79199999999999
 30
0.0
 11
115.0
 21
26.0
 31
0.0
  0
LINE
  5
6BF
330
1E
100
AcDbEntity
  8
0
100
AcDbLine
 10
105.0
 20
27.5273
 30
0.0
 11
105.0
 21
26.0
 31
0.0
  0
LINE
  5
6C0
330
1E
100
AcDbEntity
  8
0
100
AcDbLine
 10
114.9523999999999
 20
26.0
 30
0.0
 11
114.8857
 21
27.60369999999999
 31
0.0
  0
LINE
  5
6C1
330
1E
100
AcDbEntity
  8
0
100
AcDbLine
 10
105.0
 20
26.0
 30
0.0
 11
105.0
 21
27.5273
 31
0.0
  0
LINE
  5
6C2
330
1E
100
AcDbEntity
  8
0
100
AcDbLine
 10
115.0
 20
26.0
 30
0.0
 11
115.0
 21
27.79199999999999
 31
0.0
  0
LINE
  5
6C4
330
1E
100
AcDbEntity
  8
0
100
AcDbLine
 10
121.0
 20
19.0
 30
0.0
 11
115.0
 21
19.0
 31
0.0
  0
LINE
  5
6C5
330
1E
100
AcDbEntity
  8
0
100
AcDbLine
 10
105.4761999999999
 20
22.07809999999999
 30
0.0
 11
105.1730999999999
 21
21.48179999999999
 31
0.0
  0
LINE
  5
6C6
330
1E
100
AcDbEntity
  8
0
100
AcDbLine
 10
105.0
 20
23.0727
 30
0.0
 11
105.0
 21
21.8318
 31
0.0
  0
LINE
  5
6C7
330
1E
100
AcDbEntity
  8
0
100
AcDbLine
 10
115.0
 20
23.0727
 30
0.0
 11
115.0
 21
21.8318
 31
0.0
  0
LINE
  5
6C8
330
1E
100
AcDbEntity
  8
0
100
AcDbLine
 10
115.0
 20
22.528
 30
0.0
 11
115.0
 21
21.044
 31
0.0
  0
LINE
  5
6C9
330
1E
100
AcDbEntity
  8
0
100
AcDbLine
 10
115.0
 20
21.044
 30
0.0
 11
115.0
 21
22.528
 31
0.0
  0
LINE
  5
6CA
330
1E
100
AcDbEntity
  8
0
100
AcDbLine
 10
114.8267999999999
 20
21.48179999999999
 30
0.0
 11
114.5237999999999
 21
22.07809999999999
 31
0.0
  0
LINE
  5
6CB
330
1E
100
AcDbEntity
  8
0
100
AcDbLine
 10
105.0
 20
21.8318
 30
0.0
 11
105.0
 21
23.0727
 31
0.0
  0
LINE
  5
6CC
330
1E
100
AcDbEntity
  8
0
100
AcDbLine
 10
115.0
 20
21.8318
 30
0.0
 11
115.0
 21
23.0727
 31
0.0
  0
LINE
  5
6CD
330
1E
100
AcDbEntity
  8
0
100
AcDbLine
 10
114.9037
 20
20.6304
 30
0.0
 11
114.8006999999999
 21
19.7836
 31
0.0
  0
LINE
  5
6CE
330
1E
100
AcDbEntity
  8
0
100
AcDbLine
 10
115.0
 20
20.1137
 30
0.0
 11
114.8571
 21
19.6363
 31
0.0
  0
LINE
  5
6CF
330
1E
100
AcDbEntity
  8
0
100
AcDbLine
 10
105.1992999999999
 20
19.7836
 30
0.0
 11
105.0962
 21
20.6304
 31
0.0
  0
LINE
  5
6D0
330
1E
100
AcDbEntity
  8
0
100
AcDbLine
 10
115.0
 20
19.92399999999999
 30
0.0
 11
115.0
 21
19.252
 31
0.0
  0
LINE
  5
6D1
330
1E
100
AcDbEntity
  8
0
100
AcDbLine
 10
105.1428999999999
 20
19.6363
 30
0.0
 11
105.0
 21
20.1137
 31
0.0
  0
LINE
  5
6D2
330
1E
100
AcDbEntity
  8
0
100
AcDbLine
 10
115.0
 20
19.252
 30
0.0
 11
115.0
 21
19.92399999999999
 31
0.0
  0
LINE
  5
6D3
330
1E
100
AcDbEntity
  8
0
100
AcDbLine
 10
114.0476
 20
19.0
 30
0.0
 11
105.9523999999999
 21
19.0
 31
0.0
  0
LINE
  5
6D4
330
1E
100
AcDbEntity
  8
0
100
AcDbLine
 10
114.8006999999999
 20
19.7836
 30
0.0
 11
114.5237999999999
 21
19.2678
 31
0.0
  0
LINE
  5
6D5
330
1E
100
AcDbEntity
  8
0
100
AcDbLine
 10
114.8571
 20
19.6363
 30
0.0
 11
114.5237999999999
 21
19.1591
 31
0.0
  0
LINE
  5
6D6
330
1E
100
AcDbEntity
  8
0
100
AcDbLine
 10
114.5237999999999
 20
19.1591
 30
0.0
 11
114.5237999999999
 21
19.2678
 31
0.0
  0
LINE
  5
6D7
330
1E
100
AcDbEntity
  8
0
100
AcDbLine
 10
114.5237999999999
 20
19.1591
 30
0.0
 11
114.0476
 21
19.0
 31
0.0
  0
LINE
  5
6D8
330
1E
100
AcDbEntity
  8
0
100
AcDbLine
 10
114.5237999999999
 20
19.2678
 30
0.0
 11
114.5237999999999
 21
19.1591
 31
0.0
  0
LINE
  5
6D9
330
1E
100
AcDbEntity
  8
0
100
AcDbLine
 10
115.0
 20
19.252
 30
0.0
 11
115.0
 21
19.0
 31
0.0
  0
LINE
  5
6DA
330
1E
100
AcDbEntity
  8
0
100
AcDbLine
 10
115.0
 20
19.0
 30
0.0
 11
115.0
 21
19.252
 31
0.0
  0
LINE
  5
6DB
330
1E
100
AcDbEntity
  8
0
100
AcDbLine
 10
105.4761999999999
 20
19.1591
 30
0.0
 11
105.4761999999999
 21
19.2678
 31
0.0
  0
LINE
  5
6DC
330
1E
100
AcDbEntity
  8
0
100
AcDbLine
 10
105.4761999999999
 20
19.1591
 30
0.0
 11
105.1428999999999
 21
19.6363
 31
0.0
  0
LINE
  5
6DD
330
1E
100
AcDbEntity
  8
0
100
AcDbLine
 10
105.4761999999999
 20
19.2678
 30
0.0
 11
105.4761999999999
 21
19.1591
 31
0.0
  0
LINE
  5
6DE
330
1E
100
AcDbEntity
  8
0
100
AcDbLine
 10
105.4761999999999
 20
19.2678
 30
0.0
 11
105.1992999999999
 21
19.7836
 31
0.0
  0
LINE
  5
6DF
330
1E
100
AcDbEntity
  8
0
100
AcDbLine
 10
105.9523999999999
 20
19.0
 30
0.0
 11
105.4761999999999
 21
19.1591
 31
0.0
  0
LINE
  5
6E0
330
1E
100
AcDbEntity
  8
0
100
AcDbLine
 10
115.0
 20
21.044
 30
0.0
 11
115.0
 21
19.92399999999999
 31
0.0
  0
LINE
  5
6E1
330
1E
100
AcDbEntity
  8
0
100
AcDbLine
 10
114.9037
 20
20.6304
 30
0.0
 11
114.8267999999999
 21
21.48179999999999
 31
0.0
  0
LINE
  5
6E2
330
1E
100
AcDbEntity
  8
0
100
AcDbLine
 10
115.0
 20
19.92399999999999
 30
0.0
 11
115.0
 21
21.044
 31
0.0
  0
LINE
  5
6E3
330
1E
100
AcDbEntity
  8
0
100
AcDbLine
 10
105.1730999999999
 20
21.48179999999999
 30
0.0
 11
105.0962
 21
20.6304
 31
0.0
  0
LINE
  5
6E4
330
1E
100
AcDbEntity
  8
0
100
AcDbLine
 10
105.0
 20
21.8318
 30
0.0
 11
105.0
 21
20.9091
 31
0.0
  0
LINE
  5
6E5
330
1E
100
AcDbEntity
  8
0
100
AcDbLine
 10
105.0
 20
20.9091
 30
0.0
 11
105.0
 21
21.8318
 31
0.0
  0
LINE
  5
6E6
330
1E
100
AcDbEntity
  8
0
100
AcDbLine
 10
105.0
 20
20.9091
 30
0.0
 11
105.0
 21
20.3363
 31
0.0
  0
LINE
  5
6E7
330
1E
100
AcDbEntity
  8
0
100
AcDbLine
 10
105.0
 20
20.3363
 30
0.0
 11
105.0
 21
20.9091
 31
0.0
  0
LINE
  5
6E8
330
1E
100
AcDbEntity
  8
0
100
AcDbLine
 10
105.0
 20
20.3363
 30
0.0
 11
105.0
 21
20.1137
 31
0.0
  0
LINE
  5
6E9
330
1E
100
AcDbEntity
  8
0
100
AcDbLine
 10
105.0
 20
20.1137
 30
0.0
 11
105.0
 21
20.3363
 31
0.0
  0
LINE
  5
6EA
330
1E
100
AcDbEntity
  8
0
100
AcDbLine
 10
105.0
 20
24.4727
 30
0.0
 11
105.0
 21
23.0727
 31
0.0
  0
LINE
  5
6EB
330
1E
100
AcDbEntity
  8
0
100
AcDbLine
 10
114.8857
 20
24.3963
 30
0.0
 11
114.5237999999999
 21
22.91059999999999
 31
0.0
  0
LINE
  5
6EC
330
1E
100
AcDbEntity
  8
0
100
AcDbLine
 10
115.0
 20
24.208
 30
0.0
 11
115.0
 21
22.528
 31
0.0
  0
LINE
  5
6ED
330
1E
100
AcDbEntity
  8
0
100
AcDbLine
 10
105.0
 20
23.0727
 30
0.0
 11
105.0
 21
24.4727
 31
0.0
  0
LINE
  5
6EE
330
1E
100
AcDbEntity
  8
0
100
AcDbLine
 10
105.4761999999999
 20
22.91059999999999
 30
0.0
 11
105.1142999999999
 21
24.3963
 31
0.0
  0
LINE
  5
6EF
330
1E
100
AcDbEntity
  8
0
100
AcDbLine
 10
115.0
 20
22.528
 30
0.0
 11
115.0
 21
24.208
 31
0.0
  0
LINE
  5
6F0
330
1E
100
AcDbEntity
  8
0
100
AcDbLine
 10
114.0476
 20
22.49109999999999
 30
0.0
 11
105.9523999999999
 21
22.49109999999999
 31
0.0
  0
LINE
  5
6F1
330
1E
100
AcDbEntity
  8
0
100
AcDbLine
 10
114.5237999999999
 20
22.91059999999999
 30
0.0
 11
114.5237999999999
 21
22.5954
 31
0.0
  0
LINE
  5
6F2
330
1E
100
AcDbEntity
  8
0
100
AcDbLine
 10
114.5237999999999
 20
22.5954
 30
0.0
 11
114.5237999999999
 21
22.07809999999999
 31
0.0
  0
LINE
  5
6F3
330
1E
100
AcDbEntity
  8
0
100
AcDbLine
 10
114.5237999999999
 20
22.5954
 30
0.0
 11
114.5237999999999
 21
22.91059999999999
 31
0.0
  0
LINE
  5
6F4
330
1E
100
AcDbEntity
  8
0
100
AcDbLine
 10
114.5237999999999
 20
22.07809999999999
 30
0.0
 11
114.5237999999999
 21
22.5954
 31
0.0
  0
LINE
  5
6F5
330
1E
100
AcDbEntity
  8
0
100
AcDbLine
 10
105.4761999999999
 20
22.07809999999999
 30
0.0
 11
105.4761999999999
 21
22.5954
 31
0.0
  0
LINE
  5
6F6
330
1E
100
AcDbEntity
  8
0
100
AcDbLine
 10
105.4761999999999
 20
22.91059999999999
 30
0.0
 11
105.4761999999999
 21
22.5954
 31
0.0
  0
LINE
  5
6F7
330
1E
100
AcDbEntity
  8
0
100
AcDbLine
 10
105.4761999999999
 20
22.5954
 30
0.0
 11
105.4761999999999
 21
22.91059999999999
 31
0.0
  0
LINE
  5
6F8
330
1E
100
AcDbEntity
  8
0
100
AcDbLine
 10
114.9523999999999
 20
26.0
 30
0.0
 11
114.8857
 21
24.3963
 31
0.0
  0
LINE
  5
6F9
330
1E
100
AcDbEntity
  8
0
100
AcDbLine
 10
115.0
 20
26.0
 30
0.0
 11
115.0
 21
24.208
 31
0.0
  0
LINE
  5
6FA
330
1E
100
AcDbEntity
  8
0
100
AcDbLine
 10
115.0
 20
26.0
 30
0.0
 11
115.0
 21
24.4727
 31
0.0
  0
LINE
  5
6FB
330
1E
100
AcDbEntity
  8
0
100
AcDbLine
 10
115.0
 20
24.4727
 30
0.0
 11
115.0
 21
26.0
 31
0.0
  0
LINE
  5
6FC
330
1E
100
AcDbEntity
  8
0
100
AcDbLine
 10
115.0
 20
24.208
 30
0.0
 11
115.0
 21
26.0
 31
0.0
  0
LINE
  5
6FD
330
1E
100
AcDbEntity
  8
0
100
AcDbLine
 10
105.0
 20
26.0
 30
0.0
 11
105.0
 21
24.4727
 31
0.0
  0
LINE
  5
6FE
330
1E
100
AcDbEntity
  8
0
100
AcDbLine
 10
105.1142999999999
 20
24.3963
 30
0.0
 11
105.0475999999999
 21
26.0
 31
0.0
  0
LINE
  5
6FF
330
1E
100
AcDbEntity
  8
0
100
AcDbLine
 10
105.0
 20
24.4727
 30
0.0
 11
105.0
 21
26.0
 31
0.0
  0
LINE
  5
701
330
1E
100
AcDbEntity
  8
0
100
AcDbLine
 10
121.0
 20
33.0
 30
0.0
 11
115.0
 21
33.0
 31
0.0
  0
LINE
  5
702
330
1E
100
AcDbEntity
  8
0
100
AcDbLine
 10
115.0
 20
30.1682
 30
0.0
 11
115.0
 21
28.9273
 31
0.0
  0
LINE
  5
703
330
1E
100
AcDbEntity
  8
0
100
AcDbLine
 10
115.0
 20
28.9273
 30
0.0
 11
115.0
 21
30.1682
 31
0.0
  0
LINE
  5
704
330
1E
100
AcDbEntity
  8
0
100
AcDbLine
 10
114.8267999999999
 20
30.5182
 30
0.0
 11
114.5237999999999
 21
29.9219
 31
0.0
  0
LINE
  5
705
330
1E
100
AcDbEntity
  8
0
100
AcDbLine
 10
115.0
 20
30.956
 30
0.0
 11
115.0
 21
29.472
 31
0.0
  0
LINE
  5
706
330
1E
100
AcDbEntity
  8
0
100
AcDbLine
 10
105.4761999999999
 20
29.9219
 30
0.0
 11
105.1730999999999
 21
30.5182
 31
0.0
  0
LINE
  5
707
330
1E
100
AcDbEntity
  8
0
100
AcDbLine
 10
105.0
 20
30.1682
 30
0.0
 11
105.0
 21
28.9273
 31
0.0
  0
LINE
  5
708
330
1E
100
AcDbEntity
  8
0
100
AcDbLine
 10
115.0
 20
29.472
 30
0.0
 11
115.0
 21
30.956
 31
0.0
  0
LINE
  5
709
330
1E
100
AcDbEntity
  8
0
100
AcDbLine
 10
105.0
 20
28.9273
 30
0.0
 11
105.0
 21
30.1682
 31
0.0
  0
LINE
  5
70A
330
1E
100
AcDbEntity
  8
0
100
AcDbLine
 10
115.0
 20
29.472
 30
0.0
 11
115.0
 21
27.79199999999999
 31
0.0
  0
LINE
  5
70B
330
1E
100
AcDbEntity
  8
0
100
AcDbLine
 10
115.0
 20
27.79199999999999
 30
0.0
 11
115.0
 21
29.472
 31
0.0
  0
LINE
  5
70C
330
1E
100
AcDbEntity
  8
0
100
AcDbLine
 10
105.4761999999999
 20
29.0894
 30
0.0
 11
105.1142999999999
 21
27.60369999999999
 31
0.0
  0
LINE
  5
70D
330
1E
100
AcDbEntity
  8
0
100
AcDbLine
 10
105.0
 20
28.9273
 30
0.0
 11
105.0
 21
27.5273
 31
0.0
  0
LINE
  5
70E
330
1E
100
AcDbEntity
  8
0
100
AcDbLine
 10
114.8857
 20
27.60369999999999
 30
0.0
 11
114.5237999999999
 21
29.0894
 31
0.0
  0
LINE
  5
70F
330
1E
100
AcDbEntity
  8
0
100
AcDbLine
 10
115.0
 20
28.9273
 30
0.0
 11
115.0
 21
27.5273
 31
0.0
  0
LINE
  5
710
330
1E
100
AcDbEntity
  8
0
100
AcDbLine
 10
105.0
 20
27.5273
 30
0.0
 11
105.0
 21
28.9273
 31
0.0
  0
LINE
  5
711
330
1E
100
AcDbEntity
  8
0
100
AcDbLine
 10
115.0
 20
27.5273
 30
0.0
 11
115.0
 21
28.9273
 31
0.0
  0
LINE
  5
712
330
1E
100
AcDbEntity
  8
0
100
AcDbLine
 10
114.0476
 20
29.5088
 30
0.0
 11
105.9523999999999
 21
29.5088
 31
0.0
  0
LINE
  5
713
330
1E
100
AcDbEntity
  8
0
100
AcDbLine
 10
114.5237999999999
 20
29.9219
 30
0.0
 11
114.5237999999999
 21
29.4045
 31
0.0
  0
LINE
  5
714
330
1E
100
AcDbEntity
  8
0
100
AcDbLine
 10
114.5237999999999
 20
29.4045
 30
0.0
 11
114.5237999999999
 21
29.9219
 31
0.0
  0
LINE
  5
715
330
1E
100
AcDbEntity
  8
0
100
AcDbLine
 10
114.5237999999999
 20
29.4045
 30
0.0
 11
114.5237999999999
 21
29.0894
 31
0.0
  0
LINE
  5
716
330
1E
100
AcDbEntity
  8
0
100
AcDbLine
 10
114.5237999999999
 20
29.0894
 30
0.0
 11
114.5237999999999
 21
29.4045
 31
0.0
  0
LINE
  5
717
330
1E
100
AcDbEntity
  8
0
100
AcDbLine
 10
105.4761999999999
 20
29.9219
 30
0.0
 11
105.4761999999999
 21
29.0894
 31
0.0
  0
LINE
  5
718
330
1E
100
AcDbEntity
  8
0
100
AcDbLine
 10
105.1992999999999
 20
32.2164
 30
0.0
 11
105.0962
 21
31.3696
 31
0.0
  0
LINE
  5
719
330
1E
100
AcDbEntity
  8
0
100
AcDbLine
 10
105.1428999999999
 20
32.36359999999999
 30
0.0
 11
105.0
 21
31.88639999999999
 31
0.0
  0
LINE
  5
71A
330
1E
100
AcDbEntity
  8
0
100
AcDbLine
 10
115.0
 20
31.88639999999999
 30
0.0
 11
114.8571
 21
32.36359999999999
 31
0.0
  0
LINE
  5
71B
330
1E
100
AcDbEntity
  8
0
100
AcDbLine
 10
115.0
 20
32.076
 30
0.0
 11
115.0
 21
32.748
 31
0.0
  0
LINE
  5
71C
330
1E
100
AcDbEntity
  8
0
100
AcDbLine
 10
115.0
 20
32.748
 30
0.0
 11
115.0
 21
32.076
 31
0.0
  0
LINE
  5
71D
330
1E
100
AcDbEntity
  8
0
100
AcDbLine
 10
114.9037
 20
31.3696
 30
0.0
 11
114.8006999999999
 21
32.2164
 31
0.0
  0
LINE
  5
71E
330
1E
100
AcDbEntity
  8
0
100
AcDbLine
 10
115.0
 20
32.076
 30
0.0
 11
115.0
 21
30.956
 31
0.0
  0
LINE
  5
71F
330
1E
100
AcDbEntity
  8
0
100
AcDbLine
 10
114.9037
 20
31.3696
 30
0.0
 11
114.8267999999999
 21
30.5182
 31
0.0
  0
LINE
  5
720
330
1E
100
AcDbEntity
  8
0
100
AcDbLine
 10
115.0
 20
30.956
 30
0.0
 11
115.0
 21
32.076
 31
0.0
  0
LINE
  5
721
330
1E
100
AcDbEntity
  8
0
100
AcDbLine
 10
105.0
 20
31.0909
 30
0.0
 11
105.0
 21
30.1682
 31
0.0
  0
LINE
  5
722
330
1E
100
AcDbEntity
  8
0
100
AcDbLine
 10
105.1730999999999
 20
30.5182
 30
0.0
 11
105.0962
 21
31.3696
 31
0.0
  0
LINE
  5
723
330
1E
100
AcDbEntity
  8
0
100
AcDbLine
 10
105.0
 20
30.1682
 30
0.0
 11
105.0
 21
31.0909
 31
0.0
  0
LINE
  5
724
330
1E
100
AcDbEntity
  8
0
100
AcDbLine
 10
105.0
 20
31.88639999999999
 30
0.0
 11
105.0
 21
31.6636
 31
0.0
  0
LINE
  5
725
330
1E
100
AcDbEntity
  8
0
100
AcDbLine
 10
105.0
 20
31.6636
 30
0.0
 11
105.0
 21
31.0909
 31
0.0
  0
LINE
  5
726
330
1E
100
AcDbEntity
  8
0
100
AcDbLine
 10
105.0
 20
31.6636
 30
0.0
 11
105.0
 21
31.88639999999999
 31
0.0
  0
LINE
  5
727
330
1E
100
AcDbEntity
  8
0
100
AcDbLine
 10
105.0
 20
31.0909
 30
0.0
 11
105.0
 21
31.6636
 31
0.0
  0
LINE
  5
728
330
1E
100
AcDbEntity
  8
0
100
AcDbLine
 10
114.0476
 20
33.0
 30
0.0
 11
105.9523999999999
 21
33.0
 31
0.0
  0
LINE
  5
729
330
1E
100
AcDbEntity
  8
0
100
AcDbLine
 10
114.8571
 20
32.36359999999999
 30
0.0
 11
114.5237999999999
 21
32.84089999999999
 31
0.0
  0
LINE
  5
72A
330
1E
100
AcDbEntity
  8
0
100
AcDbLine
 10
114.5237999999999
 20
32.84089999999999
 30
0.0
 11
114.5237999999999
 21
32.7322
 31
0.0
  0
LINE
  5
72B
330
1E
100
AcDbEntity
  8
0
100
AcDbLine
 10
114.5237999999999
 20
32.84089999999999
 30
0.0
 11
114.0476
 21
33.0
 31
0.0
  0
LINE
  5
72C
330
1E
100
AcDbEntity
  8
0
100
AcDbLine
 10
114.5237999999999
 20
32.7322
 30
0.0
 11
114.5237999999999
 21
32.84089999999999
 31
0.0
  0
LINE
  5
72D
330
1E
100
AcDbEntity
  8
0
100
AcDbLine
 10
114.8006999999999
 20
32.2164
 30
0.0
 11
114.5237999999999
 21
32.7322
 31
0.0
  0
LINE
  5
72E
330
1E
100
AcDbEntity
  8
0
100
AcDbLine
 10
115.0
 20
32.748
 30
0.0
 11
115.0
 21
33.0
 31
0.0
  0
LINE
  5
72F
330
1E
100
AcDbEntity
  8
0
100
AcDbLine
 10
115.0
 20
33.0
 30
0.0
 11
115.0
 21
32.748
 31
0.0
  0
LINE
  5
730
330
1E
100
AcDbEntity
  8
0
100
AcDbLine
 10
105.9523999999999
 20
33.0
 30
0.0
 11
105.4761999999999
 21
32.84089999999999
 31
0.0
  0
LINE
  5
731
330
1E
100
AcDbEntity
  8
0
100
AcDbLine
 10
105.4761999999999
 20
32.84089999999999
 30
0.0
 11
105.4761999999999
 21
32.7322
 31
0.0
  0
LINE
  5
732
330
1E
100
AcDbEntity
  8
0
100
AcDbLine
 10
105.4761999999999
 20
32.84089999999999
 30
0.0
 11
105.1428999999999
 21
32.36359999999999
 31
0.0
  0
LINE
  5
733
330
1E
100
AcDbEntity
  8
0
100
AcDbLine
 10
105.4761999999999
 20
32.7322
 30
0.0
 11
105.1992999999999
 21
32.2164
 31
0.0
  0
LINE
  5
734
330
1E
100
AcDbEntity
  8
0
100
AcDbLine
 10
105.4761999999999
 20
32.7322
 30
0.0
 11
105.4761999999999
 21
32.84089999999999
 31
0.0
  0
LINE
  5
735
330
1E
100
AcDbEntity
  8
0
100
AcDbLine
 10
177.0
 20
26.0
 30
0.0
 11
177.0
 21
27.79199999999999
 31
0.0
  0
LINE
  5
736
330
1E
100
AcDbEntity
  8
0
100
AcDbLine
 10
187.0
 20
26.0
 30
0.0
 11
187.0
 21
27.5273
 31
0.0
  0
LINE
  5
737
330
1E
100
AcDbEntity
  8
0
100
AcDbLine
 10
177.0475999999999
 20
26.0
 30
0.0
 11
177.1143
 21
27.60369999999999
 31
0.0
  0
LINE
  5
738
330
1E
100
AcDbEntity
  8
0
100
AcDbLine
 10
187.0
 20
27.5273
 30
0.0
 11
187.0
 21
26.0
 31
0.0
  0
LINE
  5
739
330
1E
100
AcDbEntity
  8
0
100
AcDbLine
 10
177.0
 20
27.79199999999999
 30
0.0
 11
177.0
 21
26.0
 31
0.0
  0
LINE
  5
73A
330
1E
100
AcDbEntity
  8
0
100
AcDbLine
 10
186.8857
 20
27.60369999999999
 30
0.0
 11
186.9524
 21
26.0
 31
0.0
  0
LINE
  5
73B
330
1E
100
AcDbEntity
  8
0
100
AcDbLine
 10
268.108
 20
26.768
 30
0.0
 11
268.0
 21
26.0
 31
0.0
  0
LINE
  5
73C
330
1E
100
AcDbEntity
  8
0
100
AcDbLine
 10
274.0
 20
26.0
 30
0.0
 11
273.8919999999999
 21
26.768
 31
0.0
  0
LINE
  5
73D
330
1E
100
AcDbEntity
  8
0
100
AcDbLine
 10
251.7199999999999
 20
31.12
 30
0.0
 11
251.0
 21
26.0
 31
0.0
  0
LINE
  5
73E
330
1E
100
AcDbEntity
  8
0
100
AcDbLine
 10
250.756
 20
31.37599999999999
 30
0.0
 11
250.0
 21
26.0
 31
0.0
  0
LINE
  5
73F
330
1E
100
AcDbEntity
  8
0
100
AcDbLine
 10
256.54
 20
29.83999999999999
 30
0.0
 11
256.0
 21
26.0
 31
0.0
  0
LINE
  5
740
330
1E
100
AcDbEntity
  8
0
100
AcDbLine
 10
230.1143
 20
27.60369999999999
 30
0.0
 11
230.0475999999999
 21
26.0
 31
0.0
  0
LINE
  5
741
330
1E
100
AcDbEntity
  8
0
100
AcDbLine
 10
260.396
 20
28.816
 30
0.0
 11
260.0
 21
26.0
 31
0.0
  0
LINE
  5
742
330
1E
100
AcDbEntity
  8
0
100
AcDbLine
 10
246.0
 20
28.304
 30
0.0
 11
246.0
 21
26.0
 31
0.0
  0
LINE
  5
743
330
1E
100
AcDbEntity
  8
0
100
AcDbLine
 10
240.0
 20
27.79199999999999
 30
0.0
 11
240.0
 21
26.0
 31
0.0
  0
LINE
  5
744
330
1E
100
AcDbEntity
  8
0
100
AcDbLine
 10
279.0
 20
28.0618
 30
0.0
 11
279.0
 21
26.0
 31
0.0
  0
LINE
  5
745
330
1E
100
AcDbEntity
  8
0
100
AcDbLine
 10
279.0
 20
28.0618
 30
0.0
 11
279.0
 21
26.0
 31
0.0
  0
LINE
  5
746
330
1E
100
AcDbEntity
  8
0
100
AcDbLine
 10
230.0
 20
27.5273
 30
0.0
 11
230.0
 21
26.0
 31
0.0
  0
LINE
  5
747
330
1E
100
AcDbEntity
  8
0
100
AcDbLine
 10
239.9523999999999
 20
26.0
 30
0.0
 11
239.8857
 21
27.60369999999999
 31
0.0
  0
LINE
  5
748
330
1E
100
AcDbEntity
  8
0
100
AcDbLine
 10
230.0
 20
26.0
 30
0.0
 11
230.0
 21
27.5273
 31
0.0
  0
LINE
  5
749
330
1E
100
AcDbEntity
  8
0
100
AcDbLine
 10
240.0
 20
26.0
 30
0.0
 11
240.0
 21
27.79199999999999
 31
0.0
  0
LINE
  5
74A
330
1E
100
AcDbEntity
  8
0
100
AcDbLine
 10
286.0
 20
26.0
 30
0.0
 11
285.4599999999999
 21
29.83999999999999
 31
0.0
  0
LINE
  5
74B
330
1E
100
AcDbEntity
  8
0
100
AcDbLine
 10
282.0
 20
26.0
 30
0.0
 11
281.604
 21
28.816
 31
0.0
  0
LINE
  5
74C
330
1E
100
AcDbEntity
  8
0
100
AcDbLine
 10
279.0
 20
26.0
 30
0.0
 11
279.0
 21
28.0618
 31
0.0
  0
LINE
  5
74D
330
1E
100
AcDbEntity
  8
0
100
AcDbLine
 10
279.0
 20
26.0
 30
0.0
 11
279.0
 21
28.0618
 31
0.0
  0
LINE
  5
74E
330
1E
100
AcDbEntity
  8
0
100
AcDbLine
 10
263.0
 20
26.0
 30
0.0
 11
263.0
 21
28.0618
 31
0.0
  0
LINE
  5
74F
330
1E
100
AcDbEntity
  8
0
100
AcDbLine
 10
291.0
 20
26.0
 30
0.0
 11
290.28
 21
31.12
 31
0.0
  0
LINE
  5
750
330
1E
100
AcDbEntity
  8
0
100
AcDbLine
 10
292.0
 20
26.0
 30
0.0
 11
291.2439999999999
 21
31.37599999999999
 31
0.0
  0
LINE
  5
751
330
1E
100
AcDbEntity
  8
0
100
AcDbLine
 10
246.0
 20
26.0
 30
0.0
 11
246.0
 21
28.304
 31
0.0
  0
LINE
  5
752
330
1E
100
AcDbEntity
  8
0
100
AcDbLine
 10
230.0
 20
21.0
 30
0.0
 11
187.0
 21
21.0
 31
0.0
  0
LINE
  5
753
330
1E
100
AcDbEntity
  8
0
100
AcDbLine
 10
261.0799999999999
 20
8.64
 30
0.0
 11
256.84
 21
11.83999999999999
 31
0.0
  0
LINE
  5
754
330
1E
100
AcDbEntity
  8
0
100
AcDbLine
 10
260.584
 20
7.772
 30
0.0
 11
256.132
 21
11.13199999999999
 31
0.0
  0
LINE
  5
755
330
1E
100
AcDbEntity
  8
0
100
AcDbLine
 10
285.16
 20
11.83999999999999
 30
0.0
 11
280.92
 21
8.64
 31
0.0
  0
LINE
  5
756
330
1E
100
AcDbEntity
  8
0
100
AcDbLine
 10
285.868
 20
11.13199999999999
 30
0.0
 11
281.416
 21
7.772
 31
0.0
  0
LINE
  5
757
330
1E
100
AcDbEntity
  8
0
100
AcDbLine
 10
280.92
 20
8.64
 30
0.0
 11
276.12
 21
6.719999999999999
 31
0.0
  0
LINE
  5
758
330
1E
100
AcDbEntity
  8
0
100
AcDbLine
 10
281.416
 20
7.772
 30
0.0
 11
276.3759999999999
 21
5.75599999999999
 31
0.0
  0
LINE
  5
759
330
1E
100
AcDbEntity
  8
0
100
AcDbLine
 10
276.3759999999999
 20
5.75599999999999
 30
0.0
 11
271.0
 21
4.99999999999999
 31
0.0
  0
LINE
  5
75A
330
1E
100
AcDbEntity
  8
0
100
AcDbLine
 10
271.0
 20
4.99999999999999
 30
0.0
 11
265.624
 21
5.75599999999999
 31
0.0
  0
LINE
  5
75B
330
1E
100
AcDbEntity
  8
0
100
AcDbLine
 10
265.8799999999999
 20
6.719999999999999
 30
0.0
 11
261.0799999999999
 21
8.64
 31
0.0
  0
LINE
  5
75C
330
1E
100
AcDbEntity
  8
0
100
AcDbLine
 10
265.624
 20
5.75599999999999
 30
0.0
 11
260.584
 21
7.772
 31
0.0
  0
LINE
  5
75D
330
1E
100
AcDbEntity
  8
0
100
AcDbLine
 10
271.0
 20
6.0
 30
0.0
 11
265.8799999999999
 21
6.719999999999999
 31
0.0
  0
LINE
  5
75E
330
1E
100
AcDbEntity
  8
0
100
AcDbLine
 10
276.12
 20
6.719999999999999
 30
0.0
 11
271.0
 21
6.0
 31
0.0
  0
LINE
  5
75F
330
1E
100
AcDbEntity
  8
0
100
AcDbLine
 10
280.548
 20
20.544
 30
0.0
 11
278.788
 21
18.212
 31
0.0
  0
LINE
  5
760
330
1E
100
AcDbEntity
  8
0
100
AcDbLine
 10
279.0
 20
21.4886
 30
0.0
 11
278.7939999999999
 21
21.23299999999999
 31
0.0
  0
LINE
  5
761
330
1E
100
AcDbEntity
  8
0
100
AcDbLine
 10
281.62
 20
15.38
 30
0.0
 11
278.44
 21
12.98
 31
0.0
  0
LINE
  5
762
330
1E
100
AcDbEntity
  8
0
100
AcDbLine
 10
284.02
 20
18.55999999999999
 30
0.0
 11
281.62
 21
15.38
 31
0.0
  0
LINE
  5
763
330
1E
100
AcDbEntity
  8
0
100
AcDbLine
 10
290.28
 20
20.88
 30
0.0
 11
288.36
 21
16.07999999999999
 31
0.0
  0
LINE
  5
764
330
1E
100
AcDbEntity
  8
0
100
AcDbLine
 10
291.2439999999999
 20
20.624
 30
0.0
 11
289.2279999999999
 21
15.584
 31
0.0
  0
LINE
  5
765
330
1E
100
AcDbEntity
  8
0
100
AcDbLine
 10
288.36
 20
16.07999999999999
 30
0.0
 11
285.16
 21
11.83999999999999
 31
0.0
  0
LINE
  5
766
330
1E
100
AcDbEntity
  8
0
100
AcDbLine
 10
289.2279999999999
 20
15.584
 30
0.0
 11
285.868
 21
11.13199999999999
 31
0.0
  0
LINE
  5
767
330
1E
100
AcDbEntity
  8
0
100
AcDbLine
 10
279.0
 20
22.02789999999999
 30
0.0
 11
279.0
 21
21.4886
 31
0.0
  0
LINE
  5
768
330
1E
100
AcDbEntity
  8
0
100
AcDbLine
 10
279.0
 20
21.4886
 30
0.0
 11
279.0
 21
22.02789999999999
 31
0.0
  0
LINE
  5
769
330
1E
100
AcDbEntity
  8
0
100
AcDbLine
 10
281.604
 20
23.184
 30
0.0
 11
280.548
 21
20.544
 31
0.0
  0
LINE
  5
76A
330
1E
100
AcDbEntity
  8
0
100
AcDbLine
 10
285.4599999999999
 20
22.16
 30
0.0
 11
284.02
 21
18.55999999999999
 31
0.0
  0
LINE
  5
76B
330
1E
100
AcDbEntity
  8
0
100
AcDbLine
 10
291.0
 20
26.0
 30
0.0
 11
290.28
 21
20.88
 31
0.0
  0
LINE
  5
76C
330
1E
100
AcDbEntity
  8
0
100
AcDbLine
 10
292.0
 20
26.0
 30
0.0
 11
291.2439999999999
 21
20.624
 31
0.0
  0
LINE
  5
76D
330
1E
100
AcDbEntity
  8
0
100
AcDbLine
 10
282.0
 20
26.0
 30
0.0
 11
281.604
 21
23.184
 31
0.0
  0
LINE
  5
76E
330
1E
100
AcDbEntity
  8
0
100
AcDbLine
 10
279.0
 20
26.0
 30
0.0
 11
279.0
 21
23.93819999999999
 31
0.0
  0
LINE
  5
76F
330
1E
100
AcDbEntity
  8
0
100
AcDbLine
 10
279.0
 20
23.93819999999999
 30
0.0
 11
279.0
 21
26.0
 31
0.0
  0
LINE
  5
770
330
1E
100
AcDbEntity
  8
0
100
AcDbLine
 10
286.0
 20
26.0
 30
0.0
 11
285.4599999999999
 21
22.16
 31
0.0
  0
LINE
  5
771
330
1E
100
AcDbEntity
  8
0
100
AcDbLine
 10
279.0
 20
23.93819999999999
 30
0.0
 11
279.0
 21
22.02789999999999
 31
0.0
  0
LINE
  5
772
330
1E
100
AcDbEntity
  8
0
100
AcDbLine
 10
279.0
 20
22.02789999999999
 30
0.0
 11
279.0
 21
23.93819999999999
 31
0.0
  0
LINE
  5
773
330
1E
100
AcDbEntity
  8
0
100
AcDbLine
 10
270.011
 20
17.3443
 30
0.0
 11
268.8239999999999
 21
18.0075
 31
0.0
  0
LINE
  5
774
330
1E
100
AcDbEntity
  8
0
100
AcDbLine
 10
270.011
 20
17.3443
 30
0.0
 11
268.8239999999999
 21
18.0075
 31
0.0
  0
LINE
  5
775
330
1E
100
AcDbEntity
  8
0
100
AcDbLine
 10
265.544
 20
16.452
 30
0.0
 11
263.212
 21
18.212
 31
0.0
  0
LINE
  5
776
330
1E
100
AcDbEntity
  8
0
100
AcDbLine
 10
260.38
 20
15.38
 30
0.0
 11
257.98
 21
18.55999999999999
 31
0.0
  0
LINE
  5
777
330
1E
100
AcDbEntity
  8
0
100
AcDbLine
 10
273.1759999999999
 20
18.0075
 30
0.0
 11
271.9889999999999
 21
17.3443
 31
0.0
  0
LINE
  5
778
330
1E
100
AcDbEntity
  8
0
100
AcDbLine
 10
273.1759999999999
 20
18.0075
 30
0.0
 11
271.9889999999999
 21
17.3443
 31
0.0
  0
LINE
  5
779
330
1E
100
AcDbEntity
  8
0
100
AcDbLine
 10
278.788
 20
18.212
 30
0.0
 11
276.456
 21
16.452
 31
0.0
  0
LINE
  5
77A
330
1E
100
AcDbEntity
  8
0
100
AcDbLine
 10
246.0
 20
18.18799999999999
 30
0.0
 11
246.0
 21
17.324
 31
0.0
  0
LINE
  5
77B
330
1E
100
AcDbEntity
  8
0
100
AcDbLine
 10
246.0
 20
17.324
 30
0.0
 11
246.0
 21
18.18799999999999
 31
0.0
  0
LINE
  5
77C
330
1E
100
AcDbEntity
  8
0
100
AcDbLine
 10
253.6399999999999
 20
16.07999999999999
 30
0.0
 11
251.7199999999999
 21
20.88
 31
0.0
  0
LINE
  5
77D
330
1E
100
AcDbEntity
  8
0
100
AcDbLine
 10
252.7719999999999
 20
15.584
 30
0.0
 11
250.756
 21
20.624
 31
0.0
  0
LINE
  5
77E
330
1E
100
AcDbEntity
  8
0
100
AcDbLine
 10
263.56
 20
12.98
 30
0.0
 11
260.38
 21
15.38
 31
0.0
  0
LINE
  5
77F
330
1E
100
AcDbEntity
  8
0
100
AcDbLine
 10
256.84
 20
11.83999999999999
 30
0.0
 11
253.6399999999999
 21
16.07999999999999
 31
0.0
  0
LINE
  5
780
330
1E
100
AcDbEntity
  8
0
100
AcDbLine
 10
256.132
 20
11.13199999999999
 30
0.0
 11
252.7719999999999
 21
15.584
 31
0.0
  0
LINE
  5
781
330
1E
100
AcDbEntity
  8
0
100
AcDbLine
 10
267.16
 20
11.53999999999999
 30
0.0
 11
263.56
 21
12.98
 31
0.0
  0
LINE
  5
782
330
1E
100
AcDbEntity
  8
0
100
AcDbLine
 10
278.44
 20
12.98
 30
0.0
 11
274.8399999999999
 21
11.53999999999999
 31
0.0
  0
LINE
  5
783
330
1E
100
AcDbEntity
  8
0
100
AcDbLine
 10
271.0
 20
11.0
 30
0.0
 11
267.16
 21
11.53999999999999
 31
0.0
  0
LINE
  5
784
330
1E
100
AcDbEntity
  8
0
100
AcDbLine
 10
274.8399999999999
 20
11.53999999999999
 30
0.0
 11
271.0
 21
11.0
 31
0.0
  0
LINE
  5
785
330
1E
100
AcDbEntity
  8
0
100
AcDbLine
 10
268.184
 20
15.396
 30
0.0
 11
265.544
 21
16.452
 31
0.0
  0
LINE
  5
786
330
1E
100
AcDbEntity
  8
0
100
AcDbLine
 10
276.456
 20
16.452
 30
0.0
 11
273.8159999999999
 21
15.396
 31
0.0
  0
LINE
  5
787
330
1E
100
AcDbEntity
  8
0
100
AcDbLine
 10
271.0
 20
15.0
 30
0.0
 11
268.184
 21
15.396
 31
0.0
  0
LINE
  5
788
330
1E
100
AcDbEntity
  8
0
100
AcDbLine
 10
273.8159999999999
 20
15.396
 30
0.0
 11
271.0
 21
15.0
 31
0.0
  0
LINE
  5
789
330
1E
100
AcDbEntity
  8
0
100
AcDbLine
 10
271.0
 20
17.0
 30
0.0
 11
270.5369999999999
 21
17.0631
 31
0.0
  0
LINE
  5
78A
330
1E
100
AcDbEntity
  8
0
100
AcDbLine
 10
271.463
 20
17.0631
 30
0.0
 11
271.0
 21
17.0
 31
0.0
  0
LINE
  5
78B
330
1E
100
AcDbEntity
  8
0
100
AcDbLine
 10
271.9889999999999
 20
17.3443
 30
0.0
 11
271.463
 21
17.0631
 31
0.0
  0
LINE
  5
78C
330
1E
100
AcDbEntity
  8
0
100
AcDbLine
 10
271.9889999999999
 20
17.3443
 30
0.0
 11
271.463
 21
17.0631
 31
0.0
  0
LINE
  5
78D
330
1E
100
AcDbEntity
  8
0
100
AcDbLine
 10
270.5369999999999
 20
17.0631
 30
0.0
 11
270.011
 21
17.3443
 31
0.0
  0
LINE
  5
78E
330
1E
100
AcDbEntity
  8
0
100
AcDbLine
 10
270.5369999999999
 20
17.0631
 30
0.0
 11
270.011
 21
17.3443
 31
0.0
  0
LINE
  5
78F
330
1E
100
AcDbEntity
  8
0
100
AcDbLine
 10
252.2056
 20
17.0
 30
0.0
 11
246.0
 21
17.0
 31
0.0
  0
LINE
  5
790
330
1E
100
AcDbEntity
  8
0
100
AcDbLine
 10
246.0
 20
17.324
 30
0.0
 11
246.0
 21
17.0
 31
0.0
  0
LINE
  5
791
330
1E
100
AcDbEntity
  8
0
100
AcDbLine
 10
246.0
 20
17.0
 30
0.0
 11
246.0
 21
17.324
 31
0.0
  0
LINE
  5
792
330
1E
100
AcDbEntity
  8
0
100
AcDbLine
 10
246.0
 20
19.0
 30
0.0
 11
240.0
 21
19.0
 31
0.0
  0
LINE
  5
793
330
1E
100
AcDbEntity
  8
0
100
AcDbLine
 10
263.0
 20
22.02789999999999
 30
0.0
 11
263.0
 21
21.4886
 31
0.0
  0
LINE
  5
794
330
1E
100
AcDbEntity
  8
0
100
AcDbLine
 10
263.0
 20
21.4886
 30
0.0
 11
263.0
 21
22.02789999999999
 31
0.0
  0
LINE
  5
795
330
1E
100
AcDbEntity
  8
0
100
AcDbLine
 10
261.452
 20
20.544
 30
0.0
 11
260.396
 21
23.184
 31
0.0
  0
LINE
  5
796
330
1E
100
AcDbEntity
  8
0
100
AcDbLine
 10
257.98
 20
18.55999999999999
 30
0.0
 11
256.54
 21
22.16
 31
0.0
  0
LINE
  5
797
330
1E
100
AcDbEntity
  8
0
100
AcDbLine
 10
246.0
 20
23.69599999999999
 30
0.0
 11
246.0
 21
21.53599999999999
 31
0.0
  0
LINE
  5
798
330
1E
100
AcDbEntity
  8
0
100
AcDbLine
 10
246.0
 20
21.53599999999999
 30
0.0
 11
246.0
 21
23.69599999999999
 31
0.0
  0
LINE
  5
799
330
1E
100
AcDbEntity
  8
0
100
AcDbLine
 10
251.7199999999999
 20
20.88
 30
0.0
 11
251.0
 21
26.0
 31
0.0
  0
LINE
  5
79A
330
1E
100
AcDbEntity
  8
0
100
AcDbLine
 10
250.756
 20
20.624
 30
0.0
 11
250.0
 21
26.0
 31
0.0
  0
LINE
  5
79B
330
1E
100
AcDbEntity
  8
0
100
AcDbLine
 10
263.212
 20
18.212
 30
0.0
 11
261.452
 21
20.544
 31
0.0
  0
LINE
  5
79C
330
1E
100
AcDbEntity
  8
0
100
AcDbLine
 10
266.928
 20
19.0962
 30
0.0
 11
265.021
 21
20.19089999999999
 31
0.0
  0
LINE
  5
79D
330
1E
100
AcDbEntity
  8
0
100
AcDbLine
 10
266.928
 20
19.0962
 30
0.0
 11
265.021
 21
20.19089999999999
 31
0.0
  0
LINE
  5
79E
330
1E
100
AcDbEntity
  8
0
100
AcDbLine
 10
276.9789999999999
 20
20.19089999999999
 30
0.0
 11
275.072
 21
19.0962
 31
0.0
  0
LINE
  5
79F
330
1E
100
AcDbEntity
  8
0
100
AcDbLine
 10
276.9789999999999
 20
20.19089999999999
 30
0.0
 11
275.072
 21
19.0962
 31
0.0
  0
LINE
  5
7A0
330
1E
100
AcDbEntity
  8
0
100
AcDbLine
 10
275.072
 20
19.0962
 30
0.0
 11
273.1759999999999
 21
18.0075
 31
0.0
  0
LINE
  5
7A1
330
1E
100
AcDbEntity
  8
0
100
AcDbLine
 10
275.072
 20
19.0962
 30
0.0
 11
273.1759999999999
 21
18.0075
 31
0.0
  0
LINE
  5
7A2
330
1E
100
AcDbEntity
  8
0
100
AcDbLine
 10
268.8239999999999
 20
18.0075
 30
0.0
 11
266.928
 21
19.0962
 31
0.0
  0
LINE
  5
7A3
330
1E
100
AcDbEntity
  8
0
100
AcDbLine
 10
268.8239999999999
 20
18.0075
 30
0.0
 11
266.928
 21
19.0962
 31
0.0
  0
LINE
  5
7A4
330
1E
100
AcDbEntity
  8
0
100
AcDbLine
 10
278.314
 20
20.95759999999999
 30
0.0
 11
276.9789999999999
 21
20.19089999999999
 31
0.0
  0
LINE
  5
7A5
330
1E
100
AcDbEntity
  8
0
100
AcDbLine
 10
278.7939999999999
 20
21.23299999999999
 30
0.0
 11
278.314
 21
20.95759999999999
 31
0.0
  0
LINE
  5
7A6
330
1E
100
AcDbEntity
  8
0
100
AcDbLine
 10
265.021
 20
20.19089999999999
 30
0.0
 11
263.6859999999999
 21
20.95759999999999
 31
0.0
  0
LINE
  5
7A7
330
1E
100
AcDbEntity
  8
0
100
AcDbLine
 10
263.206
 20
21.23299999999999
 30
0.0
 11
263.0
 21
21.4886
 31
0.0
  0
LINE
  5
7A8
330
1E
100
AcDbEntity
  8
0
100
AcDbLine
 10
263.6859999999999
 20
20.95759999999999
 30
0.0
 11
263.206
 21
21.23299999999999
 31
0.0
  0
LINE
  5
7A9
330
1E
100
AcDbEntity
  8
0
100
AcDbLine
 10
246.0
 20
21.53599999999999
 30
0.0
 11
246.0
 21
19.628
 31
0.0
  0
LINE
  5
7AA
330
1E
100
AcDbEntity
  8
0
100
AcDbLine
 10
246.0
 20
19.628
 30
0.0
 11
246.0
 21
21.53599999999999
 31
0.0
  0
LINE
  5
7AB
330
1E
100
AcDbEntity
  8
0
100
AcDbLine
 10
246.0
 20
19.628
 30
0.0
 11
246.0
 21
18.18799999999999
 31
0.0
  0
LINE
  5
7AC
330
1E
100
AcDbEntity
  8
0
100
AcDbLine
 10
246.0
 20
18.18799999999999
 30
0.0
 11
246.0
 21
19.628
 31
0.0
  0
LINE
  5
7AD
330
1E
100
AcDbEntity
  8
0
100
AcDbLine
 10
263.0
 20
23.93819999999999
 30
0.0
 11
263.0
 21
26.0
 31
0.0
  0
LINE
  5
7AE
330
1E
100
AcDbEntity
  8
0
100
AcDbLine
 10
268.8759999999999
 20
23.87599999999999
 30
0.0
 11
268.396
 21
24.512
 31
0.0
  0
LINE
  5
7AF
330
1E
100
AcDbEntity
  8
0
100
AcDbLine
 10
273.604
 20
24.512
 30
0.0
 11
273.124
 21
23.87599999999999
 31
0.0
  0
LINE
  5
7B0
330
1E
100
AcDbEntity
  8
0
100
AcDbLine
 10
273.604
 20
24.512
 30
0.0
 11
273.124
 21
23.87599999999999
 31
0.0
  0
LINE
  5
7B1
330
1E
100
AcDbEntity
  8
0
100
AcDbLine
 10
271.0
 20
23.0
 30
0.0
 11
270.2319999999999
 21
23.10799999999999
 31
0.0
  0
LINE
  5
7B2
330
1E
100
AcDbEntity
  8
0
100
AcDbLine
 10
271.0
 20
23.0
 30
0.0
 11
270.2319999999999
 21
23.10799999999999
 31
0.0
  0
LINE
  5
7B3
330
1E
100
AcDbEntity
  8
0
100
AcDbLine
 10
271.768
 20
23.10799999999999
 30
0.0
 11
271.0
 21
23.0
 31
0.0
  0
LINE
  5
7B4
330
1E
100
AcDbEntity
  8
0
100
AcDbLine
 10
271.768
 20
23.10799999999999
 30
0.0
 11
271.0
 21
23.0
 31
0.0
  0
LINE
  5
7B5
330
1E
100
AcDbEntity
  8
0
100
AcDbLine
 10
272.488
 20
23.396
 30
0.0
 11
271.768
 21
23.10799999999999
 31
0.0
  0
LINE
  5
7B6
330
1E
100
AcDbEntity
  8
0
100
AcDbLine
 10
272.488
 20
23.396
 30
0.0
 11
271.768
 21
23.10799999999999
 31
0.0
  0
LINE
  5
7B7
330
1E
100
AcDbEntity
  8
0
100
AcDbLine
 10
273.124
 20
23.87599999999999
 30
0.0
 11
272.488
 21
23.396
 31
0.0
  0
LINE
  5
7B8
330
1E
100
AcDbEntity
  8
0
100
AcDbLine
 10
273.124
 20
23.87599999999999
 30
0.0
 11
272.488
 21
23.396
 31
0.0
  0
LINE
  5
7B9
330
1E
100
AcDbEntity
  8
0
100
AcDbLine
 10
263.0
 20
23.93819999999999
 30
0.0
 11
263.0
 21
22.02789999999999
 31
0.0
  0
LINE
  5
7BA
330
1E
100
AcDbEntity
  8
0
100
AcDbLine
 10
263.0
 20
22.02789999999999
 30
0.0
 11
263.0
 21
23.93819999999999
 31
0.0
  0
LINE
  5
7BB
330
1E
100
AcDbEntity
  8
0
100
AcDbLine
 10
270.2319999999999
 20
23.10799999999999
 30
0.0
 11
269.512
 21
23.396
 31
0.0
  0
LINE
  5
7BC
330
1E
100
AcDbEntity
  8
0
100
AcDbLine
 10
270.2319999999999
 20
23.10799999999999
 30
0.0
 11
269.512
 21
23.396
 31
0.0
  0
LINE
  5
7BD
330
1E
100
AcDbEntity
  8
0
100
AcDbLine
 10
269.512
 20
23.396
 30
0.0
 11
268.8759999999999
 21
23.87599999999999
 31
0.0
  0
LINE
  5
7BE
330
1E
100
AcDbEntity
  8
0
100
AcDbLine
 10
273.8919999999999
 20
25.232
 30
0.0
 11
273.604
 21
24.512
 31
0.0
  0
LINE
  5
7BF
330
1E
100
AcDbEntity
  8
0
100
AcDbLine
 10
274.0
 20
26.0
 30
0.0
 11
273.8919999999999
 21
25.232
 31
0.0
  0
LINE
  5
7C0
330
1E
100
AcDbEntity
  8
0
100
AcDbLine
 10
268.396
 20
24.512
 30
0.0
 11
268.108
 21
25.232
 31
0.0
  0
LINE
  5
7C1
330
1E
100
AcDbEntity
  8
0
100
AcDbLine
 10
268.108
 20
25.232
 30
0.0
 11
268.0
 21
26.0
 31
0.0
  0
LINE
  5
7C2
330
1E
100
AcDbEntity
  8
0
100
AcDbLine
 10
256.54
 20
22.16
 30
0.0
 11
256.0
 21
26.0
 31
0.0
  0
LINE
  5
7C3
330
1E
100
AcDbEntity
  8
0
100
AcDbLine
 10
260.396
 20
23.184
 30
0.0
 11
260.0
 21
26.0
 31
0.0
  0
LINE
  5
7C4
330
1E
100
AcDbEntity
  8
0
100
AcDbLine
 10
246.0
 20
26.0
 30
0.0
 11
246.0
 21
23.69599999999999
 31
0.0
  0
LINE
  5
7C5
330
1E
100
AcDbEntity
  8
0
100
AcDbLine
 10
246.0
 20
23.69599999999999
 30
0.0
 11
246.0
 21
26.0
 31
0.0
  0
LINE
  5
7C6
330
1E
100
AcDbEntity
  8
0
100
AcDbLine
 10
230.4762
 20
22.07809999999999
 30
0.0
 11
230.1731
 21
21.48179999999999
 31
0.0
  0
LINE
  5
7C7
330
1E
100
AcDbEntity
  8
0
100
AcDbLine
 10
230.0
 20
23.0727
 30
0.0
 11
230.0
 21
21.8318
 31
0.0
  0
LINE
  5
7C8
330
1E
100
AcDbEntity
  8
0
100
AcDbLine
 10
240.0
 20
23.0727
 30
0.0
 11
240.0
 21
21.8318
 31
0.0
  0
LINE
  5
7C9
330
1E
100
AcDbEntity
  8
0
100
AcDbLine
 10
240.0
 20
22.528
 30
0.0
 11
240.0
 21
21.044
 31
0.0
  0
LINE
  5
7CA
330
1E
100
AcDbEntity
  8
0
100
AcDbLine
 10
240.0
 20
21.044
 30
0.0
 11
240.0
 21
22.528
 31
0.0
  0
LINE
  5
7CB
330
1E
100
AcDbEntity
  8
0
100
AcDbLine
 10
239.8267999999999
 20
21.48179999999999
 30
0.0
 11
239.5237999999999
 21
22.07809999999999
 31
0.0
  0
LINE
  5
7CC
330
1E
100
AcDbEntity
  8
0
100
AcDbLine
 10
230.0
 20
21.8318
 30
0.0
 11
230.0
 21
23.0727
 31
0.0
  0
LINE
  5
7CD
330
1E
100
AcDbEntity
  8
0
100
AcDbLine
 10
240.0
 20
21.8318
 30
0.0
 11
240.0
 21
23.0727
 31
0.0
  0
LINE
  5
7CE
330
1E
100
AcDbEntity
  8
0
100
AcDbLine
 10
239.9037
 20
20.6304
 30
0.0
 11
239.8007
 21
19.7836
 31
0.0
  0
LINE
  5
7CF
330
1E
100
AcDbEntity
  8
0
100
AcDbLine
 10
240.0
 20
20.1137
 30
0.0
 11
239.8571
 21
19.6363
 31
0.0
  0
LINE
  5
7D0
330
1E
100
AcDbEntity
  8
0
100
AcDbLine
 10
230.1992999999999
 20
19.7836
 30
0.0
 11
230.0962
 21
20.6304
 31
0.0
  0
LINE
  5
7D1
330
1E
100
AcDbEntity
  8
0
100
AcDbLine
 10
240.0
 20
19.92399999999999
 30
0.0
 11
240.0
 21
19.252
 31
0.0
  0
LINE
  5
7D2
330
1E
100
AcDbEntity
  8
0
100
AcDbLine
 10
230.1429
 20
19.6363
 30
0.0
 11
230.0
 21
20.1137
 31
0.0
  0
LINE
  5
7D3
330
1E
100
AcDbEntity
  8
0
100
AcDbLine
 10
240.0
 20
19.252
 30
0.0
 11
240.0
 21
19.92399999999999
 31
0.0
  0
LINE
  5
7D4
330
1E
100
AcDbEntity
  8
0
100
AcDbLine
 10
239.0476
 20
19.0
 30
0.0
 11
230.9524
 21
19.0
 31
0.0
  0
LINE
  5
7D5
330
1E
100
AcDbEntity
  8
0
100
AcDbLine
 10
239.8007
 20
19.7836
 30
0.0
 11
239.5237999999999
 21
19.2678
 31
0.0
  0
LINE
  5
7D6
330
1E
100
AcDbEntity
  8
0
100
AcDbLine
 10
239.8571
 20
19.6363
 30
0.0
 11
239.5237999999999
 21
19.1591
 31
0.0
  0
LINE
  5
7D7
330
1E
100
AcDbEntity
  8
0
100
AcDbLine
 10
239.5237999999999
 20
19.1591
 30
0.0
 11
239.5237999999999
 21
19.2678
 31
0.0
  0
LINE
  5
7D8
330
1E
100
AcDbEntity
  8
0
100
AcDbLine
 10
239.5237999999999
 20
19.1591
 30
0.0
 11
239.0476
 21
19.0
 31
0.0
  0
LINE
  5
7D9
330
1E
100
AcDbEntity
  8
0
100
AcDbLine
 10
239.5237999999999
 20
19.2678
 30
0.0
 11
239.5237999999999
 21
19.1591
 31
0.0
  0
LINE
  5
7DA
330
1E
100
AcDbEntity
  8
0
100
AcDbLine
 10
240.0
 20
19.252
 30
0.0
 11
240.0
 21
19.0
 31
0.0
  0
LINE
  5
7DB
330
1E
100
AcDbEntity
  8
0
100
AcDbLine
 10
240.0
 20
19.0
 30
0.0
 11
240.0
 21
19.252
 31
0.0
  0
LINE
  5
7DC
330
1E
100
AcDbEntity
  8
0
100
AcDbLine
 10
230.4762
 20
19.1591
 30
0.0
 11
230.4762
 21
19.2678
 31
0.0
  0
LINE
  5
7DD
330
1E
100
AcDbEntity
  8
0
100
AcDbLine
 10
230.4762
 20
19.1591
 30
0.0
 11
230.1429
 21
19.6363
 31
0.0
  0
LINE
  5
7DE
330
1E
100
AcDbEntity
  8
0
100
AcDbLine
 10
230.4762
 20
19.2678
 30
0.0
 11
230.4762
 21
19.1591
 31
0.0
  0
LINE
  5
7DF
330
1E
100
AcDbEntity
  8
0
100
AcDbLine
 10
230.4762
 20
19.2678
 30
0.0
 11
230.1992999999999
 21
19.7836
 31
0.0
  0
LINE
  5
7E0
330
1E
100
AcDbEntity
  8
0
100
AcDbLine
 10
230.9524
 20
19.0
 30
0.0
 11
230.4762
 21
19.1591
 31
0.0
  0
LINE
  5
7E1
330
1E
100
AcDbEntity
  8
0
100
AcDbLine
 10
240.0
 20
21.044
 30
0.0
 11
240.0
 21
19.92399999999999
 31
0.0
  0
LINE
  5
7E2
330
1E
100
AcDbEntity
  8
0
100
AcDbLine
 10
239.9037
 20
20.6304
 30
0.0
 11
239.8267999999999
 21
21.48179999999999
 31
0.0
  0
LINE
  5
7E3
330
1E
100
AcDbEntity
  8
0
100
AcDbLine
 10
240.0
 20
19.92399999999999
 30
0.0
 11
240.0
 21
21.044
 31
0.0
  0
LINE
  5
7E4
330
1E
100
AcDbEntity
  8
0
100
AcDbLine
 10
230.1731
 20
21.48179999999999
 30
0.0
 11
230.0962
 21
20.6304
 31
0.0
  0
LINE
  5
7E5
330
1E
100
AcDbEntity
  8
0
100
AcDbLine
 10
230.0
 20
21.8318
 30
0.0
 11
230.0
 21
20.9091
 31
0.0
  0
LINE
  5
7E6
330
1E
100
AcDbEntity
  8
0
100
AcDbLine
 10
230.0
 20
20.9091
 30
0.0
 11
230.0
 21
21.8318
 31
0.0
  0
LINE
  5
7E7
330
1E
100
AcDbEntity
  8
0
100
AcDbLine
 10
230.0
 20
20.9091
 30
0.0
 11
230.0
 21
20.3363
 31
0.0
  0
LINE
  5
7E8
330
1E
100
AcDbEntity
  8
0
100
AcDbLine
 10
230.0
 20
20.3363
 30
0.0
 11
230.0
 21
20.9091
 31
0.0
  0
LINE
  5
7E9
330
1E
100
AcDbEntity
  8
0
100
AcDbLine
 10
230.0
 20
20.3363
 30
0.0
 11
230.0
 21
20.1137
 31
0.0
  0
LINE
  5
7EA
330
1E
100
AcDbEntity
  8
0
100
AcDbLine
 10
230.0
 20
20.1137
 30
0.0
 11
230.0
 21
20.3363
 31
0.0
  0
LINE
  5
7EB
330
1E
100
AcDbEntity
  8
0
100
AcDbLine
 10
230.0
 20
24.4727
 30
0.0
 11
230.0
 21
23.0727
 31
0.0
  0
LINE
  5
7EC
330
1E
100
AcDbEntity
  8
0
100
AcDbLine
 10
239.8857
 20
24.3963
 30
0.0
 11
239.5237999999999
 21
22.91059999999999
 31
0.0
  0
LINE
  5
7ED
330
1E
100
AcDbEntity
  8
0
100
AcDbLine
 10
240.0
 20
24.208
 30
0.0
 11
240.0
 21
22.528
 31
0.0
  0
LINE
  5
7EE
330
1E
100
AcDbEntity
  8
0
100
AcDbLine
 10
230.0
 20
23.0727
 30
0.0
 11
230.0
 21
24.4727
 31
0.0
  0
LINE
  5
7EF
330
1E
100
AcDbEntity
  8
0
100
AcDbLine
 10
230.4762
 20
22.91059999999999
 30
0.0
 11
230.1143
 21
24.3963
 31
0.0
  0
LINE
  5
7F0
330
1E
100
AcDbEntity
  8
0
100
AcDbLine
 10
240.0
 20
22.528
 30
0.0
 11
240.0
 21
24.208
 31
0.0
  0
LINE
  5
7F1
330
1E
100
AcDbEntity
  8
0
100
AcDbLine
 10
239.0476
 20
22.49109999999999
 30
0.0
 11
230.9524
 21
22.49109999999999
 31
0.0
  0
LINE
  5
7F2
330
1E
100
AcDbEntity
  8
0
100
AcDbLine
 10
239.5237999999999
 20
22.91059999999999
 30
0.0
 11
239.5237999999999
 21
22.5954
 31
0.0
  0
LINE
  5
7F3
330
1E
100
AcDbEntity
  8
0
100
AcDbLine
 10
239.5237999999999
 20
22.5954
 30
0.0
 11
239.5237999999999
 21
22.07809999999999
 31
0.0
  0
LINE
  5
7F4
330
1E
100
AcDbEntity
  8
0
100
AcDbLine
 10
239.5237999999999
 20
22.5954
 30
0.0
 11
239.5237999999999
 21
22.91059999999999
 31
0.0
  0
LINE
  5
7F5
330
1E
100
AcDbEntity
  8
0
100
AcDbLine
 10
239.5237999999999
 20
22.07809999999999
 30
0.0
 11
239.5237999999999
 21
22.5954
 31
0.0
  0
LINE
  5
7F6
330
1E
100
AcDbEntity
  8
0
100
AcDbLine
 10
230.4762
 20
22.07809999999999
 30
0.0
 11
230.4762
 21
22.5954
 31
0.0
  0
LINE
  5
7F7
330
1E
100
AcDbEntity
  8
0
100
AcDbLine
 10
230.4762
 20
22.91059999999999
 30
0.0
 11
230.4762
 21
22.5954
 31
0.0
  0
LINE
  5
7F8
330
1E
100
AcDbEntity
  8
0
100
AcDbLine
 10
230.4762
 20
22.5954
 30
0.0
 11
230.4762
 21
22.91059999999999
 31
0.0
  0
LINE
  5
7F9
330
1E
100
AcDbEntity
  8
0
100
AcDbLine
 10
239.9523999999999
 20
26.0
 30
0.0
 11
239.8857
 21
24.3963
 31
0.0
  0
LINE
  5
7FA
330
1E
100
AcDbEntity
  8
0
100
AcDbLine
 10
240.0
 20
26.0
 30
0.0
 11
240.0
 21
24.208
 31
0.0
  0
LINE
  5
7FB
330
1E
100
AcDbEntity
  8
0
100
AcDbLine
 10
240.0
 20
26.0
 30
0.0
 11
240.0
 21
24.4727
 31
0.0
  0
LINE
  5
7FC
330
1E
100
AcDbEntity
  8
0
100
AcDbLine
 10
240.0
 20
24.4727
 30
0.0
 11
240.0
 21
26.0
 31
0.0
  0
LINE
  5
7FD
330
1E
100
AcDbEntity
  8
0
100
AcDbLine
 10
240.0
 20
24.208
 30
0.0
 11
240.0
 21
26.0
 31
0.0
  0
LINE
  5
7FE
330
1E
100
AcDbEntity
  8
0
100
AcDbLine
 10
230.0
 20
26.0
 30
0.0
 11
230.0
 21
24.4727
 31
0.0
  0
LINE
  5
7FF
330
1E
100
AcDbEntity
  8
0
100
AcDbLine
 10
230.1143
 20
24.3963
 30
0.0
 11
230.0475999999999
 21
26.0
 31
0.0
  0
LINE
  5
800
330
1E
100
AcDbEntity
  8
0
100
AcDbLine
 10
230.0
 20
24.4727
 30
0.0
 11
230.0
 21
26.0
 31
0.0
  0
LINE
  5
801
330
1E
100
AcDbEntity
  8
0
100
AcDbLine
 10
177.9524
 20
22.49109999999999
 30
0.0
 11
186.0476
 21
22.49109999999999
 31
0.0
  0
LINE
  5
802
330
1E
100
AcDbEntity
  8
0
100
AcDbLine
 10
177.9524
 20
19.0
 30
0.0
 11
186.0476
 21
19.0
 31
0.0
  0
LINE
  5
803
330
1E
100
AcDbEntity
  8
0
100
AcDbLine
 10
187.0
 20
21.8318
 30
0.0
 11
187.0
 21
23.0727
 31
0.0
  0
LINE
  5
804
330
1E
100
AcDbEntity
  8
0
100
AcDbLine
 10
187.0
 20
23.0727
 30
0.0
 11
187.0
 21
21.8318
 31
0.0
  0
LINE
  5
805
330
1E
100
AcDbEntity
  8
0
100
AcDbLine
 10
186.5237999999999
 20
22.07809999999999
 30
0.0
 11
186.8268999999999
 21
21.48179999999999
 31
0.0
  0
LINE
  5
806
330
1E
100
AcDbEntity
  8
0
100
AcDbLine
 10
186.8571
 20
19.6363
 30
0.0
 11
187.0
 21
20.1137
 31
0.0
  0
LINE
  5
807
330
1E
100
AcDbEntity
  8
0
100
AcDbLine
 10
186.8007
 20
19.7836
 30
0.0
 11
186.9037999999999
 21
20.6304
 31
0.0
  0
LINE
  5
808
330
1E
100
AcDbEntity
  8
0
100
AcDbLine
 10
186.0476
 20
19.0
 30
0.0
 11
186.5237999999999
 21
19.1591
 31
0.0
  0
LINE
  5
809
330
1E
100
AcDbEntity
  8
0
100
AcDbLine
 10
186.5237999999999
 20
19.2678
 30
0.0
 11
186.8007
 21
19.7836
 31
0.0
  0
LINE
  5
80A
330
1E
100
AcDbEntity
  8
0
100
AcDbLine
 10
186.5237999999999
 20
19.2678
 30
0.0
 11
186.5237999999999
 21
19.1591
 31
0.0
  0
LINE
  5
80B
330
1E
100
AcDbEntity
  8
0
100
AcDbLine
 10
186.5237999999999
 20
19.1591
 30
0.0
 11
186.8571
 21
19.6363
 31
0.0
  0
LINE
  5
80C
330
1E
100
AcDbEntity
  8
0
100
AcDbLine
 10
186.5237999999999
 20
19.1591
 30
0.0
 11
186.5237999999999
 21
19.2678
 31
0.0
  0
LINE
  5
80D
330
1E
100
AcDbEntity
  8
0
100
AcDbLine
 10
187.0
 20
20.9091
 30
0.0
 11
187.0
 21
21.8318
 31
0.0
  0
LINE
  5
80E
330
1E
100
AcDbEntity
  8
0
100
AcDbLine
 10
187.0
 20
21.8318
 30
0.0
 11
187.0
 21
20.9091
 31
0.0
  0
LINE
  5
80F
330
1E
100
AcDbEntity
  8
0
100
AcDbLine
 10
186.8268999999999
 20
21.48179999999999
 30
0.0
 11
186.9037999999999
 21
20.6304
 31
0.0
  0
LINE
  5
810
330
1E
100
AcDbEntity
  8
0
100
AcDbLine
 10
187.0
 20
20.1137
 30
0.0
 11
187.0
 21
20.3363
 31
0.0
  0
LINE
  5
811
330
1E
100
AcDbEntity
  8
0
100
AcDbLine
 10
187.0
 20
20.3363
 30
0.0
 11
187.0
 21
20.1137
 31
0.0
  0
LINE
  5
812
330
1E
100
AcDbEntity
  8
0
100
AcDbLine
 10
187.0
 20
20.3363
 30
0.0
 11
187.0
 21
20.9091
 31
0.0
  0
LINE
  5
813
330
1E
100
AcDbEntity
  8
0
100
AcDbLine
 10
187.0
 20
20.9091
 30
0.0
 11
187.0
 21
20.3363
 31
0.0
  0
LINE
  5
814
330
1E
100
AcDbEntity
  8
0
100
AcDbLine
 10
186.5237999999999
 20
22.91059999999999
 30
0.0
 11
186.8857
 21
24.3963
 31
0.0
  0
LINE
  5
815
330
1E
100
AcDbEntity
  8
0
100
AcDbLine
 10
187.0
 20
23.0727
 30
0.0
 11
187.0
 21
24.4727
 31
0.0
  0
LINE
  5
816
330
1E
100
AcDbEntity
  8
0
100
AcDbLine
 10
187.0
 20
24.4727
 30
0.0
 11
187.0
 21
23.0727
 31
0.0
  0
LINE
  5
817
330
1E
100
AcDbEntity
  8
0
100
AcDbLine
 10
186.5237999999999
 20
22.5954
 30
0.0
 11
186.5237999999999
 21
22.91059999999999
 31
0.0
  0
LINE
  5
818
330
1E
100
AcDbEntity
  8
0
100
AcDbLine
 10
186.5237999999999
 20
22.91059999999999
 30
0.0
 11
186.5237999999999
 21
22.5954
 31
0.0
  0
LINE
  5
819
330
1E
100
AcDbEntity
  8
0
100
AcDbLine
 10
186.5237999999999
 20
22.07809999999999
 30
0.0
 11
186.5237999999999
 21
22.5954
 31
0.0
  0
LINE
  5
81A
330
1E
100
AcDbEntity
  8
0
100
AcDbLine
 10
187.0
 20
24.4727
 30
0.0
 11
187.0
 21
26.0
 31
0.0
  0
LINE
  5
81B
330
1E
100
AcDbEntity
  8
0
100
AcDbLine
 10
186.8857
 20
24.3963
 30
0.0
 11
186.9524
 21
26.0
 31
0.0
  0
LINE
  5
81C
330
1E
100
AcDbEntity
  8
0
100
AcDbLine
 10
187.0
 20
26.0
 30
0.0
 11
187.0
 21
24.4727
 31
0.0
  0
LINE
  5
81D
330
1E
100
AcDbEntity
  8
0
100
AcDbLine
 10
177.0
 20
21.8318
 30
0.0
 11
177.0
 21
23.0727
 31
0.0
  0
LINE
  5
81E
330
1E
100
AcDbEntity
  8
0
100
AcDbLine
 10
177.1732
 20
21.48179999999999
 30
0.0
 11
177.4762
 21
22.07809999999999
 31
0.0
  0
LINE
  5
81F
330
1E
100
AcDbEntity
  8
0
100
AcDbLine
 10
177.0
 20
21.044
 30
0.0
 11
177.0
 21
22.528
 31
0.0
  0
LINE
  5
820
330
1E
100
AcDbEntity
  8
0
100
AcDbLine
 10
177.0
 20
22.528
 30
0.0
 11
177.0
 21
21.044
 31
0.0
  0
LINE
  5
821
330
1E
100
AcDbEntity
  8
0
100
AcDbLine
 10
177.0
 20
23.0727
 30
0.0
 11
177.0
 21
21.8318
 31
0.0
  0
LINE
  5
822
330
1E
100
AcDbEntity
  8
0
100
AcDbLine
 10
177.0
 20
19.252
 30
0.0
 11
177.0
 21
19.92399999999999
 31
0.0
  0
LINE
  5
823
330
1E
100
AcDbEntity
  8
0
100
AcDbLine
 10
177.0
 20
19.92399999999999
 30
0.0
 11
177.0
 21
19.252
 31
0.0
  0
LINE
  5
824
330
1E
100
AcDbEntity
  8
0
100
AcDbLine
 10
177.0
 20
20.1137
 30
0.0
 11
177.1428999999999
 21
19.6363
 31
0.0
  0
LINE
  5
825
330
1E
100
AcDbEntity
  8
0
100
AcDbLine
 10
177.0962999999999
 20
20.6304
 30
0.0
 11
177.1992999999999
 21
19.7836
 31
0.0
  0
LINE
  5
826
330
1E
100
AcDbEntity
  8
0
100
AcDbLine
 10
171.0
 20
19.0
 30
0.0
 11
177.0
 21
19.0
 31
0.0
  0
LINE
  5
827
330
1E
100
AcDbEntity
  8
0
100
AcDbLine
 10
177.0
 20
19.0
 30
0.0
 11
177.0
 21
19.252
 31
0.0
  0
LINE
  5
828
330
1E
100
AcDbEntity
  8
0
100
AcDbLine
 10
177.0
 20
19.252
 30
0.0
 11
177.0
 21
19.0
 31
0.0
  0
LINE
  5
829
330
1E
100
AcDbEntity
  8
0
100
AcDbLine
 10
177.4762
 20
19.2678
 30
0.0
 11
177.4762
 21
19.1591
 31
0.0
  0
LINE
  5
82A
330
1E
100
AcDbEntity
  8
0
100
AcDbLine
 10
177.4762
 20
19.1591
 30
0.0
 11
177.9524
 21
19.0
 31
0.0
  0
LINE
  5
82B
330
1E
100
AcDbEntity
  8
0
100
AcDbLine
 10
177.4762
 20
19.1591
 30
0.0
 11
177.4762
 21
19.2678
 31
0.0
  0
LINE
  5
82C
330
1E
100
AcDbEntity
  8
0
100
AcDbLine
 10
177.1428999999999
 20
19.6363
 30
0.0
 11
177.4762
 21
19.1591
 31
0.0
  0
LINE
  5
82D
330
1E
100
AcDbEntity
  8
0
100
AcDbLine
 10
177.1992999999999
 20
19.7836
 30
0.0
 11
177.4762
 21
19.2678
 31
0.0
  0
LINE
  5
82E
330
1E
100
AcDbEntity
  8
0
100
AcDbLine
 10
177.0
 20
19.92399999999999
 30
0.0
 11
177.0
 21
21.044
 31
0.0
  0
LINE
  5
82F
330
1E
100
AcDbEntity
  8
0
100
AcDbLine
 10
177.0962999999999
 20
20.6304
 30
0.0
 11
177.1732
 21
21.48179999999999
 31
0.0
  0
LINE
  5
830
330
1E
100
AcDbEntity
  8
0
100
AcDbLine
 10
177.0
 20
21.044
 30
0.0
 11
177.0
 21
19.92399999999999
 31
0.0
  0
LINE
  5
831
330
1E
100
AcDbEntity
  8
0
100
AcDbLine
 10
177.0
 20
22.528
 30
0.0
 11
177.0
 21
24.208
 31
0.0
  0
LINE
  5
832
330
1E
100
AcDbEntity
  8
0
100
AcDbLine
 10
177.0
 20
24.208
 30
0.0
 11
177.0
 21
22.528
 31
0.0
  0
LINE
  5
833
330
1E
100
AcDbEntity
  8
0
100
AcDbLine
 10
177.1143
 20
24.3963
 30
0.0
 11
177.4762
 21
22.91059999999999
 31
0.0
  0
LINE
  5
834
330
1E
100
AcDbEntity
  8
0
100
AcDbLine
 10
177.4762
 20
22.07809999999999
 30
0.0
 11
177.4762
 21
22.5954
 31
0.0
  0
LINE
  5
835
330
1E
100
AcDbEntity
  8
0
100
AcDbLine
 10
177.4762
 20
22.5954
 30
0.0
 11
177.4762
 21
22.91059999999999
 31
0.0
  0
LINE
  5
836
330
1E
100
AcDbEntity
  8
0
100
AcDbLine
 10
177.4762
 20
22.5954
 30
0.0
 11
177.4762
 21
22.07809999999999
 31
0.0
  0
LINE
  5
837
330
1E
100
AcDbEntity
  8
0
100
AcDbLine
 10
177.4762
 20
22.91059999999999
 30
0.0
 11
177.4762
 21
22.5954
 31
0.0
  0
LINE
  5
838
330
1E
100
AcDbEntity
  8
0
100
AcDbLine
 10
177.0
 20
24.208
 30
0.0
 11
177.0
 21
26.0
 31
0.0
  0
LINE
  5
839
330
1E
100
AcDbEntity
  8
0
100
AcDbLine
 10
177.0
 20
24.4727
 30
0.0
 11
177.0
 21
26.0
 31
0.0
  0
LINE
  5
83A
330
1E
100
AcDbEntity
  8
0
100
AcDbLine
 10
177.0
 20
26.0
 30
0.0
 11
177.0
 21
24.4727
 31
0.0
  0
LINE
  5
83B
330
1E
100
AcDbEntity
  8
0
100
AcDbLine
 10
177.0
 20
26.0
 30
0.0
 11
177.0
 21
24.208
 31
0.0
  0
LINE
  5
83C
330
1E
100
AcDbEntity
  8
0
100
AcDbLine
 10
177.0475999999999
 20
26.0
 30
0.0
 11
177.1143
 21
24.3963
 31
0.0
  0
LINE
  5
83D
330
1E
100
AcDbEntity
  8
0
100
AcDbLine
 10
230.0
 20
31.0
 30
0.0
 11
187.0
 21
31.0
 31
0.0
  0
LINE
  5
83E
330
1E
100
AcDbEntity
  8
0
100
AcDbLine
 10
261.0799999999999
 20
43.36
 30
0.0
 11
256.84
 21
40.16
 31
0.0
  0
LINE
  5
83F
330
1E
100
AcDbEntity
  8
0
100
AcDbLine
 10
260.584
 20
44.228
 30
0.0
 11
256.132
 21
40.868
 31
0.0
  0
LINE
  5
840
330
1E
100
AcDbEntity
  8
0
100
AcDbLine
 10
285.16
 20
40.16
 30
0.0
 11
280.92
 21
43.36
 31
0.0
  0
LINE
  5
841
330
1E
100
AcDbEntity
  8
0
100
AcDbLine
 10
285.868
 20
40.868
 30
0.0
 11
281.416
 21
44.228
 31
0.0
  0
LINE
  5
842
330
1E
100
AcDbEntity
  8
0
100
AcDbLine
 10
281.62
 20
36.61999999999999
 30
0.0
 11
278.44
 21
39.02
 31
0.0
  0
LINE
  5
843
330
1E
100
AcDbEntity
  8
0
100
AcDbLine
 10
280.548
 20
31.45599999999999
 30
0.0
 11
278.788
 21
33.788
 31
0.0
  0
LINE
  5
844
330
1E
100
AcDbEntity
  8
0
100
AcDbLine
 10
279.0
 20
30.5114
 30
0.0
 11
278.7939999999999
 21
30.767
 31
0.0
  0
LINE
  5
845
330
1E
100
AcDbEntity
  8
0
100
AcDbLine
 10
284.02
 20
33.43999999999999
 30
0.0
 11
281.62
 21
36.61999999999999
 31
0.0
  0
LINE
  5
846
330
1E
100
AcDbEntity
  8
0
100
AcDbLine
 10
290.28
 20
31.12
 30
0.0
 11
288.36
 21
35.92
 31
0.0
  0
LINE
  5
847
330
1E
100
AcDbEntity
  8
0
100
AcDbLine
 10
291.2439999999999
 20
31.37599999999999
 30
0.0
 11
289.2279999999999
 21
36.41599999999999
 31
0.0
  0
LINE
  5
848
330
1E
100
AcDbEntity
  8
0
100
AcDbLine
 10
279.0
 20
30.5114
 30
0.0
 11
279.0
 21
29.9721
 31
0.0
  0
LINE
  5
849
330
1E
100
AcDbEntity
  8
0
100
AcDbLine
 10
285.4599999999999
 20
29.83999999999999
 30
0.0
 11
284.02
 21
33.43999999999999
 31
0.0
  0
LINE
  5
84A
330
1E
100
AcDbEntity
  8
0
100
AcDbLine
 10
279.0
 20
29.9721
 30
0.0
 11
279.0
 21
30.5114
 31
0.0
  0
LINE
  5
84B
330
1E
100
AcDbEntity
  8
0
100
AcDbLine
 10
281.604
 20
28.816
 30
0.0
 11
280.548
 21
31.45599999999999
 31
0.0
  0
LINE
  5
84C
330
1E
100
AcDbEntity
  8
0
100
AcDbLine
 10
279.0
 20
29.9721
 30
0.0
 11
279.0
 21
28.0618
 31
0.0
  0
LINE
  5
84D
330
1E
100
AcDbEntity
  8
0
100
AcDbLine
 10
279.0
 20
29.9721
 30
0.0
 11
279.0
 21
28.0618
 31
0.0
  0
LINE
  5
84E
330
1E
100
AcDbEntity
  8
0
100
AcDbLine
 10
279.0
 20
28.0618
 30
0.0
 11
279.0
 21
29.9721
 31
0.0
  0
LINE
  5
84F
330
1E
100
AcDbEntity
  8
0
100
AcDbLine
 10
279.0
 20
28.0618
 30
0.0
 11
279.0
 21
29.9721
 31
0.0
  0
LINE
  5
850
330
1E
100
AcDbEntity
  8
0
100
AcDbLine
 10
288.36
 20
35.92
 30
0.0
 11
285.16
 21
40.16
 31
0.0
  0
LINE
  5
851
330
1E
100
AcDbEntity
  8
0
100
AcDbLine
 10
289.2279999999999
 20
36.41599999999999
 30
0.0
 11
285.868
 21
40.868
 31
0.0
  0
LINE
  5
852
330
1E
100
AcDbEntity
  8
0
100
AcDbLine
 10
253.6399999999999
 20
35.92
 30
0.0
 11
251.7199999999999
 21
31.12
 31
0.0
  0
LINE
  5
853
330
1E
100
AcDbEntity
  8
0
100
AcDbLine
 10
252.7719999999999
 20
36.41599999999999
 30
0.0
 11
250.756
 21
31.37599999999999
 31
0.0
  0
LINE
  5
854
330
1E
100
AcDbEntity
  8
0
100
AcDbLine
 10
246.0
 20
33.81199999999999
 30
0.0
 11
246.0
 21
34.676
 31
0.0
  0
LINE
  5
855
330
1E
100
AcDbEntity
  8
0
100
AcDbLine
 10
246.0
 20
34.676
 30
0.0
 11
246.0
 21
33.81199999999999
 31
0.0
  0
LINE
  5
856
330
1E
100
AcDbEntity
  8
0
100
AcDbLine
 10
260.38
 20
36.61999999999999
 30
0.0
 11
257.98
 21
33.43999999999999
 31
0.0
  0
LINE
  5
857
330
1E
100
AcDbEntity
  8
0
100
AcDbLine
 10
265.544
 20
35.548
 30
0.0
 11
263.212
 21
33.788
 31
0.0
  0
LINE
  5
858
330
1E
100
AcDbEntity
  8
0
100
AcDbLine
 10
270.011
 20
34.6557
 30
0.0
 11
268.8239999999999
 21
33.9925
 31
0.0
  0
LINE
  5
859
330
1E
100
AcDbEntity
  8
0
100
AcDbLine
 10
273.1759999999999
 20
33.9925
 30
0.0
 11
271.9889999999999
 21
34.6557
 31
0.0
  0
LINE
  5
85A
330
1E
100
AcDbEntity
  8
0
100
AcDbLine
 10
278.788
 20
33.788
 30
0.0
 11
276.456
 21
35.548
 31
0.0
  0
LINE
  5
85B
330
1E
100
AcDbEntity
  8
0
100
AcDbLine
 10
246.0
 20
33.0
 30
0.0
 11
240.0
 21
33.0
 31
0.0
  0
LINE
  5
85C
330
1E
100
AcDbEntity
  8
0
100
AcDbLine
 10
257.98
 20
33.43999999999999
 30
0.0
 11
256.54
 21
29.83999999999999
 31
0.0
  0
LINE
  5
85D
330
1E
100
AcDbEntity
  8
0
100
AcDbLine
 10
261.452
 20
31.45599999999999
 30
0.0
 11
260.396
 21
28.816
 31
0.0
  0
LINE
  5
85E
330
1E
100
AcDbEntity
  8
0
100
AcDbLine
 10
263.0
 20
30.5114
 30
0.0
 11
263.0
 21
29.9721
 31
0.0
  0
LINE
  5
85F
330
1E
100
AcDbEntity
  8
0
100
AcDbLine
 10
246.0
 20
30.464
 30
0.0
 11
246.0
 21
28.304
 31
0.0
  0
LINE
  5
860
330
1E
100
AcDbEntity
  8
0
100
AcDbLine
 10
263.0
 20
29.9721
 30
0.0
 11
263.0
 21
30.5114
 31
0.0
  0
LINE
  5
861
330
1E
100
AcDbEntity
  8
0
100
AcDbLine
 10
246.0
 20
28.304
 30
0.0
 11
246.0
 21
30.464
 31
0.0
  0
LINE
  5
862
330
1E
100
AcDbEntity
  8
0
100
AcDbLine
 10
268.8759999999999
 20
28.124
 30
0.0
 11
268.396
 21
27.488
 31
0.0
  0
LINE
  5
863
330
1E
100
AcDbEntity
  8
0
100
AcDbLine
 10
273.604
 20
27.488
 30
0.0
 11
273.124
 21
28.124
 31
0.0
  0
LINE
  5
864
330
1E
100
AcDbEntity
  8
0
100
AcDbLine
 10
273.8919999999999
 20
26.768
 30
0.0
 11
273.604
 21
27.488
 31
0.0
  0
LINE
  5
865
330
1E
100
AcDbEntity
  8
0
100
AcDbLine
 10
273.8919999999999
 20
26.768
 30
0.0
 11
273.604
 21
27.488
 31
0.0
  0
LINE
  5
866
330
1E
100
AcDbEntity
  8
0
100
AcDbLine
 10
268.396
 20
27.488
 30
0.0
 11
268.108
 21
26.768
 31
0.0
  0
LINE
  5
867
330
1E
100
AcDbEntity
  8
0
100
AcDbLine
 10
271.0
 20
29.0
 30
0.0
 11
270.2319999999999
 21
28.892
 31
0.0
  0
LINE
  5
868
330
1E
100
AcDbEntity
  8
0
100
AcDbLine
 10
271.768
 20
28.892
 30
0.0
 11
271.0
 21
29.0
 31
0.0
  0
LINE
  5
869
330
1E
100
AcDbEntity
  8
0
100
AcDbLine
 10
273.124
 20
28.124
 30
0.0
 11
272.488
 21
28.604
 31
0.0
  0
LINE
  5
86A
330
1E
100
AcDbEntity
  8
0
100
AcDbLine
 10
272.488
 20
28.604
 30
0.0
 11
271.768
 21
28.892
 31
0.0
  0
LINE
  5
86B
330
1E
100
AcDbEntity
  8
0
100
AcDbLine
 10
263.0
 20
29.9721
 30
0.0
 11
263.0
 21
28.0618
 31
0.0
  0
LINE
  5
86C
330
1E
100
AcDbEntity
  8
0
100
AcDbLine
 10
263.0
 20
28.0618
 30
0.0
 11
263.0
 21
29.9721
 31
0.0
  0
LINE
  5
86D
330
1E
100
AcDbEntity
  8
0
100
AcDbLine
 10
270.2319999999999
 20
28.892
 30
0.0
 11
269.512
 21
28.604
 31
0.0
  0
LINE
  5
86E
330
1E
100
AcDbEntity
  8
0
100
AcDbLine
 10
269.512
 20
28.604
 30
0.0
 11
268.8759999999999
 21
28.124
 31
0.0
  0
LINE
  5
86F
330
1E
100
AcDbEntity
  8
0
100
AcDbLine
 10
263.212
 20
33.788
 30
0.0
 11
261.452
 21
31.45599999999999
 31
0.0
  0
LINE
  5
870
330
1E
100
AcDbEntity
  8
0
100
AcDbLine
 10
266.928
 20
32.90379999999999
 30
0.0
 11
265.021
 21
31.8091
 31
0.0
  0
LINE
  5
871
330
1E
100
AcDbEntity
  8
0
100
AcDbLine
 10
276.9789999999999
 20
31.8091
 30
0.0
 11
275.072
 21
32.90379999999999
 31
0.0
  0
LINE
  5
872
330
1E
100
AcDbEntity
  8
0
100
AcDbLine
 10
278.314
 20
31.0424
 30
0.0
 11
276.9789999999999
 21
31.8091
 31
0.0
  0
LINE
  5
873
330
1E
100
AcDbEntity
  8
0
100
AcDbLine
 10
278.7939999999999
 20
30.767
 30
0.0
 11
278.314
 21
31.0424
 31
0.0
  0
LINE
  5
874
330
1E
100
AcDbEntity
  8
0
100
AcDbLine
 10
265.021
 20
31.8091
 30
0.0
 11
263.6859999999999
 21
31.0424
 31
0.0
  0
LINE
  5
875
330
1E
100
AcDbEntity
  8
0
100
AcDbLine
 10
263.6859999999999
 20
31.0424
 30
0.0
 11
263.206
 21
30.767
 31
0.0
  0
LINE
  5
876
330
1E
100
AcDbEntity
  8
0
100
AcDbLine
 10
263.206
 20
30.767
 30
0.0
 11
263.0
 21
30.5114
 31
0.0
  0
LINE
  5
877
330
1E
100
AcDbEntity
  8
0
100
AcDbLine
 10
275.072
 20
32.90379999999999
 30
0.0
 11
273.1759999999999
 21
33.9925
 31
0.0
  0
LINE
  5
878
330
1E
100
AcDbEntity
  8
0
100
AcDbLine
 10
268.8239999999999
 20
33.9925
 30
0.0
 11
266.928
 21
32.90379999999999
 31
0.0
  0
LINE
  5
879
330
1E
100
AcDbEntity
  8
0
100
AcDbLine
 10
246.0
 20
32.372
 30
0.0
 11
246.0
 21
30.464
 31
0.0
  0
LINE
  5
87A
330
1E
100
AcDbEntity
  8
0
100
AcDbLine
 10
246.0
 20
30.464
 30
0.0
 11
246.0
 21
32.372
 31
0.0
  0
LINE
  5
87B
330
1E
100
AcDbEntity
  8
0
100
AcDbLine
 10
246.0
 20
32.372
 30
0.0
 11
246.0
 21
33.81199999999999
 31
0.0
  0
LINE
  5
87C
330
1E
100
AcDbEntity
  8
0
100
AcDbLine
 10
246.0
 20
33.81199999999999
 30
0.0
 11
246.0
 21
32.372
 31
0.0
  0
LINE
  5
87D
330
1E
100
AcDbEntity
  8
0
100
AcDbLine
 10
240.0
 20
30.1682
 30
0.0
 11
240.0
 21
28.9273
 31
0.0
  0
LINE
  5
87E
330
1E
100
AcDbEntity
  8
0
100
AcDbLine
 10
240.0
 20
28.9273
 30
0.0
 11
240.0
 21
30.1682
 31
0.0
  0
LINE
  5
87F
330
1E
100
AcDbEntity
  8
0
100
AcDbLine
 10
239.8267999999999
 20
30.5182
 30
0.0
 11
239.5237999999999
 21
29.9219
 31
0.0
  0
LINE
  5
880
330
1E
100
AcDbEntity
  8
0
100
AcDbLine
 10
240.0
 20
30.956
 30
0.0
 11
240.0
 21
29.472
 31
0.0
  0
LINE
  5
881
330
1E
100
AcDbEntity
  8
0
100
AcDbLine
 10
230.4762
 20
29.9219
 30
0.0
 11
230.1731
 21
30.5182
 31
0.0
  0
LINE
  5
882
330
1E
100
AcDbEntity
  8
0
100
AcDbLine
 10
230.0
 20
30.1682
 30
0.0
 11
230.0
 21
28.9273
 31
0.0
  0
LINE
  5
883
330
1E
100
AcDbEntity
  8
0
100
AcDbLine
 10
240.0
 20
29.472
 30
0.0
 11
240.0
 21
30.956
 31
0.0
  0
LINE
  5
884
330
1E
100
AcDbEntity
  8
0
100
AcDbLine
 10
230.0
 20
28.9273
 30
0.0
 11
230.0
 21
30.1682
 31
0.0
  0
LINE
  5
885
330
1E
100
AcDbEntity
  8
0
100
AcDbLine
 10
240.0
 20
29.472
 30
0.0
 11
240.0
 21
27.79199999999999
 31
0.0
  0
LINE
  5
886
330
1E
100
AcDbEntity
  8
0
100
AcDbLine
 10
240.0
 20
27.79199999999999
 30
0.0
 11
240.0
 21
29.472
 31
0.0
  0
LINE
  5
887
330
1E
100
AcDbEntity
  8
0
100
AcDbLine
 10
230.4762
 20
29.0894
 30
0.0
 11
230.1143
 21
27.60369999999999
 31
0.0
  0
LINE
  5
888
330
1E
100
AcDbEntity
  8
0
100
AcDbLine
 10
230.0
 20
28.9273
 30
0.0
 11
230.0
 21
27.5273
 31
0.0
  0
LINE
  5
889
330
1E
100
AcDbEntity
  8
0
100
AcDbLine
 10
239.8857
 20
27.60369999999999
 30
0.0
 11
239.5237999999999
 21
29.0894
 31
0.0
  0
LINE
  5
88A
330
1E
100
AcDbEntity
  8
0
100
AcDbLine
 10
240.0
 20
28.9273
 30
0.0
 11
240.0
 21
27.5273
 31
0.0
  0
LINE
  5
88B
330
1E
100
AcDbEntity
  8
0
100
AcDbLine
 10
230.0
 20
27.5273
 30
0.0
 11
230.0
 21
28.9273
 31
0.0
  0
LINE
  5
88C
330
1E
100
AcDbEntity
  8
0
100
AcDbLine
 10
240.0
 20
27.5273
 30
0.0
 11
240.0
 21
28.9273
 31
0.0
  0
LINE
  5
88D
330
1E
100
AcDbEntity
  8
0
100
AcDbLine
 10
239.0476
 20
29.5088
 30
0.0
 11
230.9524
 21
29.5088
 31
0.0
  0
LINE
  5
88E
330
1E
100
AcDbEntity
  8
0
100
AcDbLine
 10
239.5237999999999
 20
29.9219
 30
0.0
 11
239.5237999999999
 21
29.4045
 31
0.0
  0
LINE
  5
88F
330
1E
100
AcDbEntity
  8
0
100
AcDbLine
 10
239.5237999999999
 20
29.4045
 30
0.0
 11
239.5237999999999
 21
29.9219
 31
0.0
  0
LINE
  5
890
330
1E
100
AcDbEntity
  8
0
100
AcDbLine
 10
239.5237999999999
 20
29.4045
 30
0.0
 11
239.5237999999999
 21
29.0894
 31
0.0
  0
LINE
  5
891
330
1E
100
AcDbEntity
  8
0
100
AcDbLine
 10
239.5237999999999
 20
29.0894
 30
0.0
 11
239.5237999999999
 21
29.4045
 31
0.0
  0
LINE
  5
892
330
1E
100
AcDbEntity
  8
0
100
AcDbLine
 10
230.4762
 20
29.9219
 30
0.0
 11
230.4762
 21
29.0894
 31
0.0
  0
LINE
  5
893
330
1E
100
AcDbEntity
  8
0
100
AcDbLine
 10
230.1992999999999
 20
32.2164
 30
0.0
 11
230.0962
 21
31.3696
 31
0.0
  0
LINE
  5
894
330
1E
100
AcDbEntity
  8
0
100
AcDbLine
 10
230.1429
 20
32.36359999999999
 30
0.0
 11
230.0
 21
31.88639999999999
 31
0.0
  0
LINE
  5
895
330
1E
100
AcDbEntity
  8
0
100
AcDbLine
 10
240.0
 20
31.88639999999999
 30
0.0
 11
239.8571
 21
32.36359999999999
 31
0.0
  0
LINE
  5
896
330
1E
100
AcDbEntity
  8
0
100
AcDbLine
 10
240.0
 20
32.076
 30
0.0
 11
240.0
 21
32.748
 31
0.0
  0
LINE
  5
897
330
1E
100
AcDbEntity
  8
0
100
AcDbLine
 10
240.0
 20
32.748
 30
0.0
 11
240.0
 21
32.076
 31
0.0
  0
LINE
  5
898
330
1E
100
AcDbEntity
  8
0
100
AcDbLine
 10
239.9037
 20
31.3696
 30
0.0
 11
239.8007
 21
32.2164
 31
0.0
  0
LINE
  5
899
330
1E
100
AcDbEntity
  8
0
100
AcDbLine
 10
240.0
 20
32.076
 30
0.0
 11
240.0
 21
30.956
 31
0.0
  0
LINE
  5
89A
330
1E
100
AcDbEntity
  8
0
100
AcDbLine
 10
239.9037
 20
31.3696
 30
0.0
 11
239.8267999999999
 21
30.5182
 31
0.0
  0
LINE
  5
89B
330
1E
100
AcDbEntity
  8
0
100
AcDbLine
 10
240.0
 20
30.956
 30
0.0
 11
240.0
 21
32.076
 31
0.0
  0
LINE
  5
89C
330
1E
100
AcDbEntity
  8
0
100
AcDbLine
 10
230.0
 20
31.0909
 30
0.0
 11
230.0
 21
30.1682
 31
0.0
  0
LINE
  5
89D
330
1E
100
AcDbEntity
  8
0
100
AcDbLine
 10
230.1731
 20
30.5182
 30
0.0
 11
230.0962
 21
31.3696
 31
0.0
  0
LINE
  5
89E
330
1E
100
AcDbEntity
  8
0
100
AcDbLine
 10
230.0
 20
30.1682
 30
0.0
 11
230.0
 21
31.0909
 31
0.0
  0
LINE
  5
89F
330
1E
100
AcDbEntity
  8
0
100
AcDbLine
 10
230.0
 20
31.88639999999999
 30
0.0
 11
230.0
 21
31.6636
 31
0.0
  0
LINE
  5
8A0
330
1E
100
AcDbEntity
  8
0
100
AcDbLine
 10
230.0
 20
31.6636
 30
0.0
 11
230.0
 21
31.0909
 31
0.0
  0
LINE
  5
8A1
330
1E
100
AcDbEntity
  8
0
100
AcDbLine
 10
230.0
 20
31.6636
 30
0.0
 11
230.0
 21
31.88639999999999
 31
0.0
  0
LINE
  5
8A2
330
1E
100
AcDbEntity
  8
0
100
AcDbLine
 10
230.0
 20
31.0909
 30
0.0
 11
230.0
 21
31.6636
 31
0.0
  0
LINE
  5
8A3
330
1E
100
AcDbEntity
  8
0
100
AcDbLine
 10
239.0476
 20
33.0
 30
0.0
 11
230.9524
 21
33.0
 31
0.0
  0
LINE
  5
8A4
330
1E
100
AcDbEntity
  8
0
100
AcDbLine
 10
239.8571
 20
32.36359999999999
 30
0.0
 11
239.5237999999999
 21
32.84089999999999
 31
0.0
  0
LINE
  5
8A5
330
1E
100
AcDbEntity
  8
0
100
AcDbLine
 10
239.5237999999999
 20
32.84089999999999
 30
0.0
 11
239.5237999999999
 21
32.7322
 31
0.0
  0
LINE
  5
8A6
330
1E
100
AcDbEntity
  8
0
100
AcDbLine
 10
239.5237999999999
 20
32.84089999999999
 30
0.0
 11
239.0476
 21
33.0
 31
0.0
  0
LINE
  5
8A7
330
1E
100
AcDbEntity
  8
0
100
AcDbLine
 10
239.5237999999999
 20
32.7322
 30
0.0
 11
239.5237999999999
 21
32.84089999999999
 31
0.0
  0
LINE
  5
8A8
330
1E
100
AcDbEntity
  8
0
100
AcDbLine
 10
239.8007
 20
32.2164
 30
0.0
 11
239.5237999999999
 21
32.7322
 31
0.0
  0
LINE
  5
8A9
330
1E
100
AcDbEntity
  8
0
100
AcDbLine
 10
240.0
 20
32.748
 30
0.0
 11
240.0
 21
33.0
 31
0.0
  0
LINE
  5
8AA
330
1E
100
AcDbEntity
  8
0
100
AcDbLine
 10
240.0
 20
33.0
 30
0.0
 11
240.0
 21
32.748
 31
0.0
  0
LINE
  5
8AB
330
1E
100
AcDbEntity
  8
0
100
AcDbLine
 10
230.9524
 20
33.0
 30
0.0
 11
230.4762
 21
32.84089999999999
 31
0.0
  0
LINE
  5
8AC
330
1E
100
AcDbEntity
  8
0
100
AcDbLine
 10
230.4762
 20
32.84089999999999
 30
0.0
 11
230.4762
 21
32.7322
 31
0.0
  0
LINE
  5
8AD
330
1E
100
AcDbEntity
  8
0
100
AcDbLine
 10
230.4762
 20
32.84089999999999
 30
0.0
 11
230.1429
 21
32.36359999999999
 31
0.0
  0
LINE
  5
8AE
330
1E
100
AcDbEntity
  8
0
100
AcDbLine
 10
230.4762
 20
32.7322
 30
0.0
 11
230.1992999999999
 21
32.2164
 31
0.0
  0
LINE
  5
8AF
330
1E
100
AcDbEntity
  8
0
100
AcDbLine
 10
230.4762
 20
32.7322
 30
0.0
 11
230.4762
 21
32.84089999999999
 31
0.0
  0
LINE
  5
8B0
330
1E
100
AcDbEntity
  8
0
100
AcDbLine
 10
256.132
 20
40.868
 30
0.0
 11
252.7719999999999
 21
36.41599999999999
 31
0.0
  0
LINE
  5
8B1
330
1E
100
AcDbEntity
  8
0
100
AcDbLine
 10
263.56
 20
39.02
 30
0.0
 11
260.38
 21
36.61999999999999
 31
0.0
  0
LINE
  5
8B2
330
1E
100
AcDbEntity
  8
0
100
AcDbLine
 10
256.84
 20
40.16
 30
0.0
 11
253.6399999999999
 21
35.92
 31
0.0
  0
LINE
  5
8B3
330
1E
100
AcDbEntity
  8
0
100
AcDbLine
 10
276.456
 20
35.548
 30
0.0
 11
273.8159999999999
 21
36.604
 31
0.0
  0
LINE
  5
8B4
330
1E
100
AcDbEntity
  8
0
100
AcDbLine
 10
268.184
 20
36.604
 30
0.0
 11
265.544
 21
35.548
 31
0.0
  0
LINE
  5
8B5
330
1E
100
AcDbEntity
  8
0
100
AcDbLine
 10
271.0
 20
35.0
 30
0.0
 11
270.5369999999999
 21
34.9369
 31
0.0
  0
LINE
  5
8B6
330
1E
100
AcDbEntity
  8
0
100
AcDbLine
 10
271.9889999999999
 20
34.6557
 30
0.0
 11
271.463
 21
34.9369
 31
0.0
  0
LINE
  5
8B7
330
1E
100
AcDbEntity
  8
0
100
AcDbLine
 10
271.463
 20
34.9369
 30
0.0
 11
271.0
 21
35.0
 31
0.0
  0
LINE
  5
8B8
330
1E
100
AcDbEntity
  8
0
100
AcDbLine
 10
270.5369999999999
 20
34.9369
 30
0.0
 11
270.011
 21
34.6557
 31
0.0
  0
LINE
  5
8B9
330
1E
100
AcDbEntity
  8
0
100
AcDbLine
 10
271.0
 20
37.0
 30
0.0
 11
268.184
 21
36.604
 31
0.0
  0
LINE
  5
8BA
330
1E
100
AcDbEntity
  8
0
100
AcDbLine
 10
273.8159999999999
 20
36.604
 30
0.0
 11
271.0
 21
37.0
 31
0.0
  0
LINE
  5
8BB
330
1E
100
AcDbEntity
  8
0
100
AcDbLine
 10
252.2056
 20
35.0
 30
0.0
 11
246.0
 21
35.0
 31
0.0
  0
LINE
  5
8BC
330
1E
100
AcDbEntity
  8
0
100
AcDbLine
 10
246.0
 20
34.676
 30
0.0
 11
246.0
 21
35.0
 31
0.0
  0
LINE
  5
8BD
330
1E
100
AcDbEntity
  8
0
100
AcDbLine
 10
246.0
 20
35.0
 30
0.0
 11
246.0
 21
34.676
 31
0.0
  0
LINE
  5
8BE
330
1E
100
AcDbEntity
  8
0
100
AcDbLine
 10
278.44
 20
39.02
 30
0.0
 11
274.8399999999999
 21
40.46
 31
0.0
  0
LINE
  5
8BF
330
1E
100
AcDbEntity
  8
0
100
AcDbLine
 10
267.16
 20
40.46
 30
0.0
 11
263.56
 21
39.02
 31
0.0
  0
LINE
  5
8C0
330
1E
100
AcDbEntity
  8
0
100
AcDbLine
 10
271.0
 20
41.0
 30
0.0
 11
267.16
 21
40.46
 31
0.0
  0
LINE
  5
8C1
330
1E
100
AcDbEntity
  8
0
100
AcDbLine
 10
274.8399999999999
 20
40.46
 30
0.0
 11
271.0
 21
41.0
 31
0.0
  0
LINE
  5
8C2
330
1E
100
AcDbEntity
  8
0
100
AcDbLine
 10
177.9524
 20
33.0
 30
0.0
 11
186.0476
 21
33.0
 31
0.0
  0
LINE
  5
8C3
330
1E
100
AcDbEntity
  8
0
100
AcDbLine
 10
177.9524
 20
29.5088
 30
0.0
 11
186.0476
 21
29.5088
 31
0.0
  0
LINE
  5
8C4
330
1E
100
AcDbEntity
  8
0
100
AcDbLine
 10
187.0
 20
28.9273
 30
0.0
 11
187.0
 21
30.1682
 31
0.0
  0
LINE
  5
8C5
330
1E
100
AcDbEntity
  8
0
100
AcDbLine
 10
187.0
 20
30.1682
 30
0.0
 11
187.0
 21
28.9273
 31
0.0
  0
LINE
  5
8C6
330
1E
100
AcDbEntity
  8
0
100
AcDbLine
 10
186.5237999999999
 20
29.9219
 30
0.0
 11
186.8268999999999
 21
30.5182
 31
0.0
  0
LINE
  5
8C7
330
1E
100
AcDbEntity
  8
0
100
AcDbLine
 10
187.0
 20
27.5273
 30
0.0
 11
187.0
 21
28.9273
 31
0.0
  0
LINE
  5
8C8
330
1E
100
AcDbEntity
  8
0
100
AcDbLine
 10
187.0
 20
28.9273
 30
0.0
 11
187.0
 21
27.5273
 31
0.0
  0
LINE
  5
8C9
330
1E
100
AcDbEntity
  8
0
100
AcDbLine
 10
186.5237999999999
 20
29.0894
 30
0.0
 11
186.8857
 21
27.60369999999999
 31
0.0
  0
LINE
  5
8CA
330
1E
100
AcDbEntity
  8
0
100
AcDbLine
 10
186.5237999999999
 20
29.9219
 30
0.0
 11
186.5237999999999
 21
29.0894
 31
0.0
  0
LINE
  5
8CB
330
1E
100
AcDbEntity
  8
0
100
AcDbLine
 10
186.8571
 20
32.36359999999999
 30
0.0
 11
187.0
 21
31.88639999999999
 31
0.0
  0
LINE
  5
8CC
330
1E
100
AcDbEntity
  8
0
100
AcDbLine
 10
186.8007
 20
32.2164
 30
0.0
 11
186.9037999999999
 21
31.3696
 31
0.0
  0
LINE
  5
8CD
330
1E
100
AcDbEntity
  8
0
100
AcDbLine
 10
187.0
 20
30.1682
 30
0.0
 11
187.0
 21
31.0909
 31
0.0
  0
LINE
  5
8CE
330
1E
100
AcDbEntity
  8
0
100
AcDbLine
 10
186.8268999999999
 20
30.5182
 30
0.0
 11
186.9037999999999
 21
31.3696
 31
0.0
  0
LINE
  5
8CF
330
1E
100
AcDbEntity
  8
0
100
AcDbLine
 10
187.0
 20
31.0909
 30
0.0
 11
187.0
 21
30.1682
 31
0.0
  0
LINE
  5
8D0
330
1E
100
AcDbEntity
  8
0
100
AcDbLine
 10
187.0
 20
31.0909
 30
0.0
 11
187.0
 21
31.6636
 31
0.0
  0
LINE
  5
8D1
330
1E
100
AcDbEntity
  8
0
100
AcDbLine
 10
187.0
 20
31.6636
 30
0.0
 11
187.0
 21
31.88639999999999
 31
0.0
  0
LINE
  5
8D2
330
1E
100
AcDbEntity
  8
0
100
AcDbLine
 10
187.0
 20
31.6636
 30
0.0
 11
187.0
 21
31.0909
 31
0.0
  0
LINE
  5
8D3
330
1E
100
AcDbEntity
  8
0
100
AcDbLine
 10
187.0
 20
31.88639999999999
 30
0.0
 11
187.0
 21
31.6636
 31
0.0
  0
LINE
  5
8D4
330
1E
100
AcDbEntity
  8
0
100
AcDbLine
 10
186.5237999999999
 20
32.7322
 30
0.0
 11
186.5237999999999
 21
32.84089999999999
 31
0.0
  0
LINE
  5
8D5
330
1E
100
AcDbEntity
  8
0
100
AcDbLine
 10
186.5237999999999
 20
32.7322
 30
0.0
 11
186.8007
 21
32.2164
 31
0.0
  0
LINE
  5
8D6
330
1E
100
AcDbEntity
  8
0
100
AcDbLine
 10
186.5237999999999
 20
32.84089999999999
 30
0.0
 11
186.8571
 21
32.36359999999999
 31
0.0
  0
LINE
  5
8D7
330
1E
100
AcDbEntity
  8
0
100
AcDbLine
 10
186.5237999999999
 20
32.84089999999999
 30
0.0
 11
186.5237999999999
 21
32.7322
 31
0.0
  0
LINE
  5
8D8
330
1E
100
AcDbEntity
  8
0
100
AcDbLine
 10
186.0476
 20
33.0
 30
0.0
 11
186.5237999999999
 21
32.84089999999999
 31
0.0
  0
LINE
  5
8D9
330
1E
100
AcDbEntity
  8
0
100
AcDbLine
 10
177.0
 20
29.472
 30
0.0
 11
177.0
 21
30.956
 31
0.0
  0
LINE
  5
8DA
330
1E
100
AcDbEntity
  8
0
100
AcDbLine
 10
177.0
 20
30.956
 30
0.0
 11
177.0
 21
29.472
 31
0.0
  0
LINE
  5
8DB
330
1E
100
AcDbEntity
  8
0
100
AcDbLine
 10
177.1732
 20
30.5182
 30
0.0
 11
177.4762
 21
29.9219
 31
0.0
  0
LINE
  5
8DC
330
1E
100
AcDbEntity
  8
0
100
AcDbLine
 10
177.0
 20
28.9273
 30
0.0
 11
177.0
 21
30.1682
 31
0.0
  0
LINE
  5
8DD
330
1E
100
AcDbEntity
  8
0
100
AcDbLine
 10
177.0
 20
30.1682
 30
0.0
 11
177.0
 21
28.9273
 31
0.0
  0
LINE
  5
8DE
330
1E
100
AcDbEntity
  8
0
100
AcDbLine
 10
177.0
 20
27.5273
 30
0.0
 11
177.0
 21
28.9273
 31
0.0
  0
LINE
  5
8DF
330
1E
100
AcDbEntity
  8
0
100
AcDbLine
 10
177.0
 20
28.9273
 30
0.0
 11
177.0
 21
27.5273
 31
0.0
  0
LINE
  5
8E0
330
1E
100
AcDbEntity
  8
0
100
AcDbLine
 10
177.1143
 20
27.60369999999999
 30
0.0
 11
177.4762
 21
29.0894
 31
0.0
  0
LINE
  5
8E1
330
1E
100
AcDbEntity
  8
0
100
AcDbLine
 10
177.0
 20
27.79199999999999
 30
0.0
 11
177.0
 21
29.472
 31
0.0
  0
LINE
  5
8E2
330
1E
100
AcDbEntity
  8
0
100
AcDbLine
 10
177.0
 20
29.472
 30
0.0
 11
177.0
 21
27.79199999999999
 31
0.0
  0
LINE
  5
8E3
330
1E
100
AcDbEntity
  8
0
100
AcDbLine
 10
177.4762
 20
29.0894
 30
0.0
 11
177.4762
 21
29.4045
 31
0.0
  0
LINE
  5
8E4
330
1E
100
AcDbEntity
  8
0
100
AcDbLine
 10
177.4762
 20
29.4045
 30
0.0
 11
177.4762
 21
29.0894
 31
0.0
  0
LINE
  5
8E5
330
1E
100
AcDbEntity
  8
0
100
AcDbLine
 10
177.4762
 20
29.4045
 30
0.0
 11
177.4762
 21
29.9219
 31
0.0
  0
LINE
  5
8E6
330
1E
100
AcDbEntity
  8
0
100
AcDbLine
 10
177.4762
 20
29.9219
 30
0.0
 11
177.4762
 21
29.4045
 31
0.0
  0
LINE
  5
8E7
330
1E
100
AcDbEntity
  8
0
100
AcDbLine
 10
177.0962999999999
 20
31.3696
 30
0.0
 11
177.1992999999999
 21
32.2164
 31
0.0
  0
LINE
  5
8E8
330
1E
100
AcDbEntity
  8
0
100
AcDbLine
 10
177.0
 20
32.748
 30
0.0
 11
177.0
 21
32.076
 31
0.0
  0
LINE
  5
8E9
330
1E
100
AcDbEntity
  8
0
100
AcDbLine
 10
177.0
 20
32.076
 30
0.0
 11
177.0
 21
32.748
 31
0.0
  0
LINE
  5
8EA
330
1E
100
AcDbEntity
  8
0
100
AcDbLine
 10
177.0
 20
31.88639999999999
 30
0.0
 11
177.1428999999999
 21
32.36359999999999
 31
0.0
  0
LINE
  5
8EB
330
1E
100
AcDbEntity
  8
0
100
AcDbLine
 10
177.0
 20
30.956
 30
0.0
 11
177.0
 21
32.076
 31
0.0
  0
LINE
  5
8EC
330
1E
100
AcDbEntity
  8
0
100
AcDbLine
 10
177.0962999999999
 20
31.3696
 30
0.0
 11
177.1732
 21
30.5182
 31
0.0
  0
LINE
  5
8ED
330
1E
100
AcDbEntity
  8
0
100
AcDbLine
 10
177.0
 20
32.076
 30
0.0
 11
177.0
 21
30.956
 31
0.0
  0
LINE
  5
8EE
330
1E
100
AcDbEntity
  8
0
100
AcDbLine
 10
171.0
 20
33.0
 30
0.0
 11
177.0
 21
33.0
 31
0.0
  0
LINE
  5
8EF
330
1E
100
AcDbEntity
  8
0
100
AcDbLine
 10
177.0
 20
33.0
 30
0.0
 11
177.0
 21
32.748
 31
0.0
  0
LINE
  5
8F0
330
1E
100
AcDbEntity
  8
0
100
AcDbLine
 10
177.0
 20
32.748
 30
0.0
 11
177.0
 21
33.0
 31
0.0
  0
LINE
  5
8F1
330
1E
100
AcDbEntity
  8
0
100
AcDbLine
 10
177.1992999999999
 20
32.2164
 30
0.0
 11
177.4762
 21
32.7322
 31
0.0
  0
LINE
  5
8F2
330
1E
100
AcDbEntity
  8
0
100
AcDbLine
 10
177.4762
 20
32.7322
 30
0.0
 11
177.4762
 21
32.84089999999999
 31
0.0
  0
LINE
  5
8F3
330
1E
100
AcDbEntity
  8
0
100
AcDbLine
 10
177.4762
 20
32.84089999999999
 30
0.0
 11
177.9524
 21
33.0
 31
0.0
  0
LINE
  5
8F4
330
1E
100
AcDbEntity
  8
0
100
AcDbLine
 10
177.4762
 20
32.84089999999999
 30
0.0
 11
177.4762
 21
32.7322
 31
0.0
  0
LINE
  5
8F5
330
1E
100
AcDbEntity
  8
0
100
AcDbLine
 10
177.1428999999999
 20
32.36359999999999
 30
0.0
 11
177.4762
 21
32.84089999999999
 31
0.0
  0
LINE
  5
8F6
330
1E
100
AcDbEntity
  8
0
100
AcDbLine
 10
280.92
 20
43.36
 30
0.0
 11
276.12
 21
45.28
 31
0.0
  0
LINE
  5
8F7
330
1E
100
AcDbEntity
  8
0
100
AcDbLine
 10
281.416
 20
44.228
 30
0.0
 11
276.3759999999999
 21
46.244
 31
0.0
  0
LINE
  5
8F8
330
1E
100
AcDbEntity
  8
0
100
AcDbLine
 10
276.3759999999999
 20
46.244
 30
0.0
 11
271.0
 21
47.0
 31
0.0
  0
LINE
  5
8F9
330
1E
100
AcDbEntity
  8
0
100
AcDbLine
 10
271.0
 20
47.0
 30
0.0
 11
265.624
 21
46.244
 31
0.0
  0
LINE
  5
8FA
330
1E
100
AcDbEntity
  8
0
100
AcDbLine
 10
265.8799999999999
 20
45.28
 30
0.0
 11
261.0799999999999
 21
43.36
 31
0.0
  0
LINE
  5
8FB
330
1E
100
AcDbEntity
  8
0
100
AcDbLine
 10
265.624
 20
46.244
 30
0.0
 11
260.584
 21
44.228
 31
0.0
  0
LINE
  5
8FC
330
1E
100
AcDbEntity
  8
0
100
AcDbLine
 10
271.0
 20
46.0
 30
0.0
 11
265.8799999999999
 21
45.28
 31
0.0
  0
LINE
  5
8FD
330
1E
100
AcDbEntity
  8
0
100
AcDbLine
 10
276.12
 20
45.28
 30
0.0
 11
271.0
 21
46.0
 31
0.0
  0
ENDSEC
  0
SECTION
  2
OBJECTS
  0
DICTIONARY
  5
C
330
0
100
AcDbDictionary
  3
ACAD_GROUP
350
D
  3
ACAD_LAYOUT
350
19
  3
ACAD_MLINESTYLE
350
16
  3
ACAD_PLOTSETTINGS
350
18
  3
ACAD_PLOTSTYLENAME
350
E
  3
ACDBHEADERROUNDTRIPXREC
350
902
  3
ACDBVARIABLEDICTIONARY
350
8FF
  0
DICTIONARY
  5
924
330
1E
100
AcDbDictionary
280
     1
  3
ACAD_LAYOUTSELFREF
360
925
  0
DICTIONARY
  5
922
330
1A
100
AcDbDictionary
280
     1
  3
ACAD_LAYOUTSELFREF
360
923
  0
DICTIONARY
  5
D
102
{ACAD_REACTORS
330
C
102
}
330
C
100
AcDbDictionary
  0
DICTIONARY
  5
19
102
{ACAD_REACTORS
330
C
102
}
330
C
100
AcDbDictionary
  0
DICTIONARY
  5
16
102
{ACAD_REACTORS
330
C
102
}
330
C
100
AcDbDictionary
  3
STANDARD
350
17
  0
DICTIONARY
  5
18
102
{ACAD_REACTORS
330
C
102
}
330
C
100
AcDbDictionary
  0
ACDBDICTIONARYWDFLT
  5
E
102
{ACAD_REACTORS
330
C
102
}
330
C
100
AcDbDictionary
281
     1
  3
Normal
350
F
100
AcDbDictionaryWithDefault
340
F
  0
DICTIONARY
  5
902
102
{ACAD_REACTORS
330
C
102
}
330
C
100
AcDbDictionary
  3
CEPSNTYPE
350
90C
  3
FINGERPRINTGUID
350
90D
  3
HYPERLINKBASE
350
905
  3
INSUNITS
350
90B
  3
LAYOUTDICT
350
907
  3
LWETCUNION
350
90A
  3
PLOTSETDICT
350
908
  3
PLOTSTYLNAMDICT
350
909
  3
PSVPSCALE
350
90F
  3
PUCSBASE
350
912
  3
PUCSORGBACK
350
918
  3
PUCSORGBOTTOM
350
914
  3
PUCSORGFRONT
350
917
  3
PUCSORGLEFT
350
915
  3
PUCSORGRIGHT
350
916
  3
PUCSORGTOP
350
913
  3
PUCSORTHOREF
350
910
  3
PUCSORTHOVIEW
350
911
  3
STYLESHEET
350
906
  3
TSTACKALIGN
350
903
  3
TSTACKSIZE
350
904
  3
UCSBASE
350
91B
  3
UCSORGBACK
350
921
  3
UCSORGBOTTOM
350
91D
  3
UCSORGFRONT
350
920
  3
UCSORGLEFT
350
91E
  3
UCSORGRIGHT
350
91F
  3
UCSORGTOP
350
91C
  3
UCSORTHOREF
350
919
  3
UCSORTHOVIEW
350
91A
  3
VERSIONGUID
350
90E
  0
DICTIONARY
  5
8FF
102
{ACAD_REACTORS
330
C
102
}
330
C
100
AcDbDictionary
  3
DIMASSOC
350
900
  0
XRECORD
  5
925
102
{ACAD_REACTORS
330
924
102
}
330
924
100
AcDbXrecord
340
1E
  0
XRECORD
  5
923
102
{ACAD_REACTORS
330
922
102
}
330
922
100
AcDbXrecord
340
1A
  0
MLINESTYLE
  5
17
102
{ACAD_REACTORS
330
16
102
}
330
16
100
AcDbMlineStyle
  2
STANDARD
 70
     0
  3

 62
   256
 51
90.0
 52
90.0
 71
     2
 49
0.5
 62
   256
  6
BYLAYER
 49
-0.5
 62
   256
  6
BYLAYER
  0
ACDBPLACEHOLDER
  5
F
102
{ACAD_REACTORS
330
E
102
}
330
E
100
AcDbPlaceHolder
280
     0
  0
XRECORD
  5
90C
102
{ACAD_REACTORS
330
902
102
}
330
902
100
AcDbXrecord
 90
        0
  0
XRECORD
  5
90D
102
{ACAD_REACTORS
330
902
102
}
330
902
100
AcDbXrecord
  1
{70CEF8F5-2E85-44CD-BFDF-F071FE0556F9}
  0
XRECORD
  5
905
102
{ACAD_REACTORS
330
902
102
}
330
902
100
AcDbXrecord
  1

  0
XRECORD
  5
90B
102
{ACAD_REACTORS
330
902
102
}
330
902
100
AcDbXrecord
 90
        0
  0
XRECORD
  5
907
102
{ACAD_REACTORS
330
902
102
}
330
902
100
AcDbXrecord
340
19
  0
XRECORD
  5
90A
102
{ACAD_REACTORS
330
902
102
}
330
902
100
AcDbXrecord
 90
    10781
  0
XRECORD
  5
908
102
{ACAD_REACTORS
330
902
102
}
330
902
100
AcDbXrecord
340
18
  0
XRECORD
  5
909
102
{ACAD_REACTORS
330
902
102
}
330
902
100
AcDbXrecord
340
E
  0
XRECORD
  5
90F
102
{ACAD_REACTORS
330
902
102
}
330
902
100
AcDbXrecord
 40
0.0
  0
XRECORD
  5
912
102
{ACAD_REACTORS
330
902
102
}
330
902
100
AcDbXrecord
340
0
  0
XRECORD
  5
918
102
{ACAD_REACTORS
330
902
102
}
330
902
100
AcDbXrecord
 10
0.0
 20
0.0
 30
0.0
  0
XRECORD
  5
914
102
{ACAD_REACTORS
330
902
102
}
330
902
100
AcDbXrecord
 10
0.0
 20
0.0
 30
0.0
  0
XRECORD
  5
917
102
{ACAD_REACTORS
330
902
102
}
330
902
100
AcDbXrecord
 10
0.0
 20
0.0
 30
0.0
  0
XRECORD
  5
915
102
{ACAD_REACTORS
330
902
102
}
330
902
100
AcDbXrecord
 10
0.0
 20
0.0
 30
0.0
  0
XRECORD
  5
916
102
{ACAD_REACTORS
330
902
102
}
330
902
100
AcDbXrecord
 10
0.0
 20
0.0
 30
0.0
  0
XRECORD
  5
913
102
{ACAD_REACTORS
330
902
102
}
330
902
100
AcDbXrecord
 10
0.0
 20
0.0
 30
0.0
  0
XRECORD
  5
910
102
{ACAD_REACTORS
330
902
102
}
330
902
100
AcDbXrecord
340
0
  0
XRECORD
  5
911
102
{ACAD_REACTORS
330
902
102
}
330
902
100
AcDbXrecord
 70
     0
  0
XRECORD
  5
906
102
{ACAD_REACTORS
330
902
102
}
330
902
100
AcDbXrecord
  1

  0
XRECORD
  5
903
102
{ACAD_REACTORS
330
902
102
}
330
902
100
AcDbXrecord
 90
        1
  0
XRECORD
  5
904
102
{ACAD_REACTORS
330
902
102
}
330
902
100
AcDbXrecord
 90
       70
  0
XRECORD
  5
91B
102
{ACAD_REACTORS
330
902
102
}
330
902
100
AcDbXrecord
340
0
  0
XRECORD
  5
921
102
{ACAD_REACTORS
330
902
102
}
330
902
100
AcDbXrecord
 10
0.0
 20
0.0
 30
0.0
  0
XRECORD
  5
91D
102
{ACAD_REACTORS
330
902
102
}
330
902
100
AcDbXrecord
 10
0.0
 20
0.0
 30
0.0
  0
XRECORD
  5
920
102
{ACAD_REACTORS
330
902
102
}
330
902
100
AcDbXrecord
 10
0.0
 20
0.0
 30
0.0
  0
XRECORD
  5
91E
102
{ACAD_REACTORS
330
902
102
}
330
902
100
AcDbXrecord
 10
0.0
 20
0.0
 30
0.0
  0
XRECORD
  5
91F
102
{ACAD_REACTORS
330
902
102
}
330
902
100
AcDbXrecord
 10
0.0
 20
0.0
 30
0.0
  0
XRECORD
  5
91C
102
{ACAD_REACTORS
330
902
102
}
330
902
100
AcDbXrecord
 10
0.0
 20
0.0
 30
0.0
  0
XRECORD
  5
919
102
{ACAD_REACTORS
330
902
102
}
330
902
100
AcDbXrecord
340
0
  0
XRECORD
  5
91A
102
{ACAD_REACTORS
330
902
102
}
330
902
100
AcDbXrecord
 70
     1
  0
XRECORD
  5
90E
102
{ACAD_REACTORS
330
902
102
}
330
902
100
AcDbXrecord
  1
{17E08EED-6B8B-48C5-9F2D-D34DC4033B50}
  0
DICTIONARYVAR
  5
900
102
{ACAD_REACTORS
330
8FF
102
}
330
8FF
100
DictionaryVariables
280
     0
  1
1
  0
ENDSEC
  0
EOF
