  0
SECTION
  2
HEADER
  9
$ACADVER
  1
AC1015
  9
$ACADMAINTVER
 70
    13
  9
$DWGCODEPAGE
  3
ANSI_1252
  9
$INSBASE
 10
0.0
 20
0.0
 30
0.0
  9
$EXTMIN
 10
-0.0000000000000111
 20
-0.0644999999999844
 30
0.0
  9
$EXTMAX
 10
100.0
 20
586.0644999999999
 30
0.0
  9
$LIMMIN
 10
0.0
 20
0.0
  9
$LIMMAX
 10
12.0
 20
9.0
  9
$ORTHOMODE
 70
     0
  9
$REGENMODE
 70
     1
  9
$FILLMODE
 70
     1
  9
$QTEXTMODE
 70
     0
  9
$MIRRTEXT
 70
     1
  9
$LTSCALE
 40
1.0
  9
$ATTMODE
 70
     1
  9
$TEXTSIZE
 40
0.2
  9
$TRACEWID
 40
0.05
  9
$TEXTSTYLE
  7
Standard
  9
$CLAYER
  8
0
  9
$CELTYPE
  6
Continuous
  9
$CECOLOR
 62
   256
  9
$CELTSCALE
 40
1.0
  9
$DISPSILH
 70
     0
  9
$DIMSCALE
 40
1.0
  9
$DIMASZ
 40
0.18
  9
$DIMEXO
 40
0.0625
  9
$DIMDLI
 40
0.38
  9
$DIMRND
 40
0.0
  9
$DIMDLE
 40
0.0
  9
$DIMEXE
 40
0.18
  9
$DIMTP
 40
0.0
  9
$DIMTM
 40
0.0
  9
$DIMTXT
 40
0.18
  9
$DIMCEN
 40
0.09
  9
$DIMTSZ
 40
0.0
  9
$DIMTOL
 70
     0
  9
$DIMLIM
 70
     0
  9
$DIMTIH
 70
     1
  9
$DIMTOH
 70
     1
  9
$DIMSE1
 70
     0
  9
$DIMSE2
 70
     0
  9
$DIMTAD
 70
     0
  9
$DIMZIN
 70
     0
  9
$DIMBLK
  1

  9
$DIMASO
 70
     1
  9
$DIMSHO
 70
     1
  9
$DIMPOST
  1

  9
$DIMAPOST
  1

  9
$DIMALT
 70
     0
  9
$DIMALTD
 70
     2
  9
$DIMALTF
 40
25.4
  9
$DIMLFAC
 40
1.0
  9
$DIMTOFL
 70
     0
  9
$DIMTVP
 40
0.0
  9
$DIMTIX
 70
     0
  9
$DIMSOXD
 70
     0
  9
$DIMSAH
 70
     0
  9
$DIMBLK1
  1

  9
$DIMBLK2
  1

  9
$DIMSTYLE
  2
Standard
  9
$DIMCLRD
 70
     0
  9
$DIMCLRE
 70
     0
  9
$DIMCLRT
 70
     0
  9
$DIMTFAC
 40
1.0
  9
$DIMGAP
 40
0.09
  9
$DIMJUST
 70
     0
  9
$DIMSD1
 70
     0
  9
$DIMSD2
 70
     0
  9
$DIMTOLJ
 70
     1
  9
$DIMTZIN
 70
     0
  9
$DIMALTZ
 70
     0
  9
$DIMALTTZ
 70
     0
  9
$DIMUPT
 70
     0
  9
$DIMDEC
 70
     4
  9
$DIMTDEC
 70
     4
  9
$DIMALTU
 70
     2
  9
$DIMALTTD
 70
     2
  9
$DIMTXSTY
  7
Standard
  9
$DIMAUNIT
 70
     0
  9
$DIMADEC
 70
     0
  9
$DIMALTRND
 40
0.0
  9
$DIMAZIN
 70
     0
  9
$DIMDSEP
 70
    46
  9
$DIMATFIT
 70
     3
  9
$DIMFRAC
 70
     0
  9
$DIMLDRBLK
  1

  9
$DIMLUNIT
 70
     2
  9
$DIMLWD
 70
    -2
  9
$DIMLWE
 70
    -2
  9
$DIMTMOVE
 70
     0
  9
$LUNITS
 70
     2
  9
$LUPREC
 70
     4
  9
$SKETCHINC
 40
0.1
  9
$FILLETRAD
 40
0.0
  9
$AUNITS
 70
     0
  9
$AUPREC
 70
     0
  9
$MENU
  1
.
  9
$ELEVATION
 40
0.0
  9
$PELEVATION
 40
0.0
  9
$THICKNESS
 40
0.0
  9
$LIMCHECK
 70
     0
  9
$CHAMFERA
 40
0.0
  9
$CHAMFERB
 40
0.0
  9
$CHAMFERC
 40
0.0
  9
$CHAMFERD
 40
0.0
  9
$SKPOLY
 70
     0
  9
$TDCREATE
 40
2454781.431256319
  9
$TDUCREATE
 40
2454781.389589653
  9
$TDUPDATE
 40
2454781.434842661
  9
$TDUUPDATE
 40
2454781.393175995
  9
$TDINDWG
 40
0.0035865162
  9
$TDUSRTIMER
 40
0.0035865162
  9
$USRTIMER
 70
     1
  9
$ANGBASE
 50
0.0
  9
$ANGDIR
 70
     0
  9
$PDMODE
 70
     0
  9
$PDSIZE
 40
0.0
  9
$PLINEWID
 40
0.0
  9
$SPLFRAME
 70
     0
  9
$SPLINETYPE
 70
     6
  9
$SPLINESEGS
 70
     8
  9
$HANDSEED
  5
3B4
  9
$SURFTAB1
 70
     6
  9
$SURFTAB2
 70
     6
  9
$SURFTYPE
 70
     6
  9
$SURFU
 70
     6
  9
$SURFV
 70
     6
  9
$UCSBASE
  2

  9
$UCSNAME
  2

  9
$UCSORG
 10
0.0
 20
0.0
 30
0.0
  9
$UCSXDIR
 10
1.0
 20
0.0
 30
0.0
  9
$UCSYDIR
 10
0.0
 20
1.0
 30
0.0
  9
$UCSORTHOREF
  2

  9
$UCSORTHOVIEW
 70
     1
  9
$UCSORGTOP
 10
0.0
 20
0.0
 30
0.0
  9
$UCSORGBOTTOM
 10
0.0
 20
0.0
 30
0.0
  9
$UCSORGLEFT
 10
0.0
 20
0.0
 30
0.0
  9
$UCSORGRIGHT
 10
0.0
 20
0.0
 30
0.0
  9
$UCSORGFRONT
 10
0.0
 20
0.0
 30
0.0
  9
$UCSORGBACK
 10
0.0
 20
0.0
 30
0.0
  9
$PUCSBASE
  2

  9
$PUCSNAME
  2

  9
$PUCSORG
 10
0.0
 20
0.0
 30
0.0
  9
$PUCSXDIR
 10
1.0
 20
0.0
 30
0.0
  9
$PUCSYDIR
 10
0.0
 20
1.0
 30
0.0
  9
$PUCSORTHOREF
  2

  9
$PUCSORTHOVIEW
 70
     0
  9
$PUCSORGTOP
 10
0.0
 20
0.0
 30
0.0
  9
$PUCSORGBOTTOM
 10
0.0
 20
0.0
 30
0.0
  9
$PUCSORGLEFT
 10
0.0
 20
0.0
 30
0.0
  9
$PUCSORGRIGHT
 10
0.0
 20
0.0
 30
0.0
  9
$PUCSORGFRONT
 10
0.0
 20
0.0
 30
0.0
  9
$PUCSORGBACK
 10
0.0
 20
0.0
 30
0.0
  9
$USERI1
 70
     0
  9
$USERI2
 70
     0
  9
$USERI3
 70
     0
  9
$USERI4
 70
     0
  9
$USERI5
 70
     0
  9
$USERR1
 40
0.0
  9
$USERR2
 40
0.0
  9
$USERR3
 40
0.0
  9
$USERR4
 40
0.0
  9
$USERR5
 40
0.0
  9
$WORLDVIEW
 70
     1
  9
$SHADEDGE
 70
     3
  9
$SHADEDIF
 70
    70
  9
$TILEMODE
 70
     1
  9
$MAXACTVP
 70
    64
  9
$PINSBASE
 10
0.0
 20
0.0
 30
0.0
  9
$PLIMCHECK
 70
     0
  9
$PEXTMIN
 10
1.000000000000000E+20
 20
1.000000000000000E+20
 30
1.000000000000000E+20
  9
$PEXTMAX
 10
-1.000000000000000E+20
 20
-1.000000000000000E+20
 30
-1.000000000000000E+20
  9
$PLIMMIN
 10
0.0
 20
0.0
  9
$PLIMMAX
 10
12.0
 20
9.0
  9
$UNITMODE
 70
     0
  9
$VISRETAIN
 70
     1
  9
$PLINEGEN
 70
     0
  9
$PSLTSCALE
 70
     1
  9
$TREEDEPTH
 70
  3020
  9
$CMLSTYLE
  2
Standard
  9
$CMLJUST
 70
     0
  9
$CMLSCALE
 40
1.0
  9
$PROXYGRAPHICS
 70
     1
  9
$MEASUREMENT
 70
     0
  9
$CELWEIGHT
370
    -1
  9
$ENDCAPS
280
     0
  9
$JOINSTYLE
280
     0
  9
$LWDISPLAY
290
     0
  9
$INSUNITS
 70
     0
  9
$HYPERLINKBASE
  1

  9
$STYLESHEET
  1

  9
$XEDIT
290
     1
  9
$CEPSNTYPE
380
     0
  9
$PSTYLEMODE
290
     1
  9
$FINGERPRINTGUID
  2
{A28549B8-A17D-4812-9460-B4C9C916F708}
  9
$VERSIONGUID
  2
{67456BA8-FB1D-4390-BC98-DD76736B0A32}
  9
$EXTNAMES
290
     1
  9
$PSVPSCALE
 40
0.0
  9
$OLESTARTUP
290
     0
  0
ENDSEC
  0
SECTION
  2
CLASSES
  0
CLASS
  1
ACDBDICTIONARYWDFLT
  2
AcDbDictionaryWithDefault
  3
AutoCAD 2000
 90
        0
280
     0
281
     0
  0
CLASS
  1
ACDBPLACEHOLDER
  2
AcDbPlaceHolder
  3
AutoCAD 2000
 90
        0
280
     0
281
     0
  0
CLASS
  1
LAYOUT
  2
AcDbLayout
  3
AutoCAD 2000
 90
        0
280
     0
281
     0
  0
CLASS
  1
DICTIONARYVAR
  2
AcDbDictionaryVar
  3
AutoCAD 2000
 90
        0
280
     0
281
     0
  0
ENDSEC
  0
SECTION
  2
TABLES
  0
TABLE
  2
VPORT
  5
8
330
0
100
AcDbSymbolTable
 70
     2
  0
VPORT
  5
3B3
330
8
100
AcDbSymbolTableRecord
100
AcDbViewportTableRecord
  2
*Active
 70
     0
 10
0.0
 20
0.0
 11
1.0
 21
1.0
 12
50.0
 22
292.9999999999999
 13
0.0
 23
0.0
 14
1.0
 24
1.0
 15
0.0
 25
0.0
 16
0.0
 26
0.0
 36
1.0
 17
0.0
 27
0.0
 37
0.0
 40
590.6261534526853
 41
2.078104993597951
 42
50.0
 43
0.0
 44
0.0
 50
0.0
 51
0.0
 71
     0
 72
   100
 73
     1
 74
     3
 75
     0
 76
     0
 77
     0
 78
     0
281
     0
 65
     1
110
0.0
120
0.0
130
0.0
111
1.0
121
0.0
131
0.0
112
0.0
122
1.0
132
0.0
 79
     1
146
0.0
  0
ENDTAB
  0
TABLE
  2
LTYPE
  5
5
330
0
100
AcDbSymbolTable
 70
     1
  0
LTYPE
  5
13
330
5
100
AcDbSymbolTableRecord
100
AcDbLinetypeTableRecord
  2
ByBlock
 70
     0
  3

 72
    65
 73
     0
 40
0.0
  0
LTYPE
  5
14
330
5
100
AcDbSymbolTableRecord
100
AcDbLinetypeTableRecord
  2
ByLayer
 70
     0
  3

 72
    65
 73
     0
 40
0.0
  0
LTYPE
  5
15
330
5
100
AcDbSymbolTableRecord
100
AcDbLinetypeTableRecord
  2
Continuous
 70
     0
  3
Solid line
 72
    65
 73
     0
 40
0.0
  0
ENDTAB
  0
TABLE
  2
LAYER
  5
2
330
0
100
AcDbSymbolTable
 70
     1
  0
LAYER
  5
10
330
2
100
AcDbSymbolTableRecord
100
AcDbLayerTableRecord
  2
0
 70
     0
 62
     7
  6
Continuous
370
    -3
390
F
  0
ENDTAB
  0
TABLE
  2
STYLE
  5
3
330
0
100
AcDbSymbolTable
 70
     1
  0
STYLE
  5
11
330
3
100
AcDbSymbolTableRecord
100
AcDbTextStyleTableRecord
  2
Standard
 70
     0
 40
0.0
 41
1.0
 50
0.0
 71
     0
 42
0.2
  3
txt
  4

  0
ENDTAB
  0
TABLE
  2
VIEW
  5
6
330
0
100
AcDbSymbolTable
 70
     0
  0
ENDTAB
  0
TABLE
  2
UCS
  5
7
330
0
100
AcDbSymbolTable
 70
     0
  0
ENDTAB
  0
TABLE
  2
APPID
  5
9
330
0
100
AcDbSymbolTable
 70
     1
  0
APPID
  5
12
330
9
100
AcDbSymbolTableRecord
100
AcDbRegAppTableRecord
  2
ACAD
 70
     0
  0
ENDTAB
  0
TABLE
  2
DIMSTYLE
  5
A
330
0
100
AcDbSymbolTable
 70
     1
100
AcDbDimStyleTable
 71
     0
  0
DIMSTYLE
105
3A7
330
A
100
AcDbSymbolTableRecord
100
AcDbDimStyleTableRecord
  2
Standard
 70
     0
340
11
  0
ENDTAB
  0
TABLE
  2
BLOCK_RECORD
  5
1
330
0
100
AcDbSymbolTable
 70
     0
  0
BLOCK_RECORD
  5
1E
330
1
100
AcDbSymbolTableRecord
100
AcDbBlockTableRecord
  2
*Model_Space
340
21
  0
BLOCK_RECORD
  5
1A
330
1
100
AcDbSymbolTableRecord
100
AcDbBlockTableRecord
  2
*Paper_Space
340
1D
  0
ENDTAB
  0
ENDSEC
  0
SECTION
  2
BLOCKS
  0
BLOCK
  5
1F
330
1E
100
AcDbEntity
  8
0
100
AcDbBlockBegin
  2
*Model_Space
 70
     0
 10
0.0
 20
0.0
 30
0.0
  3
*Model_Space
  1

  0
ENDBLK
  5
20
330
1E
100
AcDbEntity
  8
0
100
AcDbBlockEnd
  0
BLOCK
  5
1B
330
1A
100
AcDbEntity
 67
     1
  8
0
100
AcDbBlockBegin
  2
*Paper_Space
 70
     0
 10
0.0
 20
0.0
 30
0.0
  3
*Paper_Space
  1

  0
ENDBLK
  5
1C
330
1A
100
AcDbEntity
 67
     1
  8
0
100
AcDbBlockEnd
  0
ENDSEC
  0
SECTION
  2
ENTITIES
  0
LINE
  5
22
330
1E
100
AcDbEntity
  8
0
100
AcDbLine
 10
23.0
 20
96.6135
 30
0.0
 11
35.0
 21
96.6135
 31
0.0
  0
LINE
  5
23
330
1E
100
AcDbEntity
  8
0
100
AcDbLine
 10
22.0
 20
140.6134999999999
 30
0.0
 11
23.368
 21
140.6134999999999
 31
0.0
  0
LINE
  5
24
330
1E
100
AcDbEntity
  8
0
100
AcDbLine
 10
22.0
 20
136.6134999999999
 30
0.0
 11
23.368
 21
136.6134999999999
 31
0.0
  0
LINE
  5
25
330
1E
100
AcDbEntity
  8
0
100
AcDbLine
 10
22.0
 20
136.6134999999999
 30
0.0
 11
22.0
 21
140.6134999999999
 31
0.0
  0
LINE
  5
26
330
1E
100
AcDbEntity
  8
0
100
AcDbLine
 10
23.368
 20
140.6134999999999
 30
0.0
 11
27.016
 21
140.6134999999999
 31
0.0
  0
LINE
  5
27
330
1E
100
AcDbEntity
  8
0
100
AcDbLine
 10
23.368
 20
136.6134999999999
 30
0.0
 11
27.016
 21
136.6134999999999
 31
0.0
  0
LINE
  5
28
330
1E
100
AcDbEntity
  8
0
100
AcDbLine
 10
23.0
 20
131.6134999999999
 30
0.0
 11
30.0
 21
131.6134999999999
 31
0.0
  0
LINE
  5
29
330
1E
100
AcDbEntity
  8
0
100
AcDbLine
 10
23.0
 20
96.6135
 30
0.0
 11
35.0
 21
96.6135
 31
0.0
  0
LINE
  5
2A
330
1E
100
AcDbEntity
  8
0
100
AcDbLine
 10
23.0
 20
96.6135
 30
0.0
 11
23.0
 21
131.6134999999999
 31
0.0
  0
LINE
  5
2B
330
1E
100
AcDbEntity
  8
0
100
AcDbLine
 10
27.016
 20
140.6134999999999
 30
0.0
 11
33.09599999999999
 21
140.6134999999999
 31
0.0
  0
LINE
  5
2C
330
1E
100
AcDbEntity
  8
0
100
AcDbLine
 10
27.016
 20
136.6134999999999
 30
0.0
 11
30.0
 21
136.6134999999999
 31
0.0
  0
LINE
  5
2D
330
1E
100
AcDbEntity
  8
0
100
AcDbLine
 10
27.016
 20
136.6134999999999
 30
0.0
 11
33.09599999999999
 21
136.6134999999999
 31
0.0
  0
LINE
  5
2E
330
1E
100
AcDbEntity
  8
0
100
AcDbLine
 10
25.0
 20
150.6135
 30
0.0
 11
25.0
 21
152.6135
 31
0.0
  0
LINE
  5
2F
330
1E
100
AcDbEntity
  8
0
100
AcDbLine
 10
25.0
 20
150.6135
 30
0.0
 11
26.26
 21
150.6135
 31
0.0
  0
LINE
  5
30
330
1E
100
AcDbEntity
  8
0
100
AcDbLine
 10
25.0
 20
152.6135
 30
0.0
 11
25.0
 21
150.6135
 31
0.0
  0
LINE
  5
31
330
1E
100
AcDbEntity
  8
0
100
AcDbLine
 10
25.0
 20
152.6135
 30
0.0
 11
26.26
 21
152.6135
 31
0.0
  0
LINE
  5
32
330
1E
100
AcDbEntity
  8
0
100
AcDbLine
 10
-0.0000000000000111
 20
525.7355
 30
0.0
 11
25.5528296012453
 21
525.7355
 31
0.0
  0
LINE
  5
33
330
1E
100
AcDbEntity
  8
0
100
AcDbLine
 10
-0.0000000000000059
 20
525.7355
 30
0.0
 11
-0.0000000000000059
 21
525.8795
 31
0.0
  0
LINE
  5
34
330
1E
100
AcDbEntity
  8
0
100
AcDbLine
 10
-0.0000000000000059
 20
525.7355
 30
0.0
 11
25.5528296012453
 21
525.7355
 31
0.0
  0
LINE
  5
35
330
1E
100
AcDbEntity
  8
0
100
AcDbLine
 10
-0.0000000000000059
 20
525.8795
 30
0.0
 11
-0.0000000000000058
 21
526.5814999999999
 31
0.0
  0
LINE
  5
36
330
1E
100
AcDbEntity
  8
0
100
AcDbLine
 10
-0.0000000000000058
 20
526.5814999999999
 30
0.0
 11
-0.0000000000000057
 21
528.5135
 31
0.0
  0
LINE
  5
37
330
1E
100
AcDbEntity
  8
0
100
AcDbLine
 10
-0.0000000000000059
 20
525.8795
 30
0.0
 11
-0.0000000000000058
 21
527.1584999999999
 31
0.0
  0
LINE
  5
38
330
1E
100
AcDbEntity
  8
0
100
AcDbLine
 10
-0.0000000000000058
 20
527.1584999999999
 30
0.0
 11
-0.0000000000000057
 21
529.3375
 31
0.0
  0
LINE
  5
39
330
1E
100
AcDbEntity
  8
0
100
AcDbLine
 10
-0.0000000000000055
 20
531.4095
 30
0.0
 11
-0.0000000000000053
 21
534.9244999999999
 31
0.0
  0
LINE
  5
3A
330
1E
100
AcDbEntity
  8
0
100
AcDbLine
 10
-0.0000000000000057
 20
529.3375
 30
0.0
 11
-0.0000000000000055
 21
532.4474999999999
 31
0.0
  0
LINE
  5
3B
330
1E
100
AcDbEntity
  8
0
100
AcDbLine
 10
-0.0000000000000057
 20
529.3375
 30
0.0
 11
-0.0000000000000055
 21
531.4095
 31
0.0
  0
LINE
  5
3C
330
1E
100
AcDbEntity
  8
0
100
AcDbLine
 10
-0.0000000000000055
 20
532.4474999999999
 30
0.0
 11
-0.0000000000000052
 21
536.2324999999999
 31
0.0
  0
LINE
  5
3D
330
1E
100
AcDbEntity
  8
0
100
AcDbLine
 10
-0.0000000000000052
 20
536.2324999999999
 30
0.0
 11
-0.0000000000000051
 21
538.8585
 31
0.0
  0
LINE
  5
3E
330
1E
100
AcDbEntity
  8
0
100
AcDbLine
 10
-0.0000000000000052
 20
536.2324999999999
 30
0.0
 11
-0.000000000000005
 21
540.2815
 31
0.0
  0
LINE
  5
3F
330
1E
100
AcDbEntity
  8
0
100
AcDbLine
 10
21.44
 20
535.5454999999999
 30
0.0
 11
25.28
 21
526.0914999999999
 31
0.0
  0
LINE
  5
40
330
1E
100
AcDbEntity
  8
0
100
AcDbLine
 10
25.28
 20
526.0914999999999
 30
0.0
 11
31.68
 21
517.7405
 31
0.0
  0
LINE
  5
41
330
1E
100
AcDbEntity
  8
0
100
AcDbLine
 10
-0.0000000000000051
 20
538.8585
 30
0.0
 11
-0.000000000000005
 21
540.2815
 31
0.0
  0
LINE
  5
42
330
1E
100
AcDbEntity
  8
0
100
AcDbLine
 10
-0.0000000000000047
 20
544.4144999999999
 30
0.0
 11
-0.0000000000000045
 21
548.3484999999999
 31
0.0
  0
LINE
  5
43
330
1E
100
AcDbEntity
  8
0
100
AcDbLine
 10
-0.0000000000000048
 20
542.9915
 30
0.0
 11
-0.0000000000000046
 21
547.0404999999999
 31
0.0
  0
LINE
  5
44
330
1E
100
AcDbEntity
  8
0
100
AcDbLine
 10
-0.000000000000005
 20
540.2815
 30
0.0
 11
-0.0000000000000047
 21
544.4144999999999
 31
0.0
  0
LINE
  5
45
330
1E
100
AcDbEntity
  8
0
100
AcDbLine
 10
-0.0000000000000043
 20
551.8635
 30
0.0
 11
-0.0000000000000041
 21
554.7595
 31
0.0
  0
LINE
  5
46
330
1E
100
AcDbEntity
  8
0
100
AcDbLine
 10
-0.0000000000000045
 20
548.3484999999999
 30
0.0
 11
-0.0000000000000043
 21
551.8635
 31
0.0
  0
LINE
  5
47
330
1E
100
AcDbEntity
  8
0
100
AcDbLine
 10
-0.0000000000000041
 20
554.7595
 30
0.0
 11
-0.000000000000004
 21
556.6915
 31
0.0
  0
LINE
  5
48
330
1E
100
AcDbEntity
  8
0
100
AcDbLine
 10
-0.0000000000000039
 20
557.5375
 30
0.0
 11
21.757224455257
 21
557.5375
 31
0.0
  0
LINE
  5
49
330
1E
100
AcDbEntity
  8
0
100
AcDbLine
 10
0.0
 20
557.5375
 30
0.0
 11
21.757224455257
 21
557.5375
 31
0.0
  0
LINE
  5
4A
330
1E
100
AcDbEntity
  8
0
100
AcDbLine
 10
-0.0000000000000039
 20
557.3935
 30
0.0
 11
-0.0000000000000039
 21
557.5375
 31
0.0
  0
LINE
  5
4B
330
1E
100
AcDbEntity
  8
0
100
AcDbLine
 10
-0.000000000000004
 20
556.6915
 30
0.0
 11
-0.0000000000000039
 21
557.5375
 31
0.0
  0
LINE
  5
4C
330
1E
100
AcDbEntity
  8
0
100
AcDbLine
 10
-0.0000000000000041
 20
554.7595
 30
0.0
 11
-0.000000000000004
 21
556.1145
 31
0.0
  0
LINE
  5
4D
330
1E
100
AcDbEntity
  8
0
100
AcDbLine
 10
-0.0000000000000043
 20
551.8635
 30
0.0
 11
-0.0000000000000042
 21
553.9355
 31
0.0
  0
LINE
  5
4E
330
1E
100
AcDbEntity
  8
0
100
AcDbLine
 10
-0.0000000000000046
 20
547.0404999999999
 30
0.0
 11
-0.0000000000000045
 21
548.3484999999999
 31
0.0
  0
LINE
  5
4F
330
1E
100
AcDbEntity
  8
0
100
AcDbLine
 10
20.0
 20
545.6304999999999
 30
0.0
 11
21.44
 21
535.5454999999999
 31
0.0
  0
LINE
  5
50
330
1E
100
AcDbEntity
  8
0
100
AcDbLine
 10
20.0
 20
545.6304999999999
 30
0.0
 11
20.0
 21
546.6725
 31
0.0
  0
LINE
  5
51
330
1E
100
AcDbEntity
  8
0
100
AcDbLine
 10
25.0
 20
547.3664999999999
 30
0.0
 11
26.26
 21
538.5425
 31
0.0
  0
LINE
  5
52
330
1E
100
AcDbEntity
  8
0
100
AcDbLine
 10
25.0
 20
547.3664999999999
 30
0.0
 11
25.0
 21
548.0615
 31
0.0
  0
LINE
  5
53
330
1E
100
AcDbEntity
  8
0
100
AcDbLine
 10
25.0
 20
548.0615
 30
0.0
 11
26.26
 21
539.2374999999999
 31
0.0
  0
LINE
  5
54
330
1E
100
AcDbEntity
  8
0
100
AcDbLine
 10
25.0
 20
548.0615
 30
0.0
 11
25.0
 21
547.3664999999999
 31
0.0
  0
LINE
  5
55
330
1E
100
AcDbEntity
  8
0
100
AcDbLine
 10
25.0
 20
548.0615
 30
0.0
 11
26.26
 21
556.8855
 31
0.0
  0
LINE
  5
56
330
1E
100
AcDbEntity
  8
0
100
AcDbLine
 10
21.44
 20
556.7565
 30
0.0
 11
25.28
 21
566.2105
 31
0.0
  0
LINE
  5
57
330
1E
100
AcDbEntity
  8
0
100
AcDbLine
 10
20.0
 20
546.6725
 30
0.0
 11
21.44
 21
536.5874999999999
 31
0.0
  0
LINE
  5
58
330
1E
100
AcDbEntity
  8
0
100
AcDbLine
 10
20.0
 20
546.6725
 30
0.0
 11
20.0
 21
545.6304999999999
 31
0.0
  0
LINE
  5
59
330
1E
100
AcDbEntity
  8
0
100
AcDbLine
 10
20.0
 20
546.6725
 30
0.0
 11
21.44
 21
556.7565
 31
0.0
  0
LINE
  5
5A
330
1E
100
AcDbEntity
  8
0
100
AcDbLine
 10
21.44
 20
536.5874999999999
 30
0.0
 11
25.28
 21
527.1335
 31
0.0
  0
LINE
  5
5B
330
1E
100
AcDbEntity
  8
0
100
AcDbLine
 10
26.26
 20
556.8855
 30
0.0
 11
29.62
 21
565.1575
 31
0.0
  0
LINE
  5
5C
330
1E
100
AcDbEntity
  8
0
100
AcDbLine
 10
26.26
 20
538.5425
 30
0.0
 11
29.62
 21
530.2704999999999
 31
0.0
  0
LINE
  5
5D
330
1E
100
AcDbEntity
  8
0
100
AcDbLine
 10
26.26
 20
539.2374999999999
 30
0.0
 11
29.62
 21
530.9655
 31
0.0
  0
LINE
  5
5E
330
1E
100
AcDbEntity
  8
0
100
AcDbLine
 10
25.28
 20
566.2105
 30
0.0
 11
31.68
 21
574.5625
 31
0.0
  0
LINE
  5
5F
330
1E
100
AcDbEntity
  8
0
100
AcDbLine
 10
25.28
 20
527.1335
 30
0.0
 11
31.68
 21
518.7825
 31
0.0
  0
LINE
  5
60
330
1E
100
AcDbEntity
  8
0
100
AcDbLine
 10
26.26
 20
152.6135
 30
0.0
 11
29.62
 21
152.6135
 31
0.0
  0
LINE
  5
61
330
1E
100
AcDbEntity
  8
0
100
AcDbLine
 10
29.62
 20
152.6135
 30
0.0
 11
35.22
 21
152.6135
 31
0.0
  0
LINE
  5
62
330
1E
100
AcDbEntity
  8
0
100
AcDbLine
 10
26.26
 20
150.6135
 30
0.0
 11
29.62
 21
150.6135
 31
0.0
  0
LINE
  5
63
330
1E
100
AcDbEntity
  8
0
100
AcDbLine
 10
60.0
 20
-0.0644999999999844
 30
0.0
 11
66.4
 21
0.572500000000016
 31
0.0
  0
LINE
  5
64
330
1E
100
AcDbEntity
  8
0
100
AcDbLine
 10
66.4
 20
0.572500000000016
 30
0.0
 11
72.40000000000001
 21
2.269500000000019
 31
0.0
  0
LINE
  5
65
330
1E
100
AcDbEntity
  8
0
100
AcDbLine
 10
60.0
 20
-0.0644999999999844
 30
0.0
 11
66.4
 21
0.572500000000016
 31
0.0
  0
LINE
  5
66
330
1E
100
AcDbEntity
  8
0
100
AcDbLine
 10
33.648
 20
37.6135
 30
0.0
 11
34.61999999999999
 21
37.6135
 31
0.0
  0
LINE
  5
67
330
1E
100
AcDbEntity
  8
0
100
AcDbLine
 10
33.0
 20
38.57549999999999
 30
0.0
 11
33.0
 21
61.652
 31
0.0
  0
LINE
  5
68
330
1E
100
AcDbEntity
  8
0
100
AcDbLine
 10
33.0
 20
38.57549999999999
 30
0.0
 11
33.648
 21
37.6135
 31
0.0
  0
LINE
  5
6A
330
1E
100
AcDbEntity
  8
0
100
AcDbLine
 10
34.61999999999999
 20
37.6135
 30
0.0
 11
35.0
 21
37.6135
 31
0.0
  0
LINE
  5
6B
330
1E
100
AcDbEntity
  8
0
100
AcDbLine
 10
35.89999999999999
 20
22.1385
 30
0.0
 11
38.3
 21
26.38149999999999
 31
0.0
  0
LINE
  5
6C
330
1E
100
AcDbEntity
  8
0
100
AcDbLine
 10
38.3
 20
26.38149999999999
 30
0.0
 11
42.29999999999999
 21
30.1295
 31
0.0
  0
LINE
  5
6D
330
1E
100
AcDbEntity
  8
0
100
AcDbLine
 10
35.0
 20
17.6135
 30
0.0
 11
35.89999999999999
 21
13.0885
 31
0.0
  0
LINE
  5
6E
330
1E
100
AcDbEntity
  8
0
100
AcDbLine
 10
35.0
 20
17.6135
 30
0.0
 11
35.0
 21
52.26169999999999
 31
0.0
  0
LINE
  5
6F
330
1E
100
AcDbEntity
  8
0
100
AcDbLine
 10
35.0
 20
17.6135
 30
0.0
 11
35.89999999999999
 21
22.1385
 31
0.0
  0
LINE
  5
70
330
1E
100
AcDbEntity
  8
0
100
AcDbLine
 10
35.89999999999999
 20
13.0885
 30
0.0
 11
38.3
 21
8.84550000000001
 31
0.0
  0
LINE
  5
71
330
1E
100
AcDbEntity
  8
0
100
AcDbLine
 10
39.3429
 20
21.49249999999999
 30
0.0
 11
41.39999999999999
 21
25.1295
 31
0.0
  0
LINE
  5
72
330
1E
100
AcDbEntity
  8
0
100
AcDbLine
 10
41.39999999999999
 20
25.1295
 30
0.0
 11
44.8286
 21
28.3415
 31
0.0
  0
LINE
  5
73
330
1E
100
AcDbEntity
  8
0
100
AcDbLine
 10
38.57139999999999
 20
17.6135
 30
0.0
 11
39.3429
 21
13.7345
 31
0.0
  0
LINE
  5
74
330
1E
100
AcDbEntity
  8
0
100
AcDbLine
 10
38.57139999999999
 20
17.6135
 30
0.0
 11
39.3429
 21
21.49249999999999
 31
0.0
  0
LINE
  5
75
330
1E
100
AcDbEntity
  8
0
100
AcDbLine
 10
39.3429
 20
13.7345
 30
0.0
 11
41.39999999999999
 21
10.0975
 31
0.0
  0
LINE
  5
76
330
1E
100
AcDbEntity
  8
0
100
AcDbLine
 10
44.8286
 20
28.3415
 30
0.0
 11
49.3714
 21
30.7655
 31
0.0
  0
LINE
  5
77
330
1E
100
AcDbEntity
  8
0
100
AcDbLine
 10
42.29999999999999
 20
30.1295
 30
0.0
 11
47.6
 21
32.9575
 31
0.0
  0
LINE
  5
78
330
1E
100
AcDbEntity
  8
0
100
AcDbLine
 10
47.6
 20
32.9575
 30
0.0
 11
53.6
 21
34.6545
 31
0.0
  0
LINE
  5
79
330
1E
100
AcDbEntity
  8
0
100
AcDbLine
 10
41.39999999999999
 20
10.0975
 30
0.0
 11
44.8286
 21
6.8855
 31
0.0
  0
LINE
  5
7A
330
1E
100
AcDbEntity
  8
0
100
AcDbLine
 10
44.8286
 20
6.8855
 30
0.0
 11
49.3714
 21
4.4615
 31
0.0
  0
LINE
  5
7B
330
1E
100
AcDbEntity
  8
0
100
AcDbLine
 10
38.3
 20
8.84550000000001
 30
0.0
 11
42.29999999999999
 21
5.097500000000019
 31
0.0
  0
LINE
  5
7C
330
1E
100
AcDbEntity
  8
0
100
AcDbLine
 10
42.29999999999999
 20
5.097500000000019
 30
0.0
 11
47.6
 21
2.269500000000019
 31
0.0
  0
LINE
  5
7D
330
1E
100
AcDbEntity
  8
0
100
AcDbLine
 10
72.40000000000001
 20
2.269500000000019
 30
0.0
 11
77.7
 21
5.097500000000019
 31
0.0
  0
LINE
  5
7E
330
1E
100
AcDbEntity
  8
0
100
AcDbLine
 10
65.48569999999999
 20
3.006500000000009
 30
0.0
 11
70.6285999999999
 21
4.4615
 31
0.0
  0
LINE
  5
7F
330
1E
100
AcDbEntity
  8
0
100
AcDbLine
 10
60.0
 20
2.4615
 30
0.0
 11
65.48569999999999
 21
3.006500000000009
 31
0.0
  0
LINE
  5
80
330
1E
100
AcDbEntity
  8
0
100
AcDbLine
 10
49.3714
 20
30.7655
 30
0.0
 11
54.5143
 21
32.2205
 31
0.0
  0
LINE
  5
81
330
1E
100
AcDbEntity
  8
0
100
AcDbLine
 10
70.6285999999999
 20
4.4615
 30
0.0
 11
75.1713999999999
 21
6.8855
 31
0.0
  0
LINE
  5
82
330
1E
100
AcDbEntity
  8
0
100
AcDbLine
 10
70.6285999999999
 20
30.7655
 30
0.0
 11
75.1713999999999
 21
28.3415
 31
0.0
  0
LINE
  5
83
330
1E
100
AcDbEntity
  8
0
100
AcDbLine
 10
65.48569999999999
 20
32.2205
 30
0.0
 11
70.6285999999999
 21
30.7655
 31
0.0
  0
LINE
  5
84
330
1E
100
AcDbEntity
  8
0
100
AcDbLine
 10
60.0
 20
32.7655
 30
0.0
 11
65.48569999999999
 21
32.2205
 31
0.0
  0
LINE
  5
85
330
1E
100
AcDbEntity
  8
0
100
AcDbLine
 10
77.7
 20
5.097500000000019
 30
0.0
 11
81.69999999999999
 21
8.84550000000001
 31
0.0
  0
LINE
  5
86
330
1E
100
AcDbEntity
  8
0
100
AcDbLine
 10
78.59999999999999
 20
10.0975
 30
0.0
 11
80.65710000000001
 21
13.7345
 31
0.0
  0
LINE
  5
87
330
1E
100
AcDbEntity
  8
0
100
AcDbLine
 10
75.1713999999999
 20
6.8855
 30
0.0
 11
78.59999999999999
 21
10.0975
 31
0.0
  0
LINE
  5
88
330
1E
100
AcDbEntity
  8
0
100
AcDbLine
 10
80.65710000000001
 20
13.7345
 30
0.0
 11
81.4286
 21
17.6135
 31
0.0
  0
LINE
  5
89
330
1E
100
AcDbEntity
  8
0
100
AcDbLine
 10
81.69999999999999
 20
8.84550000000001
 30
0.0
 11
84.1
 21
13.0885
 31
0.0
  0
LINE
  5
8A
330
1E
100
AcDbEntity
  8
0
100
AcDbLine
 10
80.65710000000001
 20
21.49249999999999
 30
0.0
 11
81.4286
 21
17.6135
 31
0.0
  0
LINE
  5
8B
330
1E
100
AcDbEntity
  8
0
100
AcDbLine
 10
78.59999999999999
 20
25.1295
 30
0.0
 11
80.65710000000001
 21
21.49249999999999
 31
0.0
  0
LINE
  5
8C
330
1E
100
AcDbEntity
  8
0
100
AcDbLine
 10
75.1713999999999
 20
28.3415
 30
0.0
 11
78.59999999999999
 21
25.1295
 31
0.0
  0
LINE
  5
8D
330
1E
100
AcDbEntity
  8
0
100
AcDbLine
 10
84.1
 20
13.0885
 30
0.0
 11
85.0
 21
17.6135
 31
0.0
  0
LINE
  5
8E
330
1E
100
AcDbEntity
  8
0
100
AcDbLine
 10
84.1
 20
22.1385
 30
0.0
 11
85.0
 21
17.6135
 31
0.0
  0
LINE
  5
8F
330
1E
100
AcDbEntity
  8
0
100
AcDbLine
 10
85.0
 20
17.6135
 30
0.0
 11
85.0
 21
52.26169999999999
 31
0.0
  0
LINE
  5
90
330
1E
100
AcDbEntity
  8
0
100
AcDbLine
 10
81.69999999999999
 20
26.38149999999999
 30
0.0
 11
84.1
 21
22.1385
 31
0.0
  0
LINE
  5
91
330
1E
100
AcDbEntity
  8
0
100
AcDbLine
 10
77.7
 20
30.1295
 30
0.0
 11
81.69999999999999
 21
26.38149999999999
 31
0.0
  0
LINE
  5
92
330
1E
100
AcDbEntity
  8
0
100
AcDbLine
 10
72.40000000000001
 20
32.9575
 30
0.0
 11
77.7
 21
30.1295
 31
0.0
  0
LINE
  5
93
330
1E
100
AcDbEntity
  8
0
100
AcDbLine
 10
66.4
 20
34.6545
 30
0.0
 11
72.40000000000001
 21
32.9575
 31
0.0
  0
LINE
  5
94
330
1E
100
AcDbEntity
  8
0
100
AcDbLine
 10
54.5143
 20
32.2205
 30
0.0
 11
60.0
 21
32.7655
 31
0.0
  0
LINE
  5
96
330
1E
100
AcDbEntity
  8
0
100
AcDbLine
 10
85.0
 20
37.6135
 30
0.0
 11
85.38
 21
37.6135
 31
0.0
  0
LINE
  5
97
330
1E
100
AcDbEntity
  8
0
100
AcDbLine
 10
60.0
 20
35.2915
 30
0.0
 11
66.4
 21
34.6545
 31
0.0
  0
LINE
  5
98
330
1E
100
AcDbEntity
  8
0
100
AcDbLine
 10
53.6
 20
34.6545
 30
0.0
 11
60.0
 21
35.2915
 31
0.0
  0
LINE
  5
99
330
1E
100
AcDbEntity
  8
0
100
AcDbLine
 10
49.3714
 20
4.4615
 30
0.0
 11
54.5143
 21
3.006500000000009
 31
0.0
  0
LINE
  5
9A
330
1E
100
AcDbEntity
  8
0
100
AcDbLine
 10
54.5143
 20
3.006500000000009
 30
0.0
 11
60.0
 21
2.4615
 31
0.0
  0
LINE
  5
9B
330
1E
100
AcDbEntity
  8
0
100
AcDbLine
 10
47.6
 20
2.269500000000019
 30
0.0
 11
53.6
 21
0.572500000000016
 31
0.0
  0
LINE
  5
9C
330
1E
100
AcDbEntity
  8
0
100
AcDbLine
 10
53.6
 20
0.572500000000016
 30
0.0
 11
60.0
 21
-0.0644999999999844
 31
0.0
  0
LINE
  5
9D
330
1E
100
AcDbEntity
  8
0
100
AcDbLine
 10
53.6
 20
0.572500000000016
 30
0.0
 11
60.0
 21
-0.0644999999999844
 31
0.0
  0
LINE
  5
9E
330
1E
100
AcDbEntity
  8
0
100
AcDbLine
 10
85.38
 20
37.6135
 30
0.0
 11
86.3519999999999
 21
37.6135
 31
0.0
  0
LINE
  5
9F
330
1E
100
AcDbEntity
  8
0
100
AcDbLine
 10
85.06399999999999
 20
47.55519999999999
 30
0.0
 11
86.0
 21
52.26169999999999
 31
0.0
  0
LINE
  5
A0
330
1E
100
AcDbEntity
  8
0
100
AcDbLine
 10
85.0
 20
47.4420641025641
 30
0.0
 11
85.06399999999999
 21
47.55519999999999
 31
0.0
  0
LINE
  5
A1
330
1E
100
AcDbEntity
  8
0
100
AcDbLine
 10
30.0
 20
129.6134999999999
 30
0.0
 11
31.08
 21
129.6134999999999
 31
0.0
  0
LINE
  5
A2
330
1E
100
AcDbEntity
  8
0
100
AcDbLine
 10
30.0
 20
129.6134999999999
 30
0.0
 11
30.0
 21
136.6134999999999
 31
0.0
  0
LINE
  5
A3
330
1E
100
AcDbEntity
  8
0
100
AcDbLine
 10
33.09599999999999
 20
140.6134999999999
 30
0.0
 11
41.152
 21
140.6134999999999
 31
0.0
  0
LINE
  5
A4
330
1E
100
AcDbEntity
  8
0
100
AcDbLine
 10
33.09599999999999
 20
136.6134999999999
 30
0.0
 11
41.152
 21
136.6134999999999
 31
0.0
  0
LINE
  5
A5
330
1E
100
AcDbEntity
  8
0
100
AcDbLine
 10
30.0
 20
136.6134999999999
 30
0.0
 11
30.0
 21
129.6134999999999
 31
0.0
  0
LINE
  5
A6
330
1E
100
AcDbEntity
  8
0
100
AcDbLine
 10
31.08
 20
129.6134999999999
 30
0.0
 11
33.96
 21
129.6134999999999
 31
0.0
  0
LINE
  5
A7
330
1E
100
AcDbEntity
  8
0
100
AcDbLine
 10
33.96
 20
129.6134999999999
 30
0.0
 11
38.75999999999999
 21
129.6134999999999
 31
0.0
  0
LINE
  5
A8
330
1E
100
AcDbEntity
  8
0
100
AcDbLine
 10
33.96
 20
129.6134999999999
 30
0.0
 11
35.0
 21
129.6134999999999
 31
0.0
  0
LINE
  5
A9
330
1E
100
AcDbEntity
  8
0
100
AcDbLine
 10
33.648
 20
62.6135
 30
0.0
 11
34.61999999999999
 21
62.6135
 31
0.0
  0
LINE
  5
AA
330
1E
100
AcDbEntity
  8
0
100
AcDbLine
 10
33.0
 20
61.652
 30
0.0
 11
33.648
 21
62.6135
 31
0.0
  0
LINE
  5
AC
330
1E
100
AcDbEntity
  8
0
100
AcDbLine
 10
34.0
 20
52.9688
 30
0.0
 11
34.0
 21
52.26169999999999
 31
0.0
  0
LINE
  5
AD
330
1E
100
AcDbEntity
  8
0
100
AcDbLine
 10
34.0
 20
52.9688
 30
0.0
 11
34.936
 21
57.6753
 31
0.0
  0
LINE
  5
AE
330
1E
100
AcDbEntity
  8
0
100
AcDbLine
 10
35.0
 20
52.26169999999999
 30
0.0
 11
35.89999999999999
 21
56.7872
 31
0.0
  0
LINE
  5
AF
330
1E
100
AcDbEntity
  8
0
100
AcDbLine
 10
35.0
 20
52.26169999999999
 30
0.0
 11
35.0
 21
17.6135
 31
0.0
  0
LINE
  5
B0
330
1E
100
AcDbEntity
  8
0
100
AcDbLine
 10
35.89999999999999
 20
56.7872
 30
0.0
 11
38.3
 21
61.0299
 31
0.0
  0
LINE
  5
B1
330
1E
100
AcDbEntity
  8
0
100
AcDbLine
 10
34.61999999999999
 20
62.6135
 30
0.0
 11
37.21199999999999
 21
62.6135
 31
0.0
  0
LINE
  5
B2
330
1E
100
AcDbEntity
  8
0
100
AcDbLine
 10
37.21199999999999
 20
62.6135
 30
0.0
 11
37.9931986863711
 21
62.6135
 31
0.0
  0
LINE
  5
B4
330
1E
100
AcDbEntity
  8
0
100
AcDbLine
 10
34.936
 20
57.6753
 30
0.0
 11
37.43199999999999
 21
62.0877
 31
0.0
  0
LINE
  5
B5
330
1E
100
AcDbEntity
  8
0
100
AcDbLine
 10
37.43199999999999
 20
62.0877
 30
0.0
 11
41.592
 21
65.9853
 31
0.0
  0
LINE
  5
B6
330
1E
100
AcDbEntity
  8
0
100
AcDbLine
 10
34.936
 20
56.9682
 30
0.0
 11
37.43199999999999
 21
61.3806
 31
0.0
  0
LINE
  5
B7
330
1E
100
AcDbEntity
  8
0
100
AcDbLine
 10
40.0
 20
64.49371846153849
 30
0.0
 11
40.0
 21
68.6135
 31
0.0
  0
LINE
  5
B8
330
1E
100
AcDbEntity
  8
0
100
AcDbLine
 10
40.0
 20
64.49371846153849
 30
0.0
 11
40.0
 21
102.5338
 31
0.0
  0
LINE
  5
B9
330
1E
100
AcDbEntity
  8
0
100
AcDbLine
 10
40.0
 20
64.49371846153849
 30
0.0
 11
40.0
 21
70.6135
 31
0.0
  0
LINE
  5
BA
330
1E
100
AcDbEntity
  8
0
100
AcDbLine
 10
40.0
 20
64.49371846153849
 30
0.0
 11
40.0
 21
68.6135
 31
0.0
  0
LINE
  5
BB
330
1E
100
AcDbEntity
  8
0
100
AcDbLine
 10
38.3
 20
61.0299
 30
0.0
 11
42.29999999999999
 21
64.7775
 31
0.0
  0
LINE
  5
BC
330
1E
100
AcDbEntity
  8
0
100
AcDbLine
 10
42.29999999999999
 20
64.7775
 30
0.0
 11
47.6
 21
67.6059
 31
0.0
  0
LINE
  5
BD
330
1E
100
AcDbEntity
  8
0
100
AcDbLine
 10
37.43199999999999
 20
61.3806
 30
0.0
 11
41.592
 21
65.2782
 31
0.0
  0
LINE
  5
BE
330
1E
100
AcDbEntity
  8
0
100
AcDbLine
 10
34.5
 20
68.6135
 30
0.0
 11
34.5
 21
82.6135
 31
0.0
  0
LINE
  5
BF
330
1E
100
AcDbEntity
  8
0
100
AcDbLine
 10
34.5
 20
68.6135
 30
0.0
 11
37.5
 21
68.6135
 31
0.0
  0
LINE
  5
C0
330
1E
100
AcDbEntity
  8
0
100
AcDbLine
 10
37.828
 20
68.6135
 30
0.0
 11
40.0
 21
68.6135
 31
0.0
  0
LINE
  5
C1
330
1E
100
AcDbEntity
  8
0
100
AcDbLine
 10
37.0
 20
68.6135
 30
0.0
 11
37.828
 21
68.6135
 31
0.0
  0
LINE
  5
C2
330
1E
100
AcDbEntity
  8
0
100
AcDbLine
 10
41.592
 20
65.9853
 30
0.0
 11
47.10399999999999
 21
68.9268
 31
0.0
  0
LINE
  5
C3
330
1E
100
AcDbEntity
  8
0
100
AcDbLine
 10
47.10399999999999
 20
68.9268
 30
0.0
 11
53.34399999999999
 21
70.6918
 31
0.0
  0
LINE
  5
C4
330
1E
100
AcDbEntity
  8
0
100
AcDbLine
 10
41.592
 20
65.2782
 30
0.0
 11
47.10399999999999
 21
68.2197
 31
0.0
  0
LINE
  5
C5
330
1E
100
AcDbEntity
  8
0
100
AcDbLine
 10
72.40000000000001
 20
67.6059
 30
0.0
 11
77.7
 21
64.7775
 31
0.0
  0
LINE
  5
C6
330
1E
100
AcDbEntity
  8
0
100
AcDbLine
 10
47.6
 20
67.6059
 30
0.0
 11
53.6
 21
69.30299999999999
 31
0.0
  0
LINE
  5
C7
330
1E
100
AcDbEntity
  8
0
100
AcDbLine
 10
66.4
 20
69.30299999999999
 30
0.0
 11
72.40000000000001
 21
67.6059
 31
0.0
  0
LINE
  5
C8
330
1E
100
AcDbEntity
  8
0
100
AcDbLine
 10
60.0
 20
69.93940000000001
 30
0.0
 11
66.4
 21
69.30299999999999
 31
0.0
  0
LINE
  5
C9
330
1E
100
AcDbEntity
  8
0
100
AcDbLine
 10
53.6
 20
69.30299999999999
 30
0.0
 11
60.0
 21
69.93940000000001
 31
0.0
  0
LINE
  5
CA
330
1E
100
AcDbEntity
  8
0
100
AcDbLine
 10
72.896
 20
68.9268
 30
0.0
 11
78.408
 21
65.9853
 31
0.0
  0
LINE
  5
CB
330
1E
100
AcDbEntity
  8
0
100
AcDbLine
 10
81.69999999999999
 20
61.0299
 30
0.0
 11
84.1
 21
56.7872
 31
0.0
  0
LINE
  5
CC
330
1E
100
AcDbEntity
  8
0
100
AcDbLine
 10
80.0
 20
64.49371846153849
 30
0.0
 11
80.0
 21
102.5338
 31
0.0
  0
LINE
  5
CD
330
1E
100
AcDbEntity
  8
0
100
AcDbLine
 10
82.0068013136289
 20
62.6135
 30
0.0
 11
82.788
 21
62.6135
 31
0.0
  0
LINE
  5
CE
330
1E
100
AcDbEntity
  8
0
100
AcDbLine
 10
77.7
 20
64.7775
 30
0.0
 11
81.69999999999999
 21
61.0299
 31
0.0
  0
LINE
  5
CF
330
1E
100
AcDbEntity
  8
0
100
AcDbLine
 10
82.568
 20
62.0877
 30
0.0
 11
85.06399999999999
 21
57.6753
 31
0.0
  0
LINE
  5
D0
330
1E
100
AcDbEntity
  8
0
100
AcDbLine
 10
85.0
 20
52.26169999999999
 30
0.0
 11
85.0
 21
17.6135
 31
0.0
  0
LINE
  5
D1
330
1E
100
AcDbEntity
  8
0
100
AcDbLine
 10
84.1
 20
56.7872
 30
0.0
 11
85.0
 21
52.26169999999999
 31
0.0
  0
LINE
  5
D2
330
1E
100
AcDbEntity
  8
0
100
AcDbLine
 10
86.0
 20
52.9688
 30
0.0
 11
86.0
 21
52.26169999999999
 31
0.0
  0
LINE
  5
D3
330
1E
100
AcDbEntity
  8
0
100
AcDbLine
 10
86.0
 20
52.26169999999999
 30
0.0
 11
86.0
 21
52.9688
 31
0.0
  0
LINE
  5
D5
330
1E
100
AcDbEntity
  8
0
100
AcDbLine
 10
82.788
 20
62.6135
 30
0.0
 11
85.38
 21
62.6135
 31
0.0
  0
LINE
  5
D7
330
1E
100
AcDbEntity
  8
0
100
AcDbLine
 10
86.35200000000001
 20
62.6135
 30
0.0
 11
87.0
 21
61.652
 31
0.0
  0
LINE
  5
D8
330
1E
100
AcDbEntity
  8
0
100
AcDbLine
 10
85.38
 20
62.6135
 30
0.0
 11
86.35200000000001
 21
62.6135
 31
0.0
  0
LINE
  5
D9
330
1E
100
AcDbEntity
  8
0
100
AcDbLine
 10
85.06399999999999
 20
57.6753
 30
0.0
 11
86.0
 21
52.9688
 31
0.0
  0
LINE
  5
DA
330
1E
100
AcDbEntity
  8
0
100
AcDbLine
 10
85.06399999999999
 20
56.9682
 30
0.0
 11
86.0
 21
52.26169999999999
 31
0.0
  0
LINE
  5
DB
330
1E
100
AcDbEntity
  8
0
100
AcDbLine
 10
82.568
 20
61.3806
 30
0.0
 11
85.06399999999999
 21
56.9682
 31
0.0
  0
LINE
  5
DC
330
1E
100
AcDbEntity
  8
0
100
AcDbLine
 10
85.5
 20
68.6135
 30
0.0
 11
85.5
 21
70.6135
 31
0.0
  0
LINE
  5
DD
330
1E
100
AcDbEntity
  8
0
100
AcDbLine
 10
82.5
 20
68.6135
 30
0.0
 11
85.5
 21
68.6135
 31
0.0
  0
LINE
  5
DE
330
1E
100
AcDbEntity
  8
0
100
AcDbLine
 10
80.0
 20
68.6135
 30
0.0
 11
82.17200000000001
 21
68.6135
 31
0.0
  0
LINE
  5
DF
330
1E
100
AcDbEntity
  8
0
100
AcDbLine
 10
82.17200000000001
 20
68.6135
 30
0.0
 11
83.0
 21
68.6135
 31
0.0
  0
LINE
  5
E0
330
1E
100
AcDbEntity
  8
0
100
AcDbLine
 10
78.408
 20
65.9853
 30
0.0
 11
82.568
 21
62.0877
 31
0.0
  0
LINE
  5
E1
330
1E
100
AcDbEntity
  8
0
100
AcDbLine
 10
78.408
 20
65.2782
 30
0.0
 11
82.568
 21
61.3806
 31
0.0
  0
LINE
  5
E2
330
1E
100
AcDbEntity
  8
0
100
AcDbLine
 10
72.896
 20
68.2197
 30
0.0
 11
78.408
 21
65.2782
 31
0.0
  0
LINE
  5
E3
330
1E
100
AcDbEntity
  8
0
100
AcDbLine
 10
66.65600000000001
 20
69.98470000000001
 30
0.0
 11
72.896
 21
68.2197
 31
0.0
  0
LINE
  5
E4
330
1E
100
AcDbEntity
  8
0
100
AcDbLine
 10
47.10399999999999
 20
68.2197
 30
0.0
 11
53.34399999999999
 21
69.98470000000001
 31
0.0
  0
LINE
  5
E5
330
1E
100
AcDbEntity
  8
0
100
AcDbLine
 10
34.0
 20
86.6135
 30
0.0
 11
34.936
 21
86.6135
 31
0.0
  0
LINE
  5
E6
330
1E
100
AcDbEntity
  8
0
100
AcDbLine
 10
34.0
 20
86.6135
 30
0.0
 11
34.0
 21
84.61350000000001
 31
0.0
  0
LINE
  5
E7
330
1E
100
AcDbEntity
  8
0
100
AcDbLine
 10
34.0
 20
84.61350000000001
 30
0.0
 11
34.5
 21
84.61350000000001
 31
0.0
  0
LINE
  5
E8
330
1E
100
AcDbEntity
  8
0
100
AcDbLine
 10
34.0
 20
84.61350000000001
 30
0.0
 11
34.0
 21
82.6135
 31
0.0
  0
LINE
  5
E9
330
1E
100
AcDbEntity
  8
0
100
AcDbLine
 10
34.0
 20
84.61350000000001
 30
0.0
 11
34.0
 21
86.6135
 31
0.0
  0
LINE
  5
EA
330
1E
100
AcDbEntity
  8
0
100
AcDbLine
 10
34.0
 20
84.61350000000001
 30
0.0
 11
34.936
 21
84.61350000000001
 31
0.0
  0
LINE
  5
EB
330
1E
100
AcDbEntity
  8
0
100
AcDbLine
 10
34.5
 20
70.6135
 30
0.0
 11
34.5
 21
84.61350000000001
 31
0.0
  0
LINE
  5
EC
330
1E
100
AcDbEntity
  8
0
100
AcDbLine
 10
34.5
 20
70.6135
 30
0.0
 11
37.5
 21
70.6135
 31
0.0
  0
LINE
  5
ED
330
1E
100
AcDbEntity
  8
0
100
AcDbLine
 10
37.0
 20
70.6135
 30
0.0
 11
37.828
 21
70.6135
 31
0.0
  0
LINE
  5
EE
330
1E
100
AcDbEntity
  8
0
100
AcDbLine
 10
34.5
 20
84.61350000000001
 30
0.0
 11
37.0
 21
84.61350000000001
 31
0.0
  0
LINE
  5
EF
330
1E
100
AcDbEntity
  8
0
100
AcDbLine
 10
34.5
 20
84.61350000000001
 30
0.0
 11
34.5
 21
70.6135
 31
0.0
  0
LINE
  5
F0
330
1E
100
AcDbEntity
  8
0
100
AcDbLine
 10
34.936
 20
84.61350000000001
 30
0.0
 11
37.43199999999999
 21
84.61350000000001
 31
0.0
  0
LINE
  5
F1
330
1E
100
AcDbEntity
  8
0
100
AcDbLine
 10
35.0
 20
86.6135
 30
0.0
 11
35.0
 21
104.7975
 31
0.0
  0
LINE
  5
F2
330
1E
100
AcDbEntity
  8
0
100
AcDbLine
 10
37.0
 20
84.61350000000001
 30
0.0
 11
37.828
 21
84.61350000000001
 31
0.0
  0
LINE
  5
F3
330
1E
100
AcDbEntity
  8
0
100
AcDbLine
 10
37.43199999999999
 20
84.61350000000001
 30
0.0
 11
40.0
 21
84.61350000000001
 31
0.0
  0
LINE
  5
F4
330
1E
100
AcDbEntity
  8
0
100
AcDbLine
 10
35.0
 20
104.7975
 30
0.0
 11
35.0
 21
86.6135
 31
0.0
  0
LINE
  5
F5
330
1E
100
AcDbEntity
  8
0
100
AcDbLine
 10
37.43199999999999
 20
86.6135
 30
0.0
 11
40.0
 21
86.6135
 31
0.0
  0
LINE
  5
F6
330
1E
100
AcDbEntity
  8
0
100
AcDbLine
 10
34.936
 20
86.6135
 30
0.0
 11
37.43199999999999
 21
86.6135
 31
0.0
  0
LINE
  5
F7
330
1E
100
AcDbEntity
  8
0
100
AcDbLine
 10
34.5
 20
82.6135
 30
0.0
 11
34.5
 21
68.6135
 31
0.0
  0
LINE
  5
F8
330
1E
100
AcDbEntity
  8
0
100
AcDbLine
 10
34.0
 20
82.6135
 30
0.0
 11
34.0
 21
84.61350000000001
 31
0.0
  0
LINE
  5
F9
330
1E
100
AcDbEntity
  8
0
100
AcDbLine
 10
34.0
 20
82.6135
 30
0.0
 11
34.5
 21
82.6135
 31
0.0
  0
LINE
  5
FA
330
1E
100
AcDbEntity
  8
0
100
AcDbLine
 10
34.5
 20
110.6135
 30
0.0
 11
37.5
 21
110.6135
 31
0.0
  0
LINE
  5
FB
330
1E
100
AcDbEntity
  8
0
100
AcDbLine
 10
34.5
 20
110.6135
 30
0.0
 11
37.140625
 21
110.6135
 31
0.0
  0
LINE
  5
FC
330
1E
100
AcDbEntity
  8
0
100
AcDbLine
 10
34.5
 20
110.6135
 30
0.0
 11
34.5
 21
112.6135
 31
0.0
  0
LINE
  5
FD
330
1E
100
AcDbEntity
  8
0
100
AcDbLine
 10
37.140625
 20
110.6135
 30
0.0
 11
37.828
 21
105.7255
 31
0.0
  0
LINE
  5
FE
330
1E
100
AcDbEntity
  8
0
100
AcDbLine
 10
37.140625
 20
112.6135
 30
0.0
 11
37.828
 21
117.5014999999999
 31
0.0
  0
LINE
  5
FF
330
1E
100
AcDbEntity
  8
0
100
AcDbLine
 10
37.140625
 20
110.6135
 30
0.0
 11
37.828
 21
105.7255
 31
0.0
  0
LINE
  5
100
330
1E
100
AcDbEntity
  8
0
100
AcDbLine
 10
34.936
 20
104.9574999999999
 30
0.0
 11
37.43199999999999
 21
98.7175
 31
0.0
  0
LINE
  5
101
330
1E
100
AcDbEntity
  8
0
100
AcDbLine
 10
37.828
 20
70.6135
 30
0.0
 11
40.0
 21
70.6135
 31
0.0
  0
LINE
  5
102
330
1E
100
AcDbEntity
  8
0
100
AcDbLine
 10
40.0
 20
95.31489999999999
 30
0.0
 11
40.0
 21
88.6369
 31
0.0
  0
LINE
  5
103
330
1E
100
AcDbEntity
  8
0
100
AcDbLine
 10
40.0
 20
88.6369
 30
0.0
 11
40.0
 21
86.6135
 31
0.0
  0
LINE
  5
104
330
1E
100
AcDbEntity
  8
0
100
AcDbLine
 10
40.0
 20
88.6369
 30
0.0
 11
40.0
 21
95.31489999999999
 31
0.0
  0
LINE
  5
105
330
1E
100
AcDbEntity
  8
0
100
AcDbLine
 10
40.0
 20
86.6135
 30
0.0
 11
40.0
 21
88.6369
 31
0.0
  0
LINE
  5
106
330
1E
100
AcDbEntity
  8
0
100
AcDbLine
 10
40.0
 20
70.6135
 30
0.0
 11
40.0
 21
64.49371846153849
 31
0.0
  0
LINE
  5
107
330
1E
100
AcDbEntity
  8
0
100
AcDbLine
 10
40.0
 20
102.5338
 30
0.0
 11
40.0
 21
107.4602999999999
 31
0.0
  0
LINE
  5
108
330
1E
100
AcDbEntity
  8
0
100
AcDbLine
 10
40.0
 20
102.5338
 30
0.0
 11
40.0
 21
64.49371846153849
 31
0.0
  0
LINE
  5
109
330
1E
100
AcDbEntity
  8
0
100
AcDbLine
 10
37.828
 20
84.61350000000001
 30
0.0
 11
40.0
 21
84.61350000000001
 31
0.0
  0
LINE
  5
10A
330
1E
100
AcDbEntity
  8
0
100
AcDbLine
 10
40.0
 20
107.4602999999999
 30
0.0
 11
40.0
 21
110.5571999999999
 31
0.0
  0
LINE
  5
10B
330
1E
100
AcDbEntity
  8
0
100
AcDbLine
 10
40.0
 20
107.4602999999999
 30
0.0
 11
40.0
 21
102.5338
 31
0.0
  0
LINE
  5
10C
330
1E
100
AcDbEntity
  8
0
100
AcDbLine
 10
40.0
 20
111.6135
 30
0.0
 11
40.0
 21
110.5571999999999
 31
0.0
  0
LINE
  5
10D
330
1E
100
AcDbEntity
  8
0
100
AcDbLine
 10
40.0
 20
111.6135
 30
0.0
 11
40.72
 21
116.7335
 31
0.0
  0
LINE
  5
10E
330
1E
100
AcDbEntity
  8
0
100
AcDbLine
 10
40.0
 20
110.5571999999999
 30
0.0
 11
40.0
 21
107.4602999999999
 31
0.0
  0
LINE
  5
10F
330
1E
100
AcDbEntity
  8
0
100
AcDbLine
 10
40.0
 20
110.5571999999999
 30
0.0
 11
40.0
 21
111.6135
 31
0.0
  0
LINE
  5
110
330
1E
100
AcDbEntity
  8
0
100
AcDbLine
 10
37.5
 20
110.6135
 30
0.0
 11
37.5
 21
112.6135
 31
0.0
  0
LINE
  5
111
330
1E
100
AcDbEntity
  8
0
100
AcDbLine
 10
37.828
 20
105.7255
 30
0.0
 11
40.0
 21
100.2955
 31
0.0
  0
LINE
  5
112
330
1E
100
AcDbEntity
  8
0
100
AcDbLine
 10
37.43199999999999
 20
98.7175
 30
0.0
 11
40.0
 21
95.31489999999999
 31
0.0
  0
LINE
  5
113
330
1E
100
AcDbEntity
  8
0
100
AcDbLine
 10
34.5
 20
112.6135
 30
0.0
 11
34.5
 21
110.6135
 31
0.0
  0
LINE
  5
114
330
1E
100
AcDbEntity
  8
0
100
AcDbLine
 10
34.5
 20
112.6135
 30
0.0
 11
37.5
 21
112.6135
 31
0.0
  0
LINE
  5
115
330
1E
100
AcDbEntity
  8
0
100
AcDbLine
 10
37.140625
 20
112.6135
 30
0.0
 11
37.828
 21
117.5014999999999
 31
0.0
  0
LINE
  5
116
330
1E
100
AcDbEntity
  8
0
100
AcDbLine
 10
35.0
 20
118.4295
 30
0.0
 11
35.0
 21
129.6134999999999
 31
0.0
  0
LINE
  5
117
330
1E
100
AcDbEntity
  8
0
100
AcDbLine
 10
35.0
 20
129.6134999999999
 30
0.0
 11
35.89999999999999
 21
129.6134999999999
 31
0.0
  0
LINE
  5
118
330
1E
100
AcDbEntity
  8
0
100
AcDbLine
 10
35.0
 20
129.6134999999999
 30
0.0
 11
35.0
 21
118.4295
 31
0.0
  0
LINE
  5
119
330
1E
100
AcDbEntity
  8
0
100
AcDbLine
 10
35.89999999999999
 20
129.6134999999999
 30
0.0
 11
38.3
 21
129.6134999999999
 31
0.0
  0
LINE
  5
11A
330
1E
100
AcDbEntity
  8
0
100
AcDbLine
 10
34.936
 20
118.2695
 30
0.0
 11
37.43199999999999
 21
124.5095
 31
0.0
  0
LINE
  5
11B
330
1E
100
AcDbEntity
  8
0
100
AcDbLine
 10
40.72
 20
116.7335
 30
0.0
 11
42.64
 21
121.5335
 31
0.0
  0
LINE
  5
11C
330
1E
100
AcDbEntity
  8
0
100
AcDbLine
 10
37.5
 20
112.6135
 30
0.0
 11
37.5
 21
110.6135
 31
0.0
  0
LINE
  5
11D
330
1E
100
AcDbEntity
  8
0
100
AcDbLine
 10
38.75999999999999
 20
129.6134999999999
 30
0.0
 11
41.2840754716981
 21
129.6134999999999
 31
0.0
  0
LINE
  5
11E
330
1E
100
AcDbEntity
  8
0
100
AcDbLine
 10
38.3
 20
129.6134999999999
 30
0.0
 11
41.2840754716981
 21
129.6134999999999
 31
0.0
  0
LINE
  5
11F
330
1E
100
AcDbEntity
  8
0
100
AcDbLine
 10
40.036
 20
123.0215
 30
0.0
 11
43.71599999999999
 21
127.8974999999999
 31
0.0
  0
LINE
  5
120
330
1E
100
AcDbEntity
  8
0
100
AcDbLine
 10
37.828
 20
117.5014999999999
 30
0.0
 11
40.036
 21
123.0215
 31
0.0
  0
LINE
  5
121
330
1E
100
AcDbEntity
  8
0
100
AcDbLine
 10
45.84
 20
125.7735
 30
0.0
 11
50.08
 21
128.9735
 31
0.0
  0
LINE
  5
122
330
1E
100
AcDbEntity
  8
0
100
AcDbLine
 10
42.64
 20
121.5335
 30
0.0
 11
45.84
 21
125.7735
 31
0.0
  0
LINE
  5
123
330
1E
100
AcDbEntity
  8
0
100
AcDbLine
 10
47.88399999999999
 20
130.5990999999999
 30
0.0
 11
49.616
 21
131.5990999999999
 31
0.0
  0
LINE
  5
124
330
1E
100
AcDbEntity
  8
0
100
AcDbLine
 10
46.38399999999999
 20
133.1971
 30
0.0
 11
48.11600000000001
 21
134.1971
 31
0.0
  0
LINE
  5
125
330
1E
100
AcDbEntity
  8
0
100
AcDbLine
 10
46.38399999999999
 20
133.1971
 30
0.0
 11
47.88399999999999
 21
130.5990999999999
 31
0.0
  0
LINE
  5
127
330
1E
100
AcDbEntity
  8
0
100
AcDbLine
 10
49.4340112570356
 20
131.914304502814
 30
0.0
 11
54.112
 21
133.7855
 31
0.0
  0
LINE
  5
128
330
1E
100
AcDbEntity
  8
0
100
AcDbLine
 10
43.71599999999999
 20
127.8974999999999
 30
0.0
 11
47.7054270539318
 21
130.9083883425899
 31
0.0
  0
LINE
  5
12A
330
1E
100
AcDbEntity
  8
0
100
AcDbLine
 10
41.592
 20
130.0215
 30
0.0
 11
47.10399999999999
 21
134.1814999999999
 31
0.0
  0
LINE
  5
12B
330
1E
100
AcDbEntity
  8
0
100
AcDbLine
 10
41.152
 20
140.6134999999999
 30
0.0
 11
50.272
 21
140.6134999999999
 31
0.0
  0
LINE
  5
12C
330
1E
100
AcDbEntity
  8
0
100
AcDbLine
 10
41.152
 20
136.6134999999999
 30
0.0
 11
50.272
 21
136.6134999999999
 31
0.0
  0
LINE
  5
12D
330
1E
100
AcDbEntity
  8
0
100
AcDbLine
 10
50.272
 20
140.6134999999999
 30
0.0
 11
60.0
 21
140.6134999999999
 31
0.0
  0
LINE
  5
12E
330
1E
100
AcDbEntity
  8
0
100
AcDbLine
 10
50.272
 20
136.6134999999999
 30
0.0
 11
53.18399999999989
 21
136.6134999999999
 31
0.0
  0
LINE
  5
12F
330
1E
100
AcDbEntity
  8
0
100
AcDbLine
 10
48.11600000000001
 20
134.1971
 30
0.0
 11
49.616
 21
131.5990999999999
 31
0.0
  0
LINE
  5
130
330
1E
100
AcDbEntity
  8
0
100
AcDbLine
 10
47.10399999999999
 20
134.1814999999999
 30
0.0
 11
53.34399999999999
 21
136.6775
 31
0.0
  0
LINE
  5
131
330
1E
100
AcDbEntity
  8
0
100
AcDbLine
 10
37.43199999999999
 20
124.5095
 30
0.0
 11
41.592
 21
130.0215
 31
0.0
  0
LINE
  5
132
330
1E
100
AcDbEntity
  8
0
100
AcDbLine
 10
34.0
 20
111.6135
 30
0.0
 11
34.936
 21
104.9574999999999
 31
0.0
  0
LINE
  5
133
330
1E
100
AcDbEntity
  8
0
100
AcDbLine
 10
34.0
 20
111.6135
 30
0.0
 11
34.936
 21
118.2695
 31
0.0
  0
LINE
  5
134
330
1E
100
AcDbEntity
  8
0
100
AcDbLine
 10
82.5
 20
70.6135
 30
0.0
 11
85.5
 21
70.6135
 31
0.0
  0
LINE
  5
135
330
1E
100
AcDbEntity
  8
0
100
AcDbLine
 10
80.0
 20
70.6135
 30
0.0
 11
82.17200000000001
 21
70.6135
 31
0.0
  0
LINE
  5
136
330
1E
100
AcDbEntity
  8
0
100
AcDbLine
 10
82.17200000000001
 20
70.6135
 30
0.0
 11
83.0
 21
70.6135
 31
0.0
  0
LINE
  5
137
330
1E
100
AcDbEntity
  8
0
100
AcDbLine
 10
85.5
 20
70.6135
 30
0.0
 11
85.5
 21
68.6135
 31
0.0
  0
LINE
  5
138
330
1E
100
AcDbEntity
  8
0
100
AcDbLine
 10
85.5
 20
70.6135
 30
0.0
 11
85.5
 21
84.61350000000001
 31
0.0
  0
LINE
  5
139
330
1E
100
AcDbEntity
  8
0
100
AcDbLine
 10
54.88
 20
130.8934999999999
 30
0.0
 11
60.0
 21
131.6134999999999
 31
0.0
  0
LINE
  5
13A
330
1E
100
AcDbEntity
  8
0
100
AcDbLine
 10
54.112
 20
133.7855
 30
0.0
 11
60.0
 21
134.6134999999999
 31
0.0
  0
LINE
  5
13B
330
1E
100
AcDbEntity
  8
0
100
AcDbLine
 10
53.34399999999999
 20
136.6775
 30
0.0
 11
60.0
 21
137.6134999999999
 31
0.0
  0
LINE
  5
13C
330
1E
100
AcDbEntity
  8
0
100
AcDbLine
 10
80.0
 20
84.61350000000001
 30
0.0
 11
82.568
 21
84.61350000000001
 31
0.0
  0
LINE
  5
13D
330
1E
100
AcDbEntity
  8
0
100
AcDbLine
 10
80.0
 20
84.61350000000001
 30
0.0
 11
82.17200000000001
 21
84.61350000000001
 31
0.0
  0
LINE
  5
13E
330
1E
100
AcDbEntity
  8
0
100
AcDbLine
 10
80.0
 20
86.6135
 30
0.0
 11
82.568
 21
86.6135
 31
0.0
  0
LINE
  5
13F
330
1E
100
AcDbEntity
  8
0
100
AcDbLine
 10
82.17200000000001
 20
84.61350000000001
 30
0.0
 11
83.0
 21
84.61350000000001
 31
0.0
  0
LINE
  5
140
330
1E
100
AcDbEntity
  8
0
100
AcDbLine
 10
82.568
 20
84.61350000000001
 30
0.0
 11
85.06399999999999
 21
84.61350000000001
 31
0.0
  0
LINE
  5
141
330
1E
100
AcDbEntity
  8
0
100
AcDbLine
 10
83.0
 20
84.61350000000001
 30
0.0
 11
85.5
 21
84.61350000000001
 31
0.0
  0
LINE
  5
142
330
1E
100
AcDbEntity
  8
0
100
AcDbLine
 10
85.0
 20
86.6135
 30
0.0
 11
85.0
 21
104.7975
 31
0.0
  0
LINE
  5
143
330
1E
100
AcDbEntity
  8
0
100
AcDbLine
 10
85.06399999999999
 20
84.61350000000001
 30
0.0
 11
86.0
 21
84.61350000000001
 31
0.0
  0
LINE
  5
144
330
1E
100
AcDbEntity
  8
0
100
AcDbLine
 10
82.568
 20
86.6135
 30
0.0
 11
85.06399999999999
 21
86.6135
 31
0.0
  0
LINE
  5
145
330
1E
100
AcDbEntity
  8
0
100
AcDbLine
 10
85.06399999999999
 20
86.6135
 30
0.0
 11
86.0
 21
86.6135
 31
0.0
  0
LINE
  5
146
330
1E
100
AcDbEntity
  8
0
100
AcDbLine
 10
80.0
 20
95.31489999999999
 30
0.0
 11
82.568
 21
98.7175
 31
0.0
  0
LINE
  5
147
330
1E
100
AcDbEntity
  8
0
100
AcDbLine
 10
60.0
 20
131.6134999999999
 30
0.0
 11
65.12
 21
130.8934999999999
 31
0.0
  0
LINE
  5
148
330
1E
100
AcDbEntity
  8
0
100
AcDbLine
 10
77.36
 20
121.5335
 30
0.0
 11
79.28
 21
116.7335
 31
0.0
  0
LINE
  5
149
330
1E
100
AcDbEntity
  8
0
100
AcDbLine
 10
70.5659887429643
 20
131.914304502814
 30
0.0
 11
71.884
 21
134.1971
 31
0.0
  0
LINE
  5
14A
330
1E
100
AcDbEntity
  8
0
100
AcDbLine
 10
70.384
 20
131.5990999999999
 30
0.0
 11
71.884
 21
134.1971
 31
0.0
  0
LINE
  5
14B
330
1E
100
AcDbEntity
  8
0
100
AcDbLine
 10
70.384
 20
131.5990999999999
 30
0.0
 11
72.116
 21
130.5990999999999
 31
0.0
  0
LINE
  5
14C
330
1E
100
AcDbEntity
  8
0
100
AcDbLine
 10
72.116
 20
130.5990999999999
 30
0.0
 11
73.616
 21
133.1971
 31
0.0
  0
LINE
  5
14D
330
1E
100
AcDbEntity
  8
0
100
AcDbLine
 10
72.29457294606816
 20
130.90838834259
 30
0.0
 11
76.28399999999999
 21
127.8974999999999
 31
0.0
  0
LINE
  5
14E
330
1E
100
AcDbEntity
  8
0
100
AcDbLine
 10
76.28399999999999
 20
127.8974999999999
 30
0.0
 11
79.964
 21
123.0215
 31
0.0
  0
LINE
  5
14F
330
1E
100
AcDbEntity
  8
0
100
AcDbLine
 10
65.888
 20
133.7855
 30
0.0
 11
70.5659887429643
 21
131.914304502814
 31
0.0
  0
LINE
  5
151
330
1E
100
AcDbEntity
  8
0
100
AcDbLine
 10
60.0
 20
134.6134999999999
 30
0.0
 11
65.888
 21
133.7855
 31
0.0
  0
LINE
  5
152
330
1E
100
AcDbEntity
  8
0
100
AcDbLine
 10
60.0
 20
140.6134999999999
 30
0.0
 11
69.72800000000001
 21
140.6134999999999
 31
0.0
  0
LINE
  5
153
330
1E
100
AcDbEntity
  8
0
100
AcDbLine
 10
60.0
 20
137.6134999999999
 30
0.0
 11
66.65600000000001
 21
136.6775
 31
0.0
  0
LINE
  5
154
330
1E
100
AcDbEntity
  8
0
100
AcDbLine
 10
66.816
 20
136.6134999999999
 30
0.0
 11
69.72800000000001
 21
136.6134999999999
 31
0.0
  0
LINE
  5
155
330
1E
100
AcDbEntity
  8
0
100
AcDbLine
 10
69.72800000000001
 20
140.6134999999999
 30
0.0
 11
78.848
 21
140.6134999999999
 31
0.0
  0
LINE
  5
156
330
1E
100
AcDbEntity
  8
0
100
AcDbLine
 10
69.72800000000001
 20
136.6134999999999
 30
0.0
 11
78.848
 21
136.6134999999999
 31
0.0
  0
LINE
  5
157
330
1E
100
AcDbEntity
  8
0
100
AcDbLine
 10
66.816
 20
136.6134999999999
 30
0.0
 11
69.72800000000001
 21
136.6134999999999
 31
0.0
  0
LINE
  5
158
330
1E
100
AcDbEntity
  8
0
100
AcDbLine
 10
71.884
 20
134.1971
 30
0.0
 11
73.616
 21
133.1971
 31
0.0
  0
LINE
  5
159
330
1E
100
AcDbEntity
  8
0
100
AcDbLine
 10
66.65600000000001
 20
136.6775
 30
0.0
 11
72.896
 21
134.1814999999999
 31
0.0
  0
LINE
  5
15A
330
1E
100
AcDbEntity
  8
0
100
AcDbLine
 10
72.896
 20
134.1814999999999
 30
0.0
 11
78.408
 21
130.0215
 31
0.0
  0
LINE
  5
15B
330
1E
100
AcDbEntity
  8
0
100
AcDbLine
 10
80.0
 20
111.6135
 30
0.0
 11
80.0
 21
110.5571999999999
 31
0.0
  0
LINE
  5
15C
330
1E
100
AcDbEntity
  8
0
100
AcDbLine
 10
79.28
 20
116.7335
 30
0.0
 11
80.0
 21
111.6135
 31
0.0
  0
LINE
  5
15D
330
1E
100
AcDbEntity
  8
0
100
AcDbLine
 10
80.0
 20
110.5571999999999
 30
0.0
 11
80.0
 21
107.4602999999999
 31
0.0
  0
LINE
  5
15E
330
1E
100
AcDbEntity
  8
0
100
AcDbLine
 10
80.0
 20
110.5571999999999
 30
0.0
 11
80.0
 21
111.6135
 31
0.0
  0
LINE
  5
15F
330
1E
100
AcDbEntity
  8
0
100
AcDbLine
 10
80.0
 20
107.4602999999999
 30
0.0
 11
80.0
 21
110.5571999999999
 31
0.0
  0
LINE
  5
160
330
1E
100
AcDbEntity
  8
0
100
AcDbLine
 10
80.0
 20
107.4602999999999
 30
0.0
 11
80.0
 21
102.5338
 31
0.0
  0
LINE
  5
161
330
1E
100
AcDbEntity
  8
0
100
AcDbLine
 10
80.0
 20
102.5338
 30
0.0
 11
80.0
 21
64.49371846153849
 31
0.0
  0
LINE
  5
162
330
1E
100
AcDbEntity
  8
0
100
AcDbLine
 10
80.0
 20
102.5338
 30
0.0
 11
80.0
 21
107.4602999999999
 31
0.0
  0
LINE
  5
163
330
1E
100
AcDbEntity
  8
0
100
AcDbLine
 10
82.17200000000001
 20
117.5014999999999
 30
0.0
 11
83.0
 21
112.6135
 31
0.0
  0
LINE
  5
164
330
1E
100
AcDbEntity
  8
0
100
AcDbLine
 10
80.0
 20
100.2955
 30
0.0
 11
82.17200000000001
 21
105.7255
 31
0.0
  0
LINE
  5
165
330
1E
100
AcDbEntity
  8
0
100
AcDbLine
 10
82.85937500000001
 20
110.6135
 30
0.0
 11
85.5
 21
110.6135
 31
0.0
  0
LINE
  5
166
330
1E
100
AcDbEntity
  8
0
100
AcDbLine
 10
82.5
 20
112.6135
 30
0.0
 11
85.5
 21
112.6135
 31
0.0
  0
LINE
  5
167
330
1E
100
AcDbEntity
  8
0
100
AcDbLine
 10
82.5
 20
112.6135
 30
0.0
 11
82.5
 21
110.6135
 31
0.0
  0
LINE
  5
168
330
1E
100
AcDbEntity
  8
0
100
AcDbLine
 10
82.5
 20
110.6135
 30
0.0
 11
85.5
 21
110.6135
 31
0.0
  0
LINE
  5
169
330
1E
100
AcDbEntity
  8
0
100
AcDbLine
 10
82.5
 20
110.6135
 30
0.0
 11
82.5
 21
112.6135
 31
0.0
  0
LINE
  5
16A
330
1E
100
AcDbEntity
  8
0
100
AcDbLine
 10
82.17200000000001
 20
105.7255
 30
0.0
 11
82.85937500000001
 21
110.6135
 31
0.0
  0
LINE
  5
16B
330
1E
100
AcDbEntity
  8
0
100
AcDbLine
 10
81.24
 20
129.6134999999999
 30
0.0
 11
86.04
 21
129.6134999999999
 31
0.0
  0
LINE
  5
16C
330
1E
100
AcDbEntity
  8
0
100
AcDbLine
 10
78.848
 20
140.6134999999999
 30
0.0
 11
86.904
 21
140.6134999999999
 31
0.0
  0
LINE
  5
16D
330
1E
100
AcDbEntity
  8
0
100
AcDbLine
 10
78.848
 20
136.6134999999999
 30
0.0
 11
86.904
 21
136.6134999999999
 31
0.0
  0
LINE
  5
16E
330
1E
100
AcDbEntity
  8
0
100
AcDbLine
 10
81.69999999999999
 20
129.6134999999999
 30
0.0
 11
84.1
 21
129.6134999999999
 31
0.0
  0
LINE
  5
16F
330
1E
100
AcDbEntity
  8
0
100
AcDbLine
 10
78.71592452830191
 20
129.6134999999999
 30
0.0
 11
81.69999999999999
 21
129.6134999999999
 31
0.0
  0
LINE
  5
170
330
1E
100
AcDbEntity
  8
0
100
AcDbLine
 10
78.71592452830191
 20
129.6134999999999
 30
0.0
 11
81.24
 21
129.6134999999999
 31
0.0
  0
LINE
  5
171
330
1E
100
AcDbEntity
  8
0
100
AcDbLine
 10
79.964
 20
123.0215
 30
0.0
 11
82.17200000000001
 21
117.5014999999999
 31
0.0
  0
LINE
  5
172
330
1E
100
AcDbEntity
  8
0
100
AcDbLine
 10
85.0
 20
129.6134999999999
 30
0.0
 11
86.04
 21
129.6134999999999
 31
0.0
  0
LINE
  5
173
330
1E
100
AcDbEntity
  8
0
100
AcDbLine
 10
84.1
 20
129.6134999999999
 30
0.0
 11
85.0
 21
129.6134999999999
 31
0.0
  0
LINE
  5
174
330
1E
100
AcDbEntity
  8
0
100
AcDbLine
 10
85.0
 20
118.4295
 30
0.0
 11
85.0
 21
129.6134999999999
 31
0.0
  0
LINE
  5
175
330
1E
100
AcDbEntity
  8
0
100
AcDbLine
 10
82.568
 20
124.5095
 30
0.0
 11
85.06399999999999
 21
118.2695
 31
0.0
  0
LINE
  5
176
330
1E
100
AcDbEntity
  8
0
100
AcDbLine
 10
85.06399999999999
 20
118.2695
 30
0.0
 11
86.0
 21
111.6135
 31
0.0
  0
LINE
  5
177
330
1E
100
AcDbEntity
  8
0
100
AcDbLine
 10
78.408
 20
130.0215
 30
0.0
 11
82.568
 21
124.5095
 31
0.0
  0
LINE
  5
178
330
1E
100
AcDbEntity
  8
0
100
AcDbLine
 10
82.568
 20
98.7175
 30
0.0
 11
85.06399999999999
 21
104.9574999999999
 31
0.0
  0
LINE
  5
179
330
1E
100
AcDbEntity
  8
0
100
AcDbLine
 10
85.5
 20
84.61350000000001
 30
0.0
 11
86.0
 21
84.61350000000001
 31
0.0
  0
LINE
  5
17A
330
1E
100
AcDbEntity
  8
0
100
AcDbLine
 10
85.5
 20
84.61350000000001
 30
0.0
 11
85.5
 21
70.6135
 31
0.0
  0
LINE
  5
17B
330
1E
100
AcDbEntity
  8
0
100
AcDbLine
 10
86.0
 20
82.6135
 30
0.0
 11
86.0
 21
84.61350000000001
 31
0.0
  0
LINE
  5
17C
330
1E
100
AcDbEntity
  8
0
100
AcDbLine
 10
86.0
 20
86.6135
 30
0.0
 11
86.0
 21
84.61350000000001
 31
0.0
  0
LINE
  5
17D
330
1E
100
AcDbEntity
  8
0
100
AcDbLine
 10
86.0
 20
84.61350000000001
 30
0.0
 11
86.0
 21
82.6135
 31
0.0
  0
LINE
  5
17E
330
1E
100
AcDbEntity
  8
0
100
AcDbLine
 10
86.0
 20
84.61350000000001
 30
0.0
 11
86.0
 21
86.6135
 31
0.0
  0
LINE
  5
17F
330
1E
100
AcDbEntity
  8
0
100
AcDbLine
 10
85.5
 20
82.6135
 30
0.0
 11
86.0
 21
82.6135
 31
0.0
  0
LINE
  5
180
330
1E
100
AcDbEntity
  8
0
100
AcDbLine
 10
86.904
 20
140.6134999999999
 30
0.0
 11
92.98399999999999
 21
140.6134999999999
 31
0.0
  0
LINE
  5
181
330
1E
100
AcDbEntity
  8
0
100
AcDbLine
 10
86.904
 20
136.6134999999999
 30
0.0
 11
92.98399999999999
 21
136.6134999999999
 31
0.0
  0
LINE
  5
182
330
1E
100
AcDbEntity
  8
0
100
AcDbLine
 10
86.04
 20
129.6134999999999
 30
0.0
 11
88.92000000000001
 21
129.6134999999999
 31
0.0
  0
LINE
  5
183
330
1E
100
AcDbEntity
  8
0
100
AcDbLine
 10
85.5
 20
112.6135
 30
0.0
 11
85.5
 21
110.6135
 31
0.0
  0
LINE
  5
184
330
1E
100
AcDbEntity
  8
0
100
AcDbLine
 10
85.5
 20
110.6135
 30
0.0
 11
85.5
 21
112.6135
 31
0.0
  0
LINE
  5
185
330
1E
100
AcDbEntity
  8
0
100
AcDbLine
 10
85.06399999999999
 20
104.9574999999999
 30
0.0
 11
86.0
 21
111.6135
 31
0.0
  0
LINE
  5
186
330
1E
100
AcDbEntity
  8
0
100
AcDbLine
 10
66.65600000000001
 20
70.6918
 30
0.0
 11
72.896
 21
68.9268
 31
0.0
  0
LINE
  5
187
330
1E
100
AcDbEntity
  8
0
100
AcDbLine
 10
60.0
 20
71.3536
 30
0.0
 11
66.65600000000001
 21
70.6918
 31
0.0
  0
LINE
  5
188
330
1E
100
AcDbEntity
  8
0
100
AcDbLine
 10
60.0
 20
70.6465
 30
0.0
 11
66.65600000000001
 21
69.98470000000001
 31
0.0
  0
LINE
  5
189
330
1E
100
AcDbEntity
  8
0
100
AcDbLine
 10
53.34399999999999
 20
70.6918
 30
0.0
 11
60.0
 21
71.3536
 31
0.0
  0
LINE
  5
18A
330
1E
100
AcDbEntity
  8
0
100
AcDbLine
 10
53.34399999999999
 20
69.98470000000001
 30
0.0
 11
60.0
 21
70.6465
 31
0.0
  0
LINE
  5
18B
330
1E
100
AcDbEntity
  8
0
100
AcDbLine
 10
34.0
 20
52.26169999999999
 30
0.0
 11
34.936
 21
47.55519999999999
 31
0.0
  0
LINE
  5
18C
330
1E
100
AcDbEntity
  8
0
100
AcDbLine
 10
34.0
 20
52.26169999999999
 30
0.0
 11
34.0
 21
52.9688
 31
0.0
  0
LINE
  5
18D
330
1E
100
AcDbEntity
  8
0
100
AcDbLine
 10
34.0
 20
52.26169999999999
 30
0.0
 11
34.936
 21
56.9682
 31
0.0
  0
LINE
  5
18E
330
1E
100
AcDbEntity
  8
0
100
AcDbLine
 10
34.936
 20
47.55519999999999
 30
0.0
 11
35.0
 21
47.4420641025641
 31
0.0
  0
LINE
  5
18F
330
1E
100
AcDbEntity
  8
0
100
AcDbLine
 10
90.0
 20
129.6134999999999
 30
0.0
 11
90.0
 21
136.6134999999999
 31
0.0
  0
LINE
  5
190
330
1E
100
AcDbEntity
  8
0
100
AcDbLine
 10
98.0
 20
136.6134999999999
 30
0.0
 11
98.0
 21
140.6134999999999
 31
0.0
  0
LINE
  5
191
330
1E
100
AcDbEntity
  8
0
100
AcDbLine
 10
96.63200000000001
 20
136.6134999999999
 30
0.0
 11
98.0
 21
136.6134999999999
 31
0.0
  0
LINE
  5
192
330
1E
100
AcDbEntity
  8
0
100
AcDbLine
 10
98.0
 20
140.6134999999999
 30
0.0
 11
98.0
 21
136.6134999999999
 31
0.0
  0
LINE
  5
193
330
1E
100
AcDbEntity
  8
0
100
AcDbLine
 10
96.63200000000001
 20
140.6134999999999
 30
0.0
 11
98.0
 21
140.6134999999999
 31
0.0
  0
LINE
  5
194
330
1E
100
AcDbEntity
  8
0
100
AcDbLine
 10
92.98399999999999
 20
140.6134999999999
 30
0.0
 11
96.63200000000001
 21
140.6134999999999
 31
0.0
  0
LINE
  5
195
330
1E
100
AcDbEntity
  8
0
100
AcDbLine
 10
92.98399999999999
 20
136.6134999999999
 30
0.0
 11
96.63200000000001
 21
136.6134999999999
 31
0.0
  0
LINE
  5
196
330
1E
100
AcDbEntity
  8
0
100
AcDbLine
 10
90.0
 20
136.6134999999999
 30
0.0
 11
90.0
 21
129.6134999999999
 31
0.0
  0
LINE
  5
197
330
1E
100
AcDbEntity
  8
0
100
AcDbLine
 10
90.0
 20
136.6134999999999
 30
0.0
 11
92.98399999999999
 21
136.6134999999999
 31
0.0
  0
LINE
  5
198
330
1E
100
AcDbEntity
  8
0
100
AcDbLine
 10
88.92000000000001
 20
129.6134999999999
 30
0.0
 11
90.0
 21
129.6134999999999
 31
0.0
  0
LINE
  5
199
330
1E
100
AcDbEntity
  8
0
100
AcDbLine
 10
87.0
 20
140.6134999999999
 30
0.0
 11
87.0
 21
150.6135
 31
0.0
  0
LINE
  5
19A
330
1E
100
AcDbEntity
  8
0
100
AcDbLine
 10
33.0
 20
150.6135
 30
0.0
 11
33.0
 21
140.6134999999999
 31
0.0
  0
LINE
  5
19B
330
1E
100
AcDbEntity
  8
0
100
AcDbLine
 10
33.0
 20
150.6135
 30
0.0
 11
33.972
 21
150.6135
 31
0.0
  0
LINE
  5
19C
330
1E
100
AcDbEntity
  8
0
100
AcDbLine
 10
33.972
 20
150.6135
 30
0.0
 11
36.564
 21
150.6135
 31
0.0
  0
LINE
  5
19D
330
1E
100
AcDbEntity
  8
0
100
AcDbLine
 10
36.564
 20
150.6135
 30
0.0
 11
40.884
 21
150.6135
 31
0.0
  0
LINE
  5
19E
330
1E
100
AcDbEntity
  8
0
100
AcDbLine
 10
40.884
 20
150.6135
 30
0.0
 11
46.608
 21
150.6135
 31
0.0
  0
LINE
  5
19F
330
1E
100
AcDbEntity
  8
0
100
AcDbLine
 10
46.608
 20
150.6135
 30
0.0
 11
53.088
 21
150.6135
 31
0.0
  0
LINE
  5
1A0
330
1E
100
AcDbEntity
  8
0
100
AcDbLine
 10
35.22
 20
150.6135
 30
0.0
 11
42.64
 21
150.6135
 31
0.0
  0
LINE
  5
1A1
330
1E
100
AcDbEntity
  8
0
100
AcDbLine
 10
34.5
 20
152.6135
 30
0.0
 11
34.5
 21
160.2416
 31
0.0
  0
LINE
  5
1A2
330
1E
100
AcDbEntity
  8
0
100
AcDbLine
 10
46.38399999999999
 20
152.6135
 30
0.0
 11
46.38399999999999
 21
164.3856
 31
0.0
  0
LINE
  5
1A3
330
1E
100
AcDbEntity
  8
0
100
AcDbLine
 10
48.11600000000001
 20
152.6135
 30
0.0
 11
48.11600000000001
 21
164.587
 31
0.0
  0
LINE
  5
1A4
330
1E
100
AcDbEntity
  8
0
100
AcDbLine
 10
35.22
 20
152.6135
 30
0.0
 11
42.64
 21
152.6135
 31
0.0
  0
LINE
  5
1A5
330
1E
100
AcDbEntity
  8
0
100
AcDbLine
 10
34.5
 20
160.2416
 30
0.0
 11
37.14060772734939
 21
160.2416
 31
0.0
  0
LINE
  5
1A6
330
1E
100
AcDbEntity
  8
0
100
AcDbLine
 10
37.14060772734939
 20
160.2416
 30
0.0
 11
37.828
 21
161.2256999999999
 31
0.0
  0
LINE
  5
1A7
330
1E
100
AcDbEntity
  8
0
100
AcDbLine
 10
34.5
 20
199.4931
 30
0.0
 11
34.5
 21
213.2803999999999
 31
0.0
  0
LINE
  5
1A8
330
1E
100
AcDbEntity
  8
0
100
AcDbLine
 10
34.5
 20
199.4931
 30
0.0
 11
37.5
 21
199.4931
 31
0.0
  0
LINE
  5
1A9
330
1E
100
AcDbEntity
  8
0
100
AcDbLine
 10
34.5
 20
199.4931
 30
0.0
 11
34.5
 21
199.8403999999999
 31
0.0
  0
LINE
  5
1AA
330
1E
100
AcDbEntity
  8
0
100
AcDbLine
 10
34.5
 20
213.2803999999999
 30
0.0
 11
34.5
 21
213.6277
 31
0.0
  0
LINE
  5
1AB
330
1E
100
AcDbEntity
  8
0
100
AcDbLine
 10
34.5
 20
213.2803999999999
 30
0.0
 11
34.5
 21
199.4931
 31
0.0
  0
LINE
  5
1AC
330
1E
100
AcDbEntity
  8
0
100
AcDbLine
 10
34.5
 20
199.8403999999999
 30
0.0
 11
34.5
 21
213.6277
 31
0.0
  0
LINE
  5
1AD
330
1E
100
AcDbEntity
  8
0
100
AcDbLine
 10
34.5
 20
199.8403999999999
 30
0.0
 11
37.5
 21
199.8403999999999
 31
0.0
  0
LINE
  5
1AE
330
1E
100
AcDbEntity
  8
0
100
AcDbLine
 10
34.5
 20
199.8403999999999
 30
0.0
 11
34.5
 21
199.4931
 31
0.0
  0
LINE
  5
1AF
330
1E
100
AcDbEntity
  8
0
100
AcDbLine
 10
34.5
 20
213.6277
 30
0.0
 11
37.1406587775061
 21
213.6277
 31
0.0
  0
LINE
  5
1B0
330
1E
100
AcDbEntity
  8
0
100
AcDbLine
 10
34.5
 20
213.6277
 30
0.0
 11
34.5
 21
199.8403999999999
 31
0.0
  0
LINE
  5
1B1
330
1E
100
AcDbEntity
  8
0
100
AcDbLine
 10
34.5
 20
213.6277
 30
0.0
 11
34.5
 21
213.2803999999999
 31
0.0
  0
LINE
  5
1B2
330
1E
100
AcDbEntity
  8
0
100
AcDbLine
 10
37.0
 20
199.6667
 30
0.0
 11
37.828
 21
200.6890999999999
 31
0.0
  0
LINE
  5
1B3
330
1E
100
AcDbEntity
  8
0
100
AcDbLine
 10
37.0
 20
199.6667
 30
0.0
 11
37.828
 21
198.6442999999999
 31
0.0
  0
LINE
  5
1B4
330
1E
100
AcDbEntity
  8
0
100
AcDbLine
 10
37.828
 20
161.2256999999999
 30
0.0
 11
40.036
 21
162.337
 31
0.0
  0
LINE
  5
1B5
330
1E
100
AcDbEntity
  8
0
100
AcDbLine
 10
37.5
 20
199.8403999999999
 30
0.0
 11
37.5
 21
199.4931
 31
0.0
  0
LINE
  5
1B6
330
1E
100
AcDbEntity
  8
0
100
AcDbLine
 10
37.5
 20
199.4931
 30
0.0
 11
37.5
 21
199.8403999999999
 31
0.0
  0
LINE
  5
1B7
330
1E
100
AcDbEntity
  8
0
100
AcDbLine
 10
37.828
 20
198.6442999999999
 30
0.0
 11
40.0
 21
197.701329347826
 31
0.0
  0
LINE
  5
1B8
330
1E
100
AcDbEntity
  8
0
100
AcDbLine
 10
37.828
 20
200.6890999999999
 30
0.0
 11
40.036
 21
201.6477
 31
0.0
  0
LINE
  5
1B9
330
1E
100
AcDbEntity
  8
0
100
AcDbLine
 10
37.828
 20
214.4765
 30
0.0
 11
40.036
 21
215.4349999999999
 31
0.0
  0
LINE
  5
1BA
330
1E
100
AcDbEntity
  8
0
100
AcDbLine
 10
37.1406587775061
 20
213.6277
 30
0.0
 11
37.828
 21
214.4765
 31
0.0
  0
LINE
  5
1BB
330
1E
100
AcDbEntity
  8
0
100
AcDbLine
 10
34.936
 20
214.6098
 30
0.0
 11
37.43199999999999
 21
215.6934
 31
0.0
  0
LINE
  5
1BC
330
1E
100
AcDbEntity
  8
0
100
AcDbLine
 10
34.0
 20
213.454
 30
0.0
 11
34.0
 21
215.4236
 31
0.0
  0
LINE
  5
1BD
330
1E
100
AcDbEntity
  8
0
100
AcDbLine
 10
34.0
 20
213.454
 30
0.0
 11
34.936
 21
214.6098
 31
0.0
  0
LINE
  5
1BE
330
1E
100
AcDbEntity
  8
0
100
AcDbLine
 10
34.0
 20
213.454
 30
0.0
 11
34.5
 21
212.836585470085
 31
0.0
  0
LINE
  5
1BF
330
1E
100
AcDbEntity
  8
0
100
AcDbLine
 10
37.43199999999999
 20
215.6934
 30
0.0
 11
41.592
 21
216.6504999999999
 31
0.0
  0
LINE
  5
1C0
330
1E
100
AcDbEntity
  8
0
100
AcDbLine
 10
37.828
 20
256.8964999999999
 30
0.0
 11
40.0
 21
255.954119565217
 31
0.0
  0
LINE
  5
1C2
330
1E
100
AcDbEntity
  8
0
100
AcDbLine
 10
37.0
 20
257.9195
 30
0.0
 11
37.828
 21
258.9415
 31
0.0
  0
LINE
  5
1C3
330
1E
100
AcDbEntity
  8
0
100
AcDbLine
 10
37.0
 20
257.9195
 30
0.0
 11
37.0
 21
287.4634999999999
 31
0.0
  0
LINE
  5
1C5
330
1E
100
AcDbEntity
  8
0
100
AcDbLine
 10
37.0
 20
257.9195
 30
0.0
 11
37.828
 21
256.8964999999999
 31
0.0
  0
LINE
  5
1C6
330
1E
100
AcDbEntity
  8
0
100
AcDbLine
 10
37.828
 20
258.9415
 30
0.0
 11
40.036
 21
259.9005
 31
0.0
  0
LINE
  5
1C9
330
1E
100
AcDbEntity
  8
0
100
AcDbLine
 10
37.0
 20
287.4634999999999
 30
0.0
 11
37.828
 21
288.4854999999999
 31
0.0
  0
LINE
  5
1CA
330
1E
100
AcDbEntity
  8
0
100
AcDbLine
 10
39.0
 20
288.9945344202899
 30
0.0
 11
39.0
 21
307.1594999999999
 31
0.0
  0
LINE
  5
1CC
330
1E
100
AcDbEntity
  8
0
100
AcDbLine
 10
39.0
 20
307.1594999999999
 30
0.0
 11
39.756
 21
308.0935
 31
0.0
  0
LINE
  5
1CD
330
1E
100
AcDbEntity
  8
0
100
AcDbLine
 10
39.0
 20
307.1594999999999
 30
0.0
 11
39.0
 21
288.9945344202899
 31
0.0
  0
LINE
  5
1CE
330
1E
100
AcDbEntity
  8
0
100
AcDbLine
 10
39.756
 20
308.0935
 30
0.0
 11
41.772
 21
308.9685
 31
0.0
  0
LINE
  5
1D0
330
1E
100
AcDbEntity
  8
0
100
AcDbLine
 10
37.828
 20
288.4854999999999
 30
0.0
 11
40.036
 21
289.4445
 31
0.0
  0
LINE
  5
1D2
330
1E
100
AcDbEntity
  8
0
100
AcDbLine
 10
37.43199999999999
 20
217.6629999999999
 30
0.0
 11
41.592
 21
218.6201
 31
0.0
  0
LINE
  5
1D3
330
1E
100
AcDbEntity
  8
0
100
AcDbLine
 10
34.936
 20
216.5793999999999
 30
0.0
 11
37.43199999999999
 21
217.6629999999999
 31
0.0
  0
LINE
  5
1D4
330
1E
100
AcDbEntity
  8
0
100
AcDbLine
 10
34.0
 20
215.4236
 30
0.0
 11
34.936
 21
216.5793999999999
 31
0.0
  0
LINE
  5
1D5
330
1E
100
AcDbEntity
  8
0
100
AcDbLine
 10
34.0
 20
215.4236
 30
0.0
 11
34.0
 21
213.454
 31
0.0
  0
LINE
  5
1D6
330
1E
100
AcDbEntity
  8
0
100
AcDbLine
 10
40.036
 20
162.337
 30
0.0
 11
43.71599999999999
 21
163.3187
 31
0.0
  0
LINE
  5
1D7
330
1E
100
AcDbEntity
  8
0
100
AcDbLine
 10
40.036
 20
201.6477
 30
0.0
 11
43.71599999999999
 21
202.4944
 31
0.0
  0
LINE
  5
1D8
330
1E
100
AcDbEntity
  8
0
100
AcDbLine
 10
40.036
 20
215.4349999999999
 30
0.0
 11
43.71599999999999
 21
216.2816999999999
 31
0.0
  0
LINE
  5
1D9
330
1E
100
AcDbEntity
  8
0
100
AcDbLine
 10
41.592
 20
216.6504999999999
 30
0.0
 11
47.10399999999999
 21
217.3728999999999
 31
0.0
  0
LINE
  5
1DA
330
1E
100
AcDbEntity
  8
0
100
AcDbLine
 10
40.0
 20
218.253825192308
 30
0.0
 11
40.0
 21
257.9195
 31
0.0
  0
LINE
  5
1DB
330
1E
100
AcDbEntity
  8
0
100
AcDbLine
 10
40.036
 20
259.9005
 30
0.0
 11
43.71599999999999
 21
260.7465
 31
0.0
  0
LINE
  5
1DE
330
1E
100
AcDbEntity
  8
0
100
AcDbLine
 10
40.036
 20
289.4445
 30
0.0
 11
43.71599999999999
 21
290.2914999999999
 31
0.0
  0
LINE
  5
1E1
330
1E
100
AcDbEntity
  8
0
100
AcDbLine
 10
41.772
 20
308.9685
 30
0.0
 11
45.132
 21
309.7414999999999
 31
0.0
  0
LINE
  5
1E3
330
1E
100
AcDbEntity
  8
0
100
AcDbLine
 10
41.592
 20
218.6201
 30
0.0
 11
47.10399999999999
 21
219.3424999999999
 31
0.0
  0
LINE
  5
1E4
330
1E
100
AcDbEntity
  8
0
100
AcDbLine
 10
40.0
 20
218.253825192308
 30
0.0
 11
40.0
 21
257.9195
 31
0.0
  0
LINE
  5
1E5
330
1E
100
AcDbEntity
  8
0
100
AcDbLine
 10
40.0
 20
162.318880978261
 30
0.0
 11
40.0
 21
199.6667
 31
0.0
  0
LINE
  5
1E6
330
1E
100
AcDbEntity
  8
0
100
AcDbLine
 10
42.0
 20
463.4515
 30
0.0
 11
42.648
 21
464.2515
 31
0.0
  0
LINE
  5
1E7
330
1E
100
AcDbEntity
  8
0
100
AcDbLine
 10
42.0
 20
463.4515
 30
0.0
 11
42.0
 21
473.2995
 31
0.0
  0
LINE
  5
1E8
330
1E
100
AcDbEntity
  8
0
100
AcDbLine
 10
42.648
 20
464.2515
 30
0.0
 11
44.376
 21
465.0015
 31
0.0
  0
LINE
  5
1E9
330
1E
100
AcDbEntity
  8
0
100
AcDbLine
 10
42.0
 20
465.1085
 30
0.0
 11
42.648
 21
465.9085
 31
0.0
  0
LINE
  5
1EA
330
1E
100
AcDbEntity
  8
0
100
AcDbLine
 10
42.0
 20
309.020953571429
 30
0.0
 11
42.0
 21
465.1085
 31
0.0
  0
LINE
  5
1EB
330
1E
100
AcDbEntity
  8
0
100
AcDbLine
 10
43.71599999999999
 20
163.3187
 30
0.0
 11
46.38399999999999
 21
163.724098113208
 31
0.0
  0
LINE
  5
1EC
330
1E
100
AcDbEntity
  8
0
100
AcDbLine
 10
43.71599999999999
 20
202.4944
 30
0.0
 11
48.592
 21
203.1334
 31
0.0
  0
LINE
  5
1ED
330
1E
100
AcDbEntity
  8
0
100
AcDbLine
 10
43.71599999999999
 20
260.7465
 30
0.0
 11
48.592
 21
261.3855
 31
0.0
  0
LINE
  5
1F0
330
1E
100
AcDbEntity
  8
0
100
AcDbLine
 10
43.71599999999999
 20
290.2914999999999
 30
0.0
 11
48.592
 21
290.9304999999999
 31
0.0
  0
LINE
  5
1F2
330
1E
100
AcDbEntity
  8
0
100
AcDbLine
 10
43.71599999999999
 20
216.2816999999999
 30
0.0
 11
46.38399999999999
 21
216.6313415094339
 31
0.0
  0
LINE
  5
1F3
330
1E
100
AcDbEntity
  8
0
100
AcDbLine
 10
46.38399999999999
 20
164.3856
 30
0.0
 11
46.38399999999999
 21
152.6135
 31
0.0
  0
LINE
  5
1F4
330
1E
100
AcDbEntity
  8
0
100
AcDbLine
 10
46.38399999999999
 20
164.3856
 30
0.0
 11
48.11600000000001
 21
164.587
 31
0.0
  0
LINE
  5
1F5
330
1E
100
AcDbEntity
  8
0
100
AcDbLine
 10
46.38399999999999
 20
203.4146999999999
 30
0.0
 11
46.38399999999999
 21
217.2019999999999
 31
0.0
  0
LINE
  5
1F6
330
1E
100
AcDbEntity
  8
0
100
AcDbLine
 10
46.38399999999999
 20
203.4146999999999
 30
0.0
 11
48.11600000000001
 21
203.5883
 31
0.0
  0
LINE
  5
1F7
330
1E
100
AcDbEntity
  8
0
100
AcDbLine
 10
46.38399999999999
 20
203.4146999999999
 30
0.0
 11
47.88399999999999
 21
202.9635
 31
0.0
  0
LINE
  5
1F8
330
1E
100
AcDbEntity
  8
0
100
AcDbLine
 10
46.38399999999999
 20
217.2019999999999
 30
0.0
 11
48.11600000000001
 21
217.3756
 31
0.0
  0
LINE
  5
1F9
330
1E
100
AcDbEntity
  8
0
100
AcDbLine
 10
46.38399999999999
 20
217.2019999999999
 30
0.0
 11
46.38399999999999
 21
203.4146999999999
 31
0.0
  0
LINE
  5
1FA
330
1E
100
AcDbEntity
  8
0
100
AcDbLine
 10
47.10399999999999
 20
217.3728999999999
 30
0.0
 11
53.34399999999999
 21
217.8062999999999
 31
0.0
  0
LINE
  5
1FC
330
1E
100
AcDbEntity
  8
0
100
AcDbLine
 10
45.132
 20
309.7414999999999
 30
0.0
 11
49.584
 21
310.3245
 31
0.0
  0
LINE
  5
1FD
330
1E
100
AcDbEntity
  8
0
100
AcDbLine
 10
47.10399999999999
 20
219.3424999999999
 30
0.0
 11
53.34399999999999
 21
219.7759999999999
 31
0.0
  0
LINE
  5
1FE
330
1E
100
AcDbEntity
  8
0
100
AcDbLine
 10
44.376
 20
465.0015
 30
0.0
 11
47.256
 21
465.6645
 31
0.0
  0
LINE
  5
1FF
330
1E
100
AcDbEntity
  8
0
100
AcDbLine
 10
47.256
 20
465.6645
 30
0.0
 11
51.07199999999999
 21
466.1645
 31
0.0
  0
LINE
  5
200
330
1E
100
AcDbEntity
  8
0
100
AcDbLine
 10
42.648
 20
465.9085
 30
0.0
 11
44.376
 21
466.6585
 31
0.0
  0
LINE
  5
201
330
1E
100
AcDbEntity
  8
0
100
AcDbLine
 10
42.0
 20
473.2995
 30
0.0
 11
42.648
 21
474.0994999999999
 31
0.0
  0
LINE
  5
202
330
1E
100
AcDbEntity
  8
0
100
AcDbLine
 10
42.0
 20
473.2995
 30
0.0
 11
42.0
 21
463.4515
 31
0.0
  0
LINE
  5
203
330
1E
100
AcDbEntity
  8
0
100
AcDbLine
 10
44.0
 20
474.686305555556
 30
0.0
 11
44.0
 21
483.1475
 31
0.0
  0
LINE
  5
204
330
1E
100
AcDbEntity
  8
0
100
AcDbLine
 10
42.648
 20
474.0994999999999
 30
0.0
 11
44.376
 21
474.8495
 31
0.0
  0
LINE
  5
205
330
1E
100
AcDbEntity
  8
0
100
AcDbLine
 10
42.648
 20
482.3475
 30
0.0
 11
44.0
 21
481.7606944444439
 31
0.0
  0
LINE
  5
206
330
1E
100
AcDbEntity
  8
0
100
AcDbLine
 10
42.0
 20
483.1475
 30
0.0
 11
42.648
 21
483.9475
 31
0.0
  0
LINE
  5
207
330
1E
100
AcDbEntity
  8
0
100
AcDbLine
 10
42.0
 20
483.1475
 30
0.0
 11
42.648
 21
482.3475
 31
0.0
  0
LINE
  5
208
330
1E
100
AcDbEntity
  8
0
100
AcDbLine
 10
42.0
 20
483.1475
 30
0.0
 11
42.0
 21
492.9954999999999
 31
0.0
  0
LINE
  5
209
330
1E
100
AcDbEntity
  8
0
100
AcDbLine
 10
42.648
 20
483.9475
 30
0.0
 11
44.376
 21
484.6974999999999
 31
0.0
  0
LINE
  5
20A
330
1E
100
AcDbEntity
  8
0
100
AcDbLine
 10
42.0
 20
492.9954999999999
 30
0.0
 11
42.648
 21
493.7955
 31
0.0
  0
LINE
  5
20B
330
1E
100
AcDbEntity
  8
0
100
AcDbLine
 10
42.0
 20
492.9954999999999
 30
0.0
 11
42.0
 21
483.1475
 31
0.0
  0
LINE
  5
20C
330
1E
100
AcDbEntity
  8
0
100
AcDbLine
 10
44.0
 20
483.1475
 30
0.0
 11
44.576
 21
483.8585
 31
0.0
  0
LINE
  5
20D
330
1E
100
AcDbEntity
  8
0
100
AcDbLine
 10
44.576
 20
483.8585
 30
0.0
 11
46.11199999999999
 21
484.5255
 31
0.0
  0
LINE
  5
20E
330
1E
100
AcDbEntity
  8
0
100
AcDbLine
 10
46.11199999999999
 20
484.5255
 30
0.0
 11
48.672
 21
485.1145
 31
0.0
  0
LINE
  5
20F
330
1E
100
AcDbEntity
  8
0
100
AcDbLine
 10
44.376
 20
484.6974999999999
 30
0.0
 11
47.256
 21
485.3604999999999
 31
0.0
  0
LINE
  5
210
330
1E
100
AcDbEntity
  8
0
100
AcDbLine
 10
44.0
 20
494.3823055555561
 30
0.0
 11
44.0
 21
502.8434999999999
 31
0.0
  0
LINE
  5
211
330
1E
100
AcDbEntity
  8
0
100
AcDbLine
 10
47.256
 20
485.3604999999999
 30
0.0
 11
51.07199999999999
 21
485.8604999999999
 31
0.0
  0
LINE
  5
212
330
1E
100
AcDbEntity
  8
0
100
AcDbLine
 10
42.648
 20
493.7955
 30
0.0
 11
44.376
 21
494.5454999999999
 31
0.0
  0
LINE
  5
213
330
1E
100
AcDbEntity
  8
0
100
AcDbLine
 10
42.648
 20
502.0434999999999
 30
0.0
 11
44.0
 21
501.456694444445
 31
0.0
  0
LINE
  5
214
330
1E
100
AcDbEntity
  8
0
100
AcDbLine
 10
42.0
 20
502.8434999999999
 30
0.0
 11
42.648
 21
503.6434999999999
 31
0.0
  0
LINE
  5
215
330
1E
100
AcDbEntity
  8
0
100
AcDbLine
 10
42.0
 20
502.8434999999999
 30
0.0
 11
42.648
 21
502.0434999999999
 31
0.0
  0
LINE
  5
216
330
1E
100
AcDbEntity
  8
0
100
AcDbLine
 10
42.0
 20
502.8434999999999
 30
0.0
 11
42.0
 21
510.7128083333329
 31
0.0
  0
LINE
  5
217
330
1E
100
AcDbEntity
  8
0
100
AcDbLine
 10
44.0
 20
502.8434999999999
 30
0.0
 11
44.576
 21
503.5544999999999
 31
0.0
  0
LINE
  5
218
330
1E
100
AcDbEntity
  8
0
100
AcDbLine
 10
44.0
 20
502.8434999999999
 30
0.0
 11
44.0
 21
494.3823055555561
 31
0.0
  0
LINE
  5
219
330
1E
100
AcDbEntity
  8
0
100
AcDbLine
 10
44.576
 20
503.5544999999999
 30
0.0
 11
46.11199999999999
 21
504.2214999999999
 31
0.0
  0
LINE
  5
21A
330
1E
100
AcDbEntity
  8
0
100
AcDbLine
 10
46.11199999999999
 20
504.2214999999999
 30
0.0
 11
48.672
 21
504.8104999999999
 31
0.0
  0
LINE
  5
21B
330
1E
100
AcDbEntity
  8
0
100
AcDbLine
 10
42.648
 20
503.6434999999999
 30
0.0
 11
44.376
 21
504.3944999999999
 31
0.0
  0
LINE
  5
21C
330
1E
100
AcDbEntity
  8
0
100
AcDbLine
 10
42.0
 20
510.7128083333329
 30
0.0
 11
42.0
 21
502.8434999999999
 31
0.0
  0
LINE
  5
21D
330
1E
100
AcDbEntity
  8
0
100
AcDbLine
 10
44.376
 20
504.3944999999999
 30
0.0
 11
47.256
 21
505.0565
 31
0.0
  0
LINE
  5
21E
330
1E
100
AcDbEntity
  8
0
100
AcDbLine
 10
47.256
 20
505.0565
 30
0.0
 11
51.07199999999999
 21
505.5565
 31
0.0
  0
LINE
  5
21F
330
1E
100
AcDbEntity
  8
0
100
AcDbLine
 10
44.376
 20
494.5454999999999
 30
0.0
 11
47.256
 21
495.2085
 31
0.0
  0
LINE
  5
220
330
1E
100
AcDbEntity
  8
0
100
AcDbLine
 10
47.256
 20
495.2085
 30
0.0
 11
51.07199999999999
 21
495.7085
 31
0.0
  0
LINE
  5
221
330
1E
100
AcDbEntity
  8
0
100
AcDbLine
 10
44.376
 20
474.8495
 30
0.0
 11
47.256
 21
475.5124999999999
 31
0.0
  0
LINE
  5
222
330
1E
100
AcDbEntity
  8
0
100
AcDbLine
 10
47.256
 20
475.5124999999999
 30
0.0
 11
51.07199999999999
 21
476.0125
 31
0.0
  0
LINE
  5
223
330
1E
100
AcDbEntity
  8
0
100
AcDbLine
 10
44.376
 20
466.6585
 30
0.0
 11
47.256
 21
467.3214999999999
 31
0.0
  0
LINE
  5
224
330
1E
100
AcDbEntity
  8
0
100
AcDbLine
 10
48.11600000000001
 20
164.587
 30
0.0
 11
48.11600000000001
 21
152.6135
 31
0.0
  0
LINE
  5
225
330
1E
100
AcDbEntity
  8
0
100
AcDbLine
 10
48.11600000000001
 20
164.587
 30
0.0
 11
49.43392338325089
 21
164.127396185481
 31
0.0
  0
LINE
  5
226
330
1E
100
AcDbEntity
  8
0
100
AcDbLine
 10
49.43392338325089
 20
164.127396185481
 30
0.0
 11
54.112
 21
164.5040999999999
 31
0.0
  0
LINE
  5
227
330
1E
100
AcDbEntity
  8
0
100
AcDbLine
 10
47.88399999999999
 20
202.9635
 30
0.0
 11
49.616
 21
203.1372
 31
0.0
  0
LINE
  5
228
330
1E
100
AcDbEntity
  8
0
100
AcDbLine
 10
48.11600000000001
 20
203.5883
 30
0.0
 11
48.11600000000001
 21
217.3756
 31
0.0
  0
LINE
  5
229
330
1E
100
AcDbEntity
  8
0
100
AcDbLine
 10
48.11600000000001
 20
203.5883
 30
0.0
 11
49.616
 21
203.1372
 31
0.0
  0
LINE
  5
22A
330
1E
100
AcDbEntity
  8
0
100
AcDbLine
 10
48.592
 20
261.3855
 30
0.0
 11
54.112
 21
261.7694999999999
 31
0.0
  0
LINE
  5
22D
330
1E
100
AcDbEntity
  8
0
100
AcDbLine
 10
48.592
 20
290.9304999999999
 30
0.0
 11
54.112
 21
291.3135
 31
0.0
  0
LINE
  5
22F
330
1E
100
AcDbEntity
  8
0
100
AcDbLine
 10
48.11600000000001
 20
217.3756
 30
0.0
 11
49.434137970724
 21
216.979191974271
 31
0.0
  0
LINE
  5
230
330
1E
100
AcDbEntity
  8
0
100
AcDbLine
 10
48.11600000000001
 20
217.3756
 30
0.0
 11
48.11600000000001
 21
203.5883
 31
0.0
  0
LINE
  5
231
330
1E
100
AcDbEntity
  8
0
100
AcDbLine
 10
48.592
 20
203.1334
 30
0.0
 11
54.112
 21
203.5168
 31
0.0
  0
LINE
  5
232
330
1E
100
AcDbEntity
  8
0
100
AcDbLine
 10
49.616
 20
203.1372
 30
0.0
 11
49.616
 21
203.2045234782609
 31
0.0
  0
LINE
  5
234
330
1E
100
AcDbEntity
  8
0
100
AcDbLine
 10
49.584
 20
310.3245
 30
0.0
 11
54.62399999999999
 21
310.6745
 31
0.0
  0
LINE
  5
236
330
1E
100
AcDbEntity
  8
0
100
AcDbLine
 10
49.616
 20
203.2045234782609
 30
0.0
 11
49.616
 21
203.1372
 31
0.0
  0
LINE
  5
237
330
1E
100
AcDbEntity
  8
0
100
AcDbLine
 10
49.434137970724
 20
216.979191974271
 30
0.0
 11
54.112
 21
217.3041
 31
0.0
  0
LINE
  5
238
330
1E
100
AcDbEntity
  8
0
100
AcDbLine
 10
48.672
 20
504.8104999999999
 30
0.0
 11
52.06399999999999
 21
505.2554999999999
 31
0.0
  0
LINE
  5
239
330
1E
100
AcDbEntity
  8
0
100
AcDbLine
 10
48.672
 20
485.1145
 30
0.0
 11
52.06399999999999
 21
485.5595
 31
0.0
  0
LINE
  5
23A
330
1E
100
AcDbEntity
  8
0
100
AcDbLine
 10
47.256
 20
467.3214999999999
 30
0.0
 11
51.07199999999999
 21
467.8215
 31
0.0
  0
LINE
  5
23B
330
1E
100
AcDbEntity
  8
0
100
AcDbLine
 10
40.16
 20
511.4374999999999
 30
0.0
 11
49.75999999999999
 21
507.6565
 31
0.0
  0
LINE
  5
23C
330
1E
100
AcDbEntity
  8
0
100
AcDbLine
 10
49.75999999999999
 20
507.6565
 30
0.0
 11
60.0
 21
506.2384999999999
 31
0.0
  0
LINE
  5
23D
330
1E
100
AcDbEntity
  8
0
100
AcDbLine
 10
29.62
 20
565.1575
 30
0.0
 11
35.22
 21
572.4655
 31
0.0
  0
LINE
  5
23E
330
1E
100
AcDbEntity
  8
0
100
AcDbLine
 10
29.62
 20
530.2704999999999
 30
0.0
 11
35.22
 21
522.9635
 31
0.0
  0
LINE
  5
23F
330
1E
100
AcDbEntity
  8
0
100
AcDbLine
 10
29.62
 20
530.9655
 30
0.0
 11
35.22
 21
523.6575
 31
0.0
  0
LINE
  5
240
330
1E
100
AcDbEntity
  8
0
100
AcDbLine
 10
31.68
 20
517.7405
 30
0.0
 11
40.16
 21
511.4374999999999
 31
0.0
  0
LINE
  5
241
330
1E
100
AcDbEntity
  8
0
100
AcDbLine
 10
42.64
 20
517.4484999999999
 30
0.0
 11
51.04
 21
514.1395
 31
0.0
  0
LINE
  5
242
330
1E
100
AcDbEntity
  8
0
100
AcDbLine
 10
35.1363636363636
 20
549.0164999999999
 30
0.0
 11
35.89999999999999
 21
554.3645
 31
0.0
  0
LINE
  5
243
330
1E
100
AcDbEntity
  8
0
100
AcDbLine
 10
35.0
 20
549.9715
 30
0.0
 11
35.0
 21
548.0615
 31
0.0
  0
LINE
  5
244
330
1E
100
AcDbEntity
  8
0
100
AcDbLine
 10
35.0
 20
549.9715
 30
0.0
 11
35.89999999999999
 21
543.6684999999999
 31
0.0
  0
LINE
  5
245
330
1E
100
AcDbEntity
  8
0
100
AcDbLine
 10
35.0
 20
549.9715
 30
0.0
 11
35.89999999999999
 21
556.2744999999999
 31
0.0
  0
LINE
  5
246
330
1E
100
AcDbEntity
  8
0
100
AcDbLine
 10
35.0
 20
548.0615
 30
0.0
 11
35.89999999999999
 21
541.7585
 31
0.0
  0
LINE
  5
247
330
1E
100
AcDbEntity
  8
0
100
AcDbLine
 10
35.0
 20
548.0615
 30
0.0
 11
35.0
 21
549.9715
 31
0.0
  0
LINE
  5
248
330
1E
100
AcDbEntity
  8
0
100
AcDbLine
 10
35.22
 20
572.4655
 30
0.0
 11
42.64
 21
577.9795
 31
0.0
  0
LINE
  5
249
330
1E
100
AcDbEntity
  8
0
100
AcDbLine
 10
35.22
 20
522.9635
 30
0.0
 11
42.64
 21
517.4484999999999
 31
0.0
  0
LINE
  5
24A
330
1E
100
AcDbEntity
  8
0
100
AcDbLine
 10
35.89999999999999
 20
554.3645
 30
0.0
 11
38.3
 21
560.2735
 31
0.0
  0
LINE
  5
24B
330
1E
100
AcDbEntity
  8
0
100
AcDbLine
 10
35.89999999999999
 20
556.2744999999999
 30
0.0
 11
38.3
 21
562.1834999999999
 31
0.0
  0
LINE
  5
24C
330
1E
100
AcDbEntity
  8
0
100
AcDbLine
 10
35.89999999999999
 20
541.7585
 30
0.0
 11
38.3
 21
535.8495
 31
0.0
  0
LINE
  5
24D
330
1E
100
AcDbEntity
  8
0
100
AcDbLine
 10
38.3
 20
560.2735
 30
0.0
 11
42.29999999999999
 21
565.4924999999999
 31
0.0
  0
LINE
  5
24E
330
1E
100
AcDbEntity
  8
0
100
AcDbLine
 10
38.3
 20
562.1834999999999
 30
0.0
 11
42.29999999999999
 21
567.4025
 31
0.0
  0
LINE
  5
24F
330
1E
100
AcDbEntity
  8
0
100
AcDbLine
 10
35.89999999999999
 20
543.6684999999999
 30
0.0
 11
38.3
 21
537.7595
 31
0.0
  0
LINE
  5
250
330
1E
100
AcDbEntity
  8
0
100
AcDbLine
 10
38.3
 20
535.8495
 30
0.0
 11
42.29999999999999
 21
530.6305
 31
0.0
  0
LINE
  5
251
330
1E
100
AcDbEntity
  8
0
100
AcDbLine
 10
42.29999999999999
 20
565.4924999999999
 30
0.0
 11
47.6
 21
569.4315
 31
0.0
  0
LINE
  5
252
330
1E
100
AcDbEntity
  8
0
100
AcDbLine
 10
42.29999999999999
 20
567.4025
 30
0.0
 11
47.6
 21
571.3415
 31
0.0
  0
LINE
  5
253
330
1E
100
AcDbEntity
  8
0
100
AcDbLine
 10
38.3
 20
537.7595
 30
0.0
 11
42.29999999999999
 21
532.5404999999999
 31
0.0
  0
LINE
  5
254
330
1E
100
AcDbEntity
  8
0
100
AcDbLine
 10
42.29999999999999
 20
530.6305
 30
0.0
 11
47.6
 21
526.6915
 31
0.0
  0
LINE
  5
255
330
1E
100
AcDbEntity
  8
0
100
AcDbLine
 10
47.6
 20
569.4315
 30
0.0
 11
53.6
 21
571.7954999999999
 31
0.0
  0
LINE
  5
256
330
1E
100
AcDbEntity
  8
0
100
AcDbLine
 10
47.6
 20
571.3415
 30
0.0
 11
53.6
 21
573.7055
 31
0.0
  0
LINE
  5
257
330
1E
100
AcDbEntity
  8
0
100
AcDbLine
 10
42.29999999999999
 20
532.5404999999999
 30
0.0
 11
47.6
 21
528.6014999999999
 31
0.0
  0
LINE
  5
258
330
1E
100
AcDbEntity
  8
0
100
AcDbLine
 10
47.6
 20
526.6915
 30
0.0
 11
53.6
 21
524.3274999999999
 31
0.0
  0
LINE
  5
259
330
1E
100
AcDbEntity
  8
0
100
AcDbLine
 10
47.6
 20
528.6014999999999
 30
0.0
 11
53.6
 21
526.2374999999999
 31
0.0
  0
LINE
  5
25A
330
1E
100
AcDbEntity
  8
0
100
AcDbLine
 10
42.64
 20
577.9795
 30
0.0
 11
51.04
 21
581.2885
 31
0.0
  0
LINE
  5
25B
330
1E
100
AcDbEntity
  8
0
100
AcDbLine
 10
35.22
 20
523.6575
 30
0.0
 11
42.64
 21
518.1435
 31
0.0
  0
LINE
  5
25C
330
1E
100
AcDbEntity
  8
0
100
AcDbLine
 10
42.64
 20
518.1435
 30
0.0
 11
51.04
 21
514.8345
 31
0.0
  0
LINE
  5
25D
330
1E
100
AcDbEntity
  8
0
100
AcDbLine
 10
31.68
 20
574.5625
 30
0.0
 11
40.16
 21
580.8645
 31
0.0
  0
LINE
  5
25E
330
1E
100
AcDbEntity
  8
0
100
AcDbLine
 10
40.16
 20
580.8645
 30
0.0
 11
49.75999999999999
 21
584.6464999999999
 31
0.0
  0
LINE
  5
25F
330
1E
100
AcDbEntity
  8
0
100
AcDbLine
 10
31.68
 20
518.7825
 30
0.0
 11
40.16
 21
512.4795
 31
0.0
  0
LINE
  5
260
330
1E
100
AcDbEntity
  8
0
100
AcDbLine
 10
40.16
 20
512.4795
 30
0.0
 11
49.75999999999999
 21
508.6985
 31
0.0
  0
LINE
  5
261
330
1E
100
AcDbEntity
  8
0
100
AcDbLine
 10
49.75999999999999
 20
584.6464999999999
 30
0.0
 11
60.0
 21
586.0644999999999
 31
0.0
  0
LINE
  5
262
330
1E
100
AcDbEntity
  8
0
100
AcDbLine
 10
49.75999999999999
 20
508.6985
 30
0.0
 11
60.0
 21
507.2795
 31
0.0
  0
LINE
  5
263
330
1E
100
AcDbEntity
  8
0
100
AcDbLine
 10
42.64
 20
152.6135
 30
0.0
 11
51.04
 21
152.6135
 31
0.0
  0
LINE
  5
264
330
1E
100
AcDbEntity
  8
0
100
AcDbLine
 10
51.04
 20
152.6135
 30
0.0
 11
60.0
 21
152.6135
 31
0.0
  0
LINE
  5
265
330
1E
100
AcDbEntity
  8
0
100
AcDbLine
 10
42.64
 20
150.6135
 30
0.0
 11
51.04
 21
150.6135
 31
0.0
  0
LINE
  5
266
330
1E
100
AcDbEntity
  8
0
100
AcDbLine
 10
68.95999999999999
 20
150.6135
 30
0.0
 11
77.36
 21
150.6135
 31
0.0
  0
LINE
  5
267
330
1E
100
AcDbEntity
  8
0
100
AcDbLine
 10
77.36
 20
150.6135
 30
0.0
 11
84.77999999999999
 21
150.6135
 31
0.0
  0
LINE
  5
268
330
1E
100
AcDbEntity
  8
0
100
AcDbLine
 10
87.0
 20
150.6135
 30
0.0
 11
87.0
 21
140.6134999999999
 31
0.0
  0
LINE
  5
269
330
1E
100
AcDbEntity
  8
0
100
AcDbLine
 10
87.0
 20
150.6135
 30
0.0
 11
90.38
 21
150.6135
 31
0.0
  0
LINE
  5
26A
330
1E
100
AcDbEntity
  8
0
100
AcDbLine
 10
93.74
 20
150.6135
 30
0.0
 11
95.0
 21
150.6135
 31
0.0
  0
LINE
  5
26B
330
1E
100
AcDbEntity
  8
0
100
AcDbLine
 10
95.0
 20
150.6135
 30
0.0
 11
95.0
 21
152.6135
 31
0.0
  0
LINE
  5
26C
330
1E
100
AcDbEntity
  8
0
100
AcDbLine
 10
90.38
 20
150.6135
 30
0.0
 11
93.74
 21
150.6135
 31
0.0
  0
LINE
  5
26D
330
1E
100
AcDbEntity
  8
0
100
AcDbLine
 10
84.77999999999999
 20
150.6135
 30
0.0
 11
90.38
 21
150.6135
 31
0.0
  0
LINE
  5
26E
330
1E
100
AcDbEntity
  8
0
100
AcDbLine
 10
86.028
 20
150.6135
 30
0.0
 11
87.0
 21
150.6135
 31
0.0
  0
LINE
  5
26F
330
1E
100
AcDbEntity
  8
0
100
AcDbLine
 10
83.436
 20
150.6135
 30
0.0
 11
86.028
 21
150.6135
 31
0.0
  0
LINE
  5
270
330
1E
100
AcDbEntity
  8
0
100
AcDbLine
 10
79.11599999999999
 20
150.6135
 30
0.0
 11
83.436
 21
150.6135
 31
0.0
  0
LINE
  5
271
330
1E
100
AcDbEntity
  8
0
100
AcDbLine
 10
73.39199999999999
 20
150.6135
 30
0.0
 11
79.11599999999999
 21
150.6135
 31
0.0
  0
LINE
  5
272
330
1E
100
AcDbEntity
  8
0
100
AcDbLine
 10
66.91199999999999
 20
150.6135
 30
0.0
 11
73.39199999999999
 21
150.6135
 31
0.0
  0
LINE
  5
273
330
1E
100
AcDbEntity
  8
0
100
AcDbLine
 10
60.0
 20
150.6135
 30
0.0
 11
66.91199999999999
 21
150.6135
 31
0.0
  0
LINE
  5
274
330
1E
100
AcDbEntity
  8
0
100
AcDbLine
 10
60.0
 20
150.6135
 30
0.0
 11
68.95999999999999
 21
150.6135
 31
0.0
  0
LINE
  5
275
330
1E
100
AcDbEntity
  8
0
100
AcDbLine
 10
54.112
 20
164.5040999999999
 30
0.0
 11
60.0
 21
164.6708
 31
0.0
  0
LINE
  5
276
330
1E
100
AcDbEntity
  8
0
100
AcDbLine
 10
54.112
 20
203.5168
 30
0.0
 11
60.0
 21
203.6605999999999
 31
0.0
  0
LINE
  5
277
330
1E
100
AcDbEntity
  8
0
100
AcDbLine
 10
54.112
 20
217.3041
 30
0.0
 11
60.0
 21
217.4479
 31
0.0
  0
LINE
  5
278
330
1E
100
AcDbEntity
  8
0
100
AcDbLine
 10
53.34399999999999
 20
217.8062999999999
 30
0.0
 11
60.0
 21
217.9688999999999
 31
0.0
  0
LINE
  5
279
330
1E
100
AcDbEntity
  8
0
100
AcDbLine
 10
54.112
 20
261.7694999999999
 30
0.0
 11
60.0
 21
261.9125
 31
0.0
  0
LINE
  5
27D
330
1E
100
AcDbEntity
  8
0
100
AcDbLine
 10
54.62399999999999
 20
310.6745
 30
0.0
 11
60.0
 21
310.8065
 31
0.0
  0
LINE
  5
27F
330
1E
100
AcDbEntity
  8
0
100
AcDbLine
 10
54.112
 20
291.3135
 30
0.0
 11
60.0
 21
291.4574999999999
 31
0.0
  0
LINE
  5
281
330
1E
100
AcDbEntity
  8
0
100
AcDbLine
 10
53.34399999999999
 20
219.7759999999999
 30
0.0
 11
60.0
 21
219.9384999999999
 31
0.0
  0
LINE
  5
282
330
1E
100
AcDbEntity
  8
0
100
AcDbLine
 10
60.0
 20
164.6708
 30
0.0
 11
65.888
 21
164.5040999999999
 31
0.0
  0
LINE
  5
283
330
1E
100
AcDbEntity
  8
0
100
AcDbLine
 10
60.0
 20
203.6605999999999
 30
0.0
 11
65.888
 21
203.5168
 31
0.0
  0
LINE
  5
284
330
1E
100
AcDbEntity
  8
0
100
AcDbLine
 10
60.0
 20
217.4479
 30
0.0
 11
65.888
 21
217.3041
 31
0.0
  0
LINE
  5
285
330
1E
100
AcDbEntity
  8
0
100
AcDbLine
 10
60.0
 20
217.9688999999999
 30
0.0
 11
66.65600000000001
 21
217.8062999999999
 31
0.0
  0
LINE
  5
287
330
1E
100
AcDbEntity
  8
0
100
AcDbLine
 10
60.0
 20
261.9125
 30
0.0
 11
65.888
 21
261.7694999999999
 31
0.0
  0
LINE
  5
289
330
1E
100
AcDbEntity
  8
0
100
AcDbLine
 10
60.0
 20
291.4574999999999
 30
0.0
 11
65.888
 21
291.3135
 31
0.0
  0
LINE
  5
28C
330
1E
100
AcDbEntity
  8
0
100
AcDbLine
 10
60.0
 20
219.9384999999999
 30
0.0
 11
66.65600000000001
 21
219.7759999999999
 31
0.0
  0
LINE
  5
28E
330
1E
100
AcDbEntity
  8
0
100
AcDbLine
 10
51.07199999999999
 20
466.1645
 30
0.0
 11
55.392
 21
466.4645
 31
0.0
  0
LINE
  5
28F
330
1E
100
AcDbEntity
  8
0
100
AcDbLine
 10
55.392
 20
466.4645
 30
0.0
 11
60.0
 21
466.5775
 31
0.0
  0
LINE
  5
290
330
1E
100
AcDbEntity
  8
0
100
AcDbLine
 10
52.06399999999999
 20
485.5595
 30
0.0
 11
55.90399999999999
 21
485.8254999999999
 31
0.0
  0
LINE
  5
291
330
1E
100
AcDbEntity
  8
0
100
AcDbLine
 10
51.07199999999999
 20
485.8604999999999
 30
0.0
 11
55.392
 21
486.1604999999999
 31
0.0
  0
LINE
  5
292
330
1E
100
AcDbEntity
  8
0
100
AcDbLine
 10
55.392
 20
486.1604999999999
 30
0.0
 11
60.0
 21
486.2734999999999
 31
0.0
  0
LINE
  5
293
330
1E
100
AcDbEntity
  8
0
100
AcDbLine
 10
52.06399999999999
 20
505.2554999999999
 30
0.0
 11
55.90399999999999
 21
505.5225
 31
0.0
  0
LINE
  5
294
330
1E
100
AcDbEntity
  8
0
100
AcDbLine
 10
51.07199999999999
 20
505.5565
 30
0.0
 11
55.392
 21
505.8564999999999
 31
0.0
  0
LINE
  5
295
330
1E
100
AcDbEntity
  8
0
100
AcDbLine
 10
55.392
 20
505.8564999999999
 30
0.0
 11
60.0
 21
505.9694999999999
 31
0.0
  0
LINE
  5
296
330
1E
100
AcDbEntity
  8
0
100
AcDbLine
 10
51.07199999999999
 20
495.7085
 30
0.0
 11
55.392
 21
496.0085
 31
0.0
  0
LINE
  5
297
330
1E
100
AcDbEntity
  8
0
100
AcDbLine
 10
55.392
 20
496.0085
 30
0.0
 11
60.0
 21
496.1215
 31
0.0
  0
LINE
  5
298
330
1E
100
AcDbEntity
  8
0
100
AcDbLine
 10
51.07199999999999
 20
476.0125
 30
0.0
 11
55.392
 21
476.3125
 31
0.0
  0
LINE
  5
299
330
1E
100
AcDbEntity
  8
0
100
AcDbLine
 10
55.392
 20
476.3125
 30
0.0
 11
60.0
 21
476.4255
 31
0.0
  0
LINE
  5
29A
330
1E
100
AcDbEntity
  8
0
100
AcDbLine
 10
51.07199999999999
 20
467.8215
 30
0.0
 11
55.392
 21
468.1215
 31
0.0
  0
LINE
  5
29B
330
1E
100
AcDbEntity
  8
0
100
AcDbLine
 10
55.90399999999999
 20
505.5225
 30
0.0
 11
60.0
 21
505.6225
 31
0.0
  0
LINE
  5
29C
330
1E
100
AcDbEntity
  8
0
100
AcDbLine
 10
55.90399999999999
 20
485.8254999999999
 30
0.0
 11
60.0
 21
485.9255
 31
0.0
  0
LINE
  5
29E
330
1E
100
AcDbEntity
  8
0
100
AcDbLine
 10
55.392
 20
468.1215
 30
0.0
 11
60.0
 21
468.2345
 31
0.0
  0
LINE
  5
2A0
330
1E
100
AcDbEntity
  8
0
100
AcDbLine
 10
51.04
 20
514.1395
 30
0.0
 11
60.0
 21
512.8985
 31
0.0
  0
LINE
  5
2A1
330
1E
100
AcDbEntity
  8
0
100
AcDbLine
 10
53.6
 20
524.3274999999999
 30
0.0
 11
60.0
 21
523.4415
 31
0.0
  0
LINE
  5
2A2
330
1E
100
AcDbEntity
  8
0
100
AcDbLine
 10
53.6
 20
571.7954999999999
 30
0.0
 11
60.0
 21
572.6815
 31
0.0
  0
LINE
  5
2A3
330
1E
100
AcDbEntity
  8
0
100
AcDbLine
 10
53.6
 20
573.7055
 30
0.0
 11
60.0
 21
574.5915
 31
0.0
  0
LINE
  5
2A4
330
1E
100
AcDbEntity
  8
0
100
AcDbLine
 10
53.6
 20
526.2374999999999
 30
0.0
 11
60.0
 21
525.3515
 31
0.0
  0
LINE
  5
2A5
330
1E
100
AcDbEntity
  8
0
100
AcDbLine
 10
51.04
 20
581.2885
 30
0.0
 11
60.0
 21
582.5294999999999
 31
0.0
  0
LINE
  5
2A6
330
1E
100
AcDbEntity
  8
0
100
AcDbLine
 10
51.04
 20
514.8345
 30
0.0
 11
60.0
 21
513.5934999999999
 31
0.0
  0
LINE
  5
2A7
330
1E
100
AcDbEntity
  8
0
100
AcDbLine
 10
71.884
 20
152.6135
 30
0.0
 11
71.884
 21
164.587
 31
0.0
  0
LINE
  5
2A8
330
1E
100
AcDbEntity
  8
0
100
AcDbLine
 10
73.616
 20
152.6135
 30
0.0
 11
73.616
 21
164.3856
 31
0.0
  0
LINE
  5
2A9
330
1E
100
AcDbEntity
  8
0
100
AcDbLine
 10
85.5
 20
152.6135
 30
0.0
 11
85.5
 21
160.2416
 31
0.0
  0
LINE
  5
2AA
330
1E
100
AcDbEntity
  8
0
100
AcDbLine
 10
95.0
 20
152.6135
 30
0.0
 11
95.0
 21
150.6135
 31
0.0
  0
LINE
  5
2AB
330
1E
100
AcDbEntity
  8
0
100
AcDbLine
 10
93.74
 20
152.6135
 30
0.0
 11
95.0
 21
152.6135
 31
0.0
  0
LINE
  5
2AC
330
1E
100
AcDbEntity
  8
0
100
AcDbLine
 10
90.38
 20
152.6135
 30
0.0
 11
93.74
 21
152.6135
 31
0.0
  0
LINE
  5
2AD
330
1E
100
AcDbEntity
  8
0
100
AcDbLine
 10
84.77999999999999
 20
152.6135
 30
0.0
 11
90.38
 21
152.6135
 31
0.0
  0
LINE
  5
2AE
330
1E
100
AcDbEntity
  8
0
100
AcDbLine
 10
77.36
 20
152.6135
 30
0.0
 11
84.77999999999999
 21
152.6135
 31
0.0
  0
LINE
  5
2AF
330
1E
100
AcDbEntity
  8
0
100
AcDbLine
 10
60.0
 20
310.8065
 30
0.0
 11
65.37600000000001
 21
310.6745
 31
0.0
  0
LINE
  5
2B0
330
1E
100
AcDbEntity
  8
0
100
AcDbLine
 10
60.0
 20
468.2345
 30
0.0
 11
64.608
 21
468.1215
 31
0.0
  0
LINE
  5
2B1
330
1E
100
AcDbEntity
  8
0
100
AcDbLine
 10
60.0
 20
466.5775
 30
0.0
 11
64.608
 21
466.4645
 31
0.0
  0
LINE
  5
2B2
330
1E
100
AcDbEntity
  8
0
100
AcDbLine
 10
60.0
 20
485.9255
 30
0.0
 11
64.09600000000001
 21
485.8254999999999
 31
0.0
  0
LINE
  5
2B3
330
1E
100
AcDbEntity
  8
0
100
AcDbLine
 10
60.0
 20
505.6225
 30
0.0
 11
64.09600000000001
 21
505.5225
 31
0.0
  0
LINE
  5
2B4
330
1E
100
AcDbEntity
  8
0
100
AcDbLine
 10
60.0
 20
505.9694999999999
 30
0.0
 11
64.608
 21
505.8564999999999
 31
0.0
  0
LINE
  5
2B5
330
1E
100
AcDbEntity
  8
0
100
AcDbLine
 10
60.0
 20
486.2734999999999
 30
0.0
 11
64.608
 21
486.1604999999999
 31
0.0
  0
LINE
  5
2B6
330
1E
100
AcDbEntity
  8
0
100
AcDbLine
 10
60.0
 20
496.1215
 30
0.0
 11
64.608
 21
496.0085
 31
0.0
  0
LINE
  5
2B7
330
1E
100
AcDbEntity
  8
0
100
AcDbLine
 10
60.0
 20
476.4255
 30
0.0
 11
64.608
 21
476.3125
 31
0.0
  0
LINE
  5
2B8
330
1E
100
AcDbEntity
  8
0
100
AcDbLine
 10
60.0
 20
506.2384999999999
 30
0.0
 11
70.24
 21
507.6565
 31
0.0
  0
LINE
  5
2B9
330
1E
100
AcDbEntity
  8
0
100
AcDbLine
 10
60.0
 20
512.8985
 30
0.0
 11
68.95999999999999
 21
514.1395
 31
0.0
  0
LINE
  5
2BA
330
1E
100
AcDbEntity
  8
0
100
AcDbLine
 10
60.0
 20
523.4415
 30
0.0
 11
66.4
 21
524.3274999999999
 31
0.0
  0
LINE
  5
2BB
330
1E
100
AcDbEntity
  8
0
100
AcDbLine
 10
60.0
 20
525.3515
 30
0.0
 11
66.4
 21
526.2374999999999
 31
0.0
  0
LINE
  5
2BC
330
1E
100
AcDbEntity
  8
0
100
AcDbLine
 10
60.0
 20
572.6815
 30
0.0
 11
66.4
 21
571.7954999999999
 31
0.0
  0
LINE
  5
2BD
330
1E
100
AcDbEntity
  8
0
100
AcDbLine
 10
60.0
 20
574.5915
 30
0.0
 11
66.4
 21
573.7055
 31
0.0
  0
LINE
  5
2BE
330
1E
100
AcDbEntity
  8
0
100
AcDbLine
 10
60.0
 20
513.5934999999999
 30
0.0
 11
68.95999999999999
 21
514.8345
 31
0.0
  0
LINE
  5
2BF
330
1E
100
AcDbEntity
  8
0
100
AcDbLine
 10
60.0
 20
582.5294999999999
 30
0.0
 11
68.95999999999999
 21
581.2885
 31
0.0
  0
LINE
  5
2C0
330
1E
100
AcDbEntity
  8
0
100
AcDbLine
 10
60.0
 20
507.2795
 30
0.0
 11
70.24
 21
508.6985
 31
0.0
  0
LINE
  5
2C1
330
1E
100
AcDbEntity
  8
0
100
AcDbLine
 10
65.888
 20
164.5040999999999
 30
0.0
 11
70.5660766167491
 21
164.127396185481
 31
0.0
  0
LINE
  5
2C2
330
1E
100
AcDbEntity
  8
0
100
AcDbLine
 10
65.888
 20
203.5168
 30
0.0
 11
71.408
 21
203.1334
 31
0.0
  0
LINE
  5
2C3
330
1E
100
AcDbEntity
  8
0
100
AcDbLine
 10
65.888
 20
217.3041
 30
0.0
 11
70.56586202927601
 21
216.979191974271
 31
0.0
  0
LINE
  5
2C4
330
1E
100
AcDbEntity
  8
0
100
AcDbLine
 10
66.65600000000001
 20
217.8062999999999
 30
0.0
 11
72.896
 21
217.3728999999999
 31
0.0
  0
LINE
  5
2C7
330
1E
100
AcDbEntity
  8
0
100
AcDbLine
 10
65.37600000000001
 20
310.6745
 30
0.0
 11
70.41599999999999
 21
310.3245
 31
0.0
  0
LINE
  5
2CA
330
1E
100
AcDbEntity
  8
0
100
AcDbLine
 10
65.888
 20
261.7694999999999
 30
0.0
 11
71.408
 21
261.3855
 31
0.0
  0
LINE
  5
2CB
330
1E
100
AcDbEntity
  8
0
100
AcDbLine
 10
65.888
 20
291.3135
 30
0.0
 11
71.408
 21
290.9304999999999
 31
0.0
  0
LINE
  5
2CD
330
1E
100
AcDbEntity
  8
0
100
AcDbLine
 10
66.65600000000001
 20
219.7759999999999
 30
0.0
 11
72.896
 21
219.3424999999999
 31
0.0
  0
LINE
  5
2D0
330
1E
100
AcDbEntity
  8
0
100
AcDbLine
 10
68.928
 20
466.1645
 30
0.0
 11
72.74399999999999
 21
465.6645
 31
0.0
  0
LINE
  5
2D1
330
1E
100
AcDbEntity
  8
0
100
AcDbLine
 10
68.928
 20
467.8215
 30
0.0
 11
72.74399999999999
 21
467.3214999999999
 31
0.0
  0
LINE
  5
2D2
330
1E
100
AcDbEntity
  8
0
100
AcDbLine
 10
64.608
 20
468.1215
 30
0.0
 11
68.928
 21
467.8215
 31
0.0
  0
LINE
  5
2D3
330
1E
100
AcDbEntity
  8
0
100
AcDbLine
 10
64.608
 20
466.4645
 30
0.0
 11
68.928
 21
466.1645
 31
0.0
  0
LINE
  5
2D6
330
1E
100
AcDbEntity
  8
0
100
AcDbLine
 10
68.928
 20
476.0125
 30
0.0
 11
72.74399999999999
 21
475.5124999999999
 31
0.0
  0
LINE
  5
2D7
330
1E
100
AcDbEntity
  8
0
100
AcDbLine
 10
64.09600000000001
 20
485.8254999999999
 30
0.0
 11
67.93600000000001
 21
485.5595
 31
0.0
  0
LINE
  5
2D8
330
1E
100
AcDbEntity
  8
0
100
AcDbLine
 10
64.09600000000001
 20
505.5225
 30
0.0
 11
67.93600000000001
 21
505.2554999999999
 31
0.0
  0
LINE
  5
2D9
330
1E
100
AcDbEntity
  8
0
100
AcDbLine
 10
64.608
 20
505.8564999999999
 30
0.0
 11
68.928
 21
505.5565
 31
0.0
  0
LINE
  5
2DA
330
1E
100
AcDbEntity
  8
0
100
AcDbLine
 10
64.608
 20
486.1604999999999
 30
0.0
 11
68.928
 21
485.8604999999999
 31
0.0
  0
LINE
  5
2DB
330
1E
100
AcDbEntity
  8
0
100
AcDbLine
 10
67.93600000000001
 20
485.5595
 30
0.0
 11
71.328
 21
485.1145
 31
0.0
  0
LINE
  5
2DC
330
1E
100
AcDbEntity
  8
0
100
AcDbLine
 10
68.928
 20
485.8604999999999
 30
0.0
 11
72.74399999999999
 21
485.3604999999999
 31
0.0
  0
LINE
  5
2DD
330
1E
100
AcDbEntity
  8
0
100
AcDbLine
 10
67.93600000000001
 20
505.2554999999999
 30
0.0
 11
71.328
 21
504.8104999999999
 31
0.0
  0
LINE
  5
2DE
330
1E
100
AcDbEntity
  8
0
100
AcDbLine
 10
68.928
 20
505.5565
 30
0.0
 11
72.74399999999999
 21
505.0565
 31
0.0
  0
LINE
  5
2DF
330
1E
100
AcDbEntity
  8
0
100
AcDbLine
 10
68.928
 20
495.7085
 30
0.0
 11
72.74399999999999
 21
495.2085
 31
0.0
  0
LINE
  5
2E0
330
1E
100
AcDbEntity
  8
0
100
AcDbLine
 10
64.608
 20
496.0085
 30
0.0
 11
68.928
 21
495.7085
 31
0.0
  0
LINE
  5
2E1
330
1E
100
AcDbEntity
  8
0
100
AcDbLine
 10
64.608
 20
476.3125
 30
0.0
 11
68.928
 21
476.0125
 31
0.0
  0
LINE
  5
2E2
330
1E
100
AcDbEntity
  8
0
100
AcDbLine
 10
70.5660766167491
 20
164.127396185481
 30
0.0
 11
71.884
 21
164.587
 31
0.0
  0
LINE
  5
2E3
330
1E
100
AcDbEntity
  8
0
100
AcDbLine
 10
71.884
 20
164.587
 30
0.0
 11
71.884
 21
152.6135
 31
0.0
  0
LINE
  5
2E4
330
1E
100
AcDbEntity
  8
0
100
AcDbLine
 10
71.884
 20
164.587
 30
0.0
 11
73.616
 21
164.3856
 31
0.0
  0
LINE
  5
2E5
330
1E
100
AcDbEntity
  8
0
100
AcDbLine
 10
72.116
 20
202.9635
 30
0.0
 11
73.616
 21
203.4146999999999
 31
0.0
  0
LINE
  5
2E6
330
1E
100
AcDbEntity
  8
0
100
AcDbLine
 10
70.384
 20
203.2045234782609
 30
0.0
 11
70.384
 21
203.1372
 31
0.0
  0
LINE
  5
2E7
330
1E
100
AcDbEntity
  8
0
100
AcDbLine
 10
70.384
 20
203.1372
 30
0.0
 11
70.384
 21
203.2045234782609
 31
0.0
  0
LINE
  5
2E8
330
1E
100
AcDbEntity
  8
0
100
AcDbLine
 10
70.384
 20
203.1372
 30
0.0
 11
71.884
 21
203.5883
 31
0.0
  0
LINE
  5
2E9
330
1E
100
AcDbEntity
  8
0
100
AcDbLine
 10
70.384
 20
203.1372
 30
0.0
 11
72.116
 21
202.9635
 31
0.0
  0
LINE
  5
2EA
330
1E
100
AcDbEntity
  8
0
100
AcDbLine
 10
70.56586202927601
 20
216.979191974271
 30
0.0
 11
71.884
 21
217.3756
 31
0.0
  0
LINE
  5
2EB
330
1E
100
AcDbEntity
  8
0
100
AcDbLine
 10
71.884
 20
203.5883
 30
0.0
 11
71.884
 21
217.3756
 31
0.0
  0
LINE
  5
2EC
330
1E
100
AcDbEntity
  8
0
100
AcDbLine
 10
71.884
 20
203.5883
 30
0.0
 11
73.616
 21
203.4146999999999
 31
0.0
  0
LINE
  5
2ED
330
1E
100
AcDbEntity
  8
0
100
AcDbLine
 10
71.884
 20
217.3756
 30
0.0
 11
73.616
 21
217.2019999999999
 31
0.0
  0
LINE
  5
2EE
330
1E
100
AcDbEntity
  8
0
100
AcDbLine
 10
71.884
 20
217.3756
 30
0.0
 11
71.884
 21
203.5883
 31
0.0
  0
LINE
  5
2EF
330
1E
100
AcDbEntity
  8
0
100
AcDbLine
 10
71.408
 20
203.1334
 30
0.0
 11
76.28399999999999
 21
202.4944
 31
0.0
  0
LINE
  5
2F0
330
1E
100
AcDbEntity
  8
0
100
AcDbLine
 10
73.616
 20
164.3856
 30
0.0
 11
73.616
 21
152.6135
 31
0.0
  0
LINE
  5
2F1
330
1E
100
AcDbEntity
  8
0
100
AcDbLine
 10
73.616
 20
163.724098113208
 30
0.0
 11
76.28399999999999
 21
163.3187
 31
0.0
  0
LINE
  5
2F2
330
1E
100
AcDbEntity
  8
0
100
AcDbLine
 10
76.28399999999999
 20
163.3187
 30
0.0
 11
79.964
 21
162.337
 31
0.0
  0
LINE
  5
2F3
330
1E
100
AcDbEntity
  8
0
100
AcDbLine
 10
73.616
 20
203.4146999999999
 30
0.0
 11
73.616
 21
217.2019999999999
 31
0.0
  0
LINE
  5
2F4
330
1E
100
AcDbEntity
  8
0
100
AcDbLine
 10
76.28399999999999
 20
202.4944
 30
0.0
 11
79.964
 21
201.6477
 31
0.0
  0
LINE
  5
2F5
330
1E
100
AcDbEntity
  8
0
100
AcDbLine
 10
73.616
 20
216.6313415094339
 30
0.0
 11
76.28399999999999
 21
216.2816999999999
 31
0.0
  0
LINE
  5
2F6
330
1E
100
AcDbEntity
  8
0
100
AcDbLine
 10
76.28399999999999
 20
216.2816999999999
 30
0.0
 11
79.964
 21
215.4349999999999
 31
0.0
  0
LINE
  5
2F7
330
1E
100
AcDbEntity
  8
0
100
AcDbLine
 10
72.896
 20
217.3728999999999
 30
0.0
 11
78.408
 21
216.6504999999999
 31
0.0
  0
LINE
  5
2F9
330
1E
100
AcDbEntity
  8
0
100
AcDbLine
 10
70.41599999999999
 20
310.3245
 30
0.0
 11
74.86799999999999
 21
309.7414999999999
 31
0.0
  0
LINE
  5
2FC
330
1E
100
AcDbEntity
  8
0
100
AcDbLine
 10
71.408
 20
261.3855
 30
0.0
 11
76.28399999999999
 21
260.7465
 31
0.0
  0
LINE
  5
300
330
1E
100
AcDbEntity
  8
0
100
AcDbLine
 10
76.28399999999999
 20
260.7465
 30
0.0
 11
79.964
 21
259.9005
 31
0.0
  0
LINE
  5
302
330
1E
100
AcDbEntity
  8
0
100
AcDbLine
 10
74.86799999999999
 20
309.7414999999999
 30
0.0
 11
78.228
 21
308.9685
 31
0.0
  0
LINE
  5
304
330
1E
100
AcDbEntity
  8
0
100
AcDbLine
 10
76.28399999999999
 20
290.2914999999999
 30
0.0
 11
79.964
 21
289.4445
 31
0.0
  0
LINE
  5
306
330
1E
100
AcDbEntity
  8
0
100
AcDbLine
 10
71.408
 20
290.9304999999999
 30
0.0
 11
76.28399999999999
 21
290.2914999999999
 31
0.0
  0
LINE
  5
308
330
1E
100
AcDbEntity
  8
0
100
AcDbLine
 10
72.896
 20
219.3424999999999
 30
0.0
 11
78.408
 21
218.6201
 31
0.0
  0
LINE
  5
309
330
1E
100
AcDbEntity
  8
0
100
AcDbLine
 10
78.408
 20
216.6504999999999
 30
0.0
 11
82.568
 21
215.6934
 31
0.0
  0
LINE
  5
30B
330
1E
100
AcDbEntity
  8
0
100
AcDbLine
 10
78.228
 20
308.9685
 30
0.0
 11
80.24399999999999
 21
308.0935
 31
0.0
  0
LINE
  5
30E
330
1E
100
AcDbEntity
  8
0
100
AcDbLine
 10
78.408
 20
218.6201
 30
0.0
 11
82.568
 21
217.6629999999999
 31
0.0
  0
LINE
  5
30F
330
1E
100
AcDbEntity
  8
0
100
AcDbLine
 10
78.0
 20
309.020953571429
 30
0.0
 11
78.0
 21
465.1085
 31
0.0
  0
LINE
  5
310
330
1E
100
AcDbEntity
  8
0
100
AcDbLine
 10
75.624
 20
465.0015
 30
0.0
 11
77.352
 21
464.2515
 31
0.0
  0
LINE
  5
311
330
1E
100
AcDbEntity
  8
0
100
AcDbLine
 10
75.624
 20
466.6585
 30
0.0
 11
77.352
 21
465.9085
 31
0.0
  0
LINE
  5
312
330
1E
100
AcDbEntity
  8
0
100
AcDbLine
 10
72.74399999999999
 20
467.3214999999999
 30
0.0
 11
75.624
 21
466.6585
 31
0.0
  0
LINE
  5
313
330
1E
100
AcDbEntity
  8
0
100
AcDbLine
 10
72.74399999999999
 20
465.6645
 30
0.0
 11
75.624
 21
465.0015
 31
0.0
  0
LINE
  5
314
330
1E
100
AcDbEntity
  8
0
100
AcDbLine
 10
77.352
 20
465.9085
 30
0.0
 11
78.0
 21
465.1085
 31
0.0
  0
LINE
  5
315
330
1E
100
AcDbEntity
  8
0
100
AcDbLine
 10
77.352
 20
464.2515
 30
0.0
 11
78.0
 21
463.4515
 31
0.0
  0
LINE
  5
316
330
1E
100
AcDbEntity
  8
0
100
AcDbLine
 10
78.0
 20
463.4515
 30
0.0
 11
78.0
 21
473.2995
 31
0.0
  0
LINE
  5
317
330
1E
100
AcDbEntity
  8
0
100
AcDbLine
 10
76.0
 20
474.686305555556
 30
0.0
 11
76.0
 21
483.1475
 31
0.0
  0
LINE
  5
318
330
1E
100
AcDbEntity
  8
0
100
AcDbLine
 10
77.352
 20
474.0994999999999
 30
0.0
 11
78.0
 21
473.2995
 31
0.0
  0
LINE
  5
319
330
1E
100
AcDbEntity
  8
0
100
AcDbLine
 10
75.624
 20
474.8495
 30
0.0
 11
77.352
 21
474.0994999999999
 31
0.0
  0
LINE
  5
31A
330
1E
100
AcDbEntity
  8
0
100
AcDbLine
 10
75.42399999999999
 20
483.8585
 30
0.0
 11
76.0
 21
483.1475
 31
0.0
  0
LINE
  5
31B
330
1E
100
AcDbEntity
  8
0
100
AcDbLine
 10
73.888
 20
484.5255
 30
0.0
 11
75.42399999999999
 21
483.8585
 31
0.0
  0
LINE
  5
31C
330
1E
100
AcDbEntity
  8
0
100
AcDbLine
 10
71.328
 20
485.1145
 30
0.0
 11
73.888
 21
484.5255
 31
0.0
  0
LINE
  5
31D
330
1E
100
AcDbEntity
  8
0
100
AcDbLine
 10
75.624
 20
484.6974999999999
 30
0.0
 11
77.352
 21
483.9475
 31
0.0
  0
LINE
  5
31E
330
1E
100
AcDbEntity
  8
0
100
AcDbLine
 10
72.74399999999999
 20
485.3604999999999
 30
0.0
 11
75.624
 21
484.6974999999999
 31
0.0
  0
LINE
  5
31F
330
1E
100
AcDbEntity
  8
0
100
AcDbLine
 10
76.0
 20
494.3823055555561
 30
0.0
 11
76.0
 21
502.8434999999999
 31
0.0
  0
LINE
  5
320
330
1E
100
AcDbEntity
  8
0
100
AcDbLine
 10
76.0
 20
483.1475
 30
0.0
 11
76.0
 21
474.686305555556
 31
0.0
  0
LINE
  5
321
330
1E
100
AcDbEntity
  8
0
100
AcDbLine
 10
75.624
 20
494.5454999999999
 30
0.0
 11
77.352
 21
493.7955
 31
0.0
  0
LINE
  5
322
330
1E
100
AcDbEntity
  8
0
100
AcDbLine
 10
75.42399999999999
 20
503.5544999999999
 30
0.0
 11
76.0
 21
502.8434999999999
 31
0.0
  0
LINE
  5
323
330
1E
100
AcDbEntity
  8
0
100
AcDbLine
 10
73.888
 20
504.2214999999999
 30
0.0
 11
75.42399999999999
 21
503.5544999999999
 31
0.0
  0
LINE
  5
324
330
1E
100
AcDbEntity
  8
0
100
AcDbLine
 10
71.328
 20
504.8104999999999
 30
0.0
 11
73.888
 21
504.2214999999999
 31
0.0
  0
LINE
  5
325
330
1E
100
AcDbEntity
  8
0
100
AcDbLine
 10
76.0
 20
502.8434999999999
 30
0.0
 11
76.0
 21
494.3823055555561
 31
0.0
  0
LINE
  5
326
330
1E
100
AcDbEntity
  8
0
100
AcDbLine
 10
75.624
 20
504.3944999999999
 30
0.0
 11
77.352
 21
503.6434999999999
 31
0.0
  0
LINE
  5
327
330
1E
100
AcDbEntity
  8
0
100
AcDbLine
 10
72.74399999999999
 20
505.0565
 30
0.0
 11
75.624
 21
504.3944999999999
 31
0.0
  0
LINE
  5
328
330
1E
100
AcDbEntity
  8
0
100
AcDbLine
 10
76.0
 20
501.456694444444
 30
0.0
 11
77.352
 21
502.0434999999999
 31
0.0
  0
LINE
  5
329
330
1E
100
AcDbEntity
  8
0
100
AcDbLine
 10
72.74399999999999
 20
495.2085
 30
0.0
 11
75.624
 21
494.5454999999999
 31
0.0
  0
LINE
  5
32A
330
1E
100
AcDbEntity
  8
0
100
AcDbLine
 10
77.352
 20
483.9475
 30
0.0
 11
78.0
 21
483.1475
 31
0.0
  0
LINE
  5
32B
330
1E
100
AcDbEntity
  8
0
100
AcDbLine
 10
78.0
 20
483.1475
 30
0.0
 11
78.0
 21
492.9954999999999
 31
0.0
  0
LINE
  5
32C
330
1E
100
AcDbEntity
  8
0
100
AcDbLine
 10
77.352
 20
503.6434999999999
 30
0.0
 11
78.0
 21
502.8434999999999
 31
0.0
  0
LINE
  5
32D
330
1E
100
AcDbEntity
  8
0
100
AcDbLine
 10
78.0
 20
502.8434999999999
 30
0.0
 11
78.0
 21
510.7128083333329
 31
0.0
  0
LINE
  5
32E
330
1E
100
AcDbEntity
  8
0
100
AcDbLine
 10
77.352
 20
502.0434999999999
 30
0.0
 11
78.0
 21
502.8434999999999
 31
0.0
  0
LINE
  5
32F
330
1E
100
AcDbEntity
  8
0
100
AcDbLine
 10
77.352
 20
493.7955
 30
0.0
 11
78.0
 21
492.9954999999999
 31
0.0
  0
LINE
  5
330
330
1E
100
AcDbEntity
  8
0
100
AcDbLine
 10
78.0
 20
492.9954999999999
 30
0.0
 11
78.0
 21
483.1475
 31
0.0
  0
LINE
  5
331
330
1E
100
AcDbEntity
  8
0
100
AcDbLine
 10
77.352
 20
482.3475
 30
0.0
 11
78.0
 21
483.1475
 31
0.0
  0
LINE
  5
332
330
1E
100
AcDbEntity
  8
0
100
AcDbLine
 10
76.0
 20
481.7606944444439
 30
0.0
 11
77.352
 21
482.3475
 31
0.0
  0
LINE
  5
333
330
1E
100
AcDbEntity
  8
0
100
AcDbLine
 10
72.74399999999999
 20
475.5124999999999
 30
0.0
 11
75.624
 21
474.8495
 31
0.0
  0
LINE
  5
334
330
1E
100
AcDbEntity
  8
0
100
AcDbLine
 10
78.0
 20
473.2995
 30
0.0
 11
78.0
 21
463.4515
 31
0.0
  0
LINE
  5
335
330
1E
100
AcDbEntity
  8
0
100
AcDbLine
 10
70.24
 20
507.6565
 30
0.0
 11
79.84
 21
511.4374999999999
 31
0.0
  0
LINE
  5
336
330
1E
100
AcDbEntity
  8
0
100
AcDbLine
 10
78.0
 20
510.7128083333329
 30
0.0
 11
78.0
 21
502.8434999999999
 31
0.0
  0
LINE
  5
337
330
1E
100
AcDbEntity
  8
0
100
AcDbLine
 10
68.95999999999999
 20
514.1395
 30
0.0
 11
77.36
 21
517.4484999999999
 31
0.0
  0
LINE
  5
338
330
1E
100
AcDbEntity
  8
0
100
AcDbLine
 10
66.4
 20
524.3274999999999
 30
0.0
 11
72.40000000000001
 21
526.6915
 31
0.0
  0
LINE
  5
339
330
1E
100
AcDbEntity
  8
0
100
AcDbLine
 10
66.4
 20
526.2374999999999
 30
0.0
 11
72.40000000000001
 21
528.6014999999999
 31
0.0
  0
LINE
  5
33A
330
1E
100
AcDbEntity
  8
0
100
AcDbLine
 10
66.4
 20
571.7954999999999
 30
0.0
 11
72.40000000000001
 21
569.4315
 31
0.0
  0
LINE
  5
33B
330
1E
100
AcDbEntity
  8
0
100
AcDbLine
 10
66.4
 20
573.7055
 30
0.0
 11
72.40000000000001
 21
571.3415
 31
0.0
  0
LINE
  5
33C
330
1E
100
AcDbEntity
  8
0
100
AcDbLine
 10
68.95999999999999
 20
514.8345
 30
0.0
 11
77.36
 21
518.1435
 31
0.0
  0
LINE
  5
33D
330
1E
100
AcDbEntity
  8
0
100
AcDbLine
 10
72.40000000000001
 20
526.6915
 30
0.0
 11
77.7
 21
530.6305
 31
0.0
  0
LINE
  5
33E
330
1E
100
AcDbEntity
  8
0
100
AcDbLine
 10
72.40000000000001
 20
528.6014999999999
 30
0.0
 11
77.7
 21
532.5404999999999
 31
0.0
  0
LINE
  5
33F
330
1E
100
AcDbEntity
  8
0
100
AcDbLine
 10
72.40000000000001
 20
569.4315
 30
0.0
 11
77.7
 21
565.4924999999999
 31
0.0
  0
LINE
  5
340
330
1E
100
AcDbEntity
  8
0
100
AcDbLine
 10
72.40000000000001
 20
571.3415
 30
0.0
 11
77.7
 21
567.4025
 31
0.0
  0
LINE
  5
341
330
1E
100
AcDbEntity
  8
0
100
AcDbLine
 10
77.36
 20
517.4484999999999
 30
0.0
 11
84.77999999999999
 21
522.9635
 31
0.0
  0
LINE
  5
342
330
1E
100
AcDbEntity
  8
0
100
AcDbLine
 10
77.7
 20
530.6305
 30
0.0
 11
81.69999999999999
 21
535.8495
 31
0.0
  0
LINE
  5
343
330
1E
100
AcDbEntity
  8
0
100
AcDbLine
 10
77.7
 20
532.5404999999999
 30
0.0
 11
81.69999999999999
 21
537.7595
 31
0.0
  0
LINE
  5
344
330
1E
100
AcDbEntity
  8
0
100
AcDbLine
 10
77.7
 20
565.4924999999999
 30
0.0
 11
81.69999999999999
 21
560.2735
 31
0.0
  0
LINE
  5
345
330
1E
100
AcDbEntity
  8
0
100
AcDbLine
 10
77.7
 20
567.4025
 30
0.0
 11
81.69999999999999
 21
562.1834999999999
 31
0.0
  0
LINE
  5
346
330
1E
100
AcDbEntity
  8
0
100
AcDbLine
 10
77.36
 20
518.1435
 30
0.0
 11
84.77999999999999
 21
523.6575
 31
0.0
  0
LINE
  5
347
330
1E
100
AcDbEntity
  8
0
100
AcDbLine
 10
77.36
 20
577.9795
 30
0.0
 11
84.77999999999999
 21
572.4655
 31
0.0
  0
LINE
  5
348
330
1E
100
AcDbEntity
  8
0
100
AcDbLine
 10
68.95999999999999
 20
581.2885
 30
0.0
 11
77.36
 21
577.9795
 31
0.0
  0
LINE
  5
349
330
1E
100
AcDbEntity
  8
0
100
AcDbLine
 10
79.84
 20
511.4374999999999
 30
0.0
 11
88.31999999999998
 21
517.7405
 31
0.0
  0
LINE
  5
34A
330
1E
100
AcDbEntity
  8
0
100
AcDbLine
 10
79.84
 20
512.4795
 30
0.0
 11
88.31999999999998
 21
518.7825
 31
0.0
  0
LINE
  5
34B
330
1E
100
AcDbEntity
  8
0
100
AcDbLine
 10
70.24
 20
508.6985
 30
0.0
 11
79.84
 21
512.4795
 31
0.0
  0
LINE
  5
34C
330
1E
100
AcDbEntity
  8
0
100
AcDbLine
 10
80.0
 20
162.318880978261
 30
0.0
 11
80.0
 21
199.6667
 31
0.0
  0
LINE
  5
34D
330
1E
100
AcDbEntity
  8
0
100
AcDbLine
 10
80.0
 20
162.318880978261
 30
0.0
 11
80.0
 21
199.6667
 31
0.0
  0
LINE
  5
34E
330
1E
100
AcDbEntity
  8
0
100
AcDbLine
 10
79.964
 20
162.337
 30
0.0
 11
82.17200000000001
 21
161.2256999999999
 31
0.0
  0
LINE
  5
34F
330
1E
100
AcDbEntity
  8
0
100
AcDbLine
 10
82.17200000000001
 20
161.2256999999999
 30
0.0
 11
82.85939227265059
 21
160.2416
 31
0.0
  0
LINE
  5
350
330
1E
100
AcDbEntity
  8
0
100
AcDbLine
 10
80.0
 20
197.701329347826
 30
0.0
 11
82.17200000000001
 21
198.6442999999999
 31
0.0
  0
LINE
  5
351
330
1E
100
AcDbEntity
  8
0
100
AcDbLine
 10
82.17200000000001
 20
198.6442999999999
 30
0.0
 11
83.0
 21
199.6667
 31
0.0
  0
LINE
  5
352
330
1E
100
AcDbEntity
  8
0
100
AcDbLine
 10
79.964
 20
201.6477
 30
0.0
 11
82.17200000000001
 21
200.6890999999999
 31
0.0
  0
LINE
  5
353
330
1E
100
AcDbEntity
  8
0
100
AcDbLine
 10
82.17200000000001
 20
200.6890999999999
 30
0.0
 11
83.0
 21
199.6667
 31
0.0
  0
LINE
  5
354
330
1E
100
AcDbEntity
  8
0
100
AcDbLine
 10
79.964
 20
215.4349999999999
 30
0.0
 11
82.17200000000001
 21
214.4765
 31
0.0
  0
LINE
  5
355
330
1E
100
AcDbEntity
  8
0
100
AcDbLine
 10
82.85939227265059
 20
160.2416
 30
0.0
 11
85.5
 21
160.2416
 31
0.0
  0
LINE
  5
356
330
1E
100
AcDbEntity
  8
0
100
AcDbLine
 10
82.5
 20
199.4931
 30
0.0
 11
85.5
 21
199.4931
 31
0.0
  0
LINE
  5
357
330
1E
100
AcDbEntity
  8
0
100
AcDbLine
 10
82.5
 20
199.4931
 30
0.0
 11
82.5
 21
199.8403999999999
 31
0.0
  0
LINE
  5
358
330
1E
100
AcDbEntity
  8
0
100
AcDbLine
 10
82.85934122249379
 20
213.6277
 30
0.0
 11
85.5
 21
213.6277
 31
0.0
  0
LINE
  5
359
330
1E
100
AcDbEntity
  8
0
100
AcDbLine
 10
82.5
 20
199.8403999999999
 30
0.0
 11
85.5
 21
199.8403999999999
 31
0.0
  0
LINE
  5
35A
330
1E
100
AcDbEntity
  8
0
100
AcDbLine
 10
82.5
 20
199.8403999999999
 30
0.0
 11
82.5
 21
199.4931
 31
0.0
  0
LINE
  5
35B
330
1E
100
AcDbEntity
  8
0
100
AcDbLine
 10
82.17200000000001
 20
214.4765
 30
0.0
 11
82.85934122249379
 21
213.6277
 31
0.0
  0
LINE
  5
35C
330
1E
100
AcDbEntity
  8
0
100
AcDbLine
 10
82.568
 20
215.6934
 30
0.0
 11
85.06399999999999
 21
214.6098
 31
0.0
  0
LINE
  5
35D
330
1E
100
AcDbEntity
  8
0
100
AcDbLine
 10
85.5
 20
160.2416
 30
0.0
 11
85.5
 21
152.6135
 31
0.0
  0
LINE
  5
35E
330
1E
100
AcDbEntity
  8
0
100
AcDbLine
 10
85.5
 20
199.4931
 30
0.0
 11
85.5
 21
199.8403999999999
 31
0.0
  0
LINE
  5
35F
330
1E
100
AcDbEntity
  8
0
100
AcDbLine
 10
85.5
 20
213.6277
 30
0.0
 11
85.5
 21
199.8403999999999
 31
0.0
  0
LINE
  5
360
330
1E
100
AcDbEntity
  8
0
100
AcDbLine
 10
85.5
 20
199.8403999999999
 30
0.0
 11
85.5
 21
213.6277
 31
0.0
  0
LINE
  5
361
330
1E
100
AcDbEntity
  8
0
100
AcDbLine
 10
85.5
 20
199.8403999999999
 30
0.0
 11
85.5
 21
199.4931
 31
0.0
  0
LINE
  5
362
330
1E
100
AcDbEntity
  8
0
100
AcDbLine
 10
86.0
 20
213.454
 30
0.0
 11
86.0
 21
215.4236
 31
0.0
  0
LINE
  5
363
330
1E
100
AcDbEntity
  8
0
100
AcDbLine
 10
85.5
 20
212.836585470085
 30
0.0
 11
86.0
 21
213.454
 31
0.0
  0
LINE
  5
364
330
1E
100
AcDbEntity
  8
0
100
AcDbLine
 10
86.0
 20
215.4236
 30
0.0
 11
86.0
 21
213.454
 31
0.0
  0
LINE
  5
365
330
1E
100
AcDbEntity
  8
0
100
AcDbLine
 10
85.06399999999999
 20
214.6098
 30
0.0
 11
86.0
 21
213.454
 31
0.0
  0
LINE
  5
367
330
1E
100
AcDbEntity
  8
0
100
AcDbLine
 10
79.964
 20
259.9005
 30
0.0
 11
82.17200000000001
 21
258.9415
 31
0.0
  0
LINE
  5
368
330
1E
100
AcDbEntity
  8
0
100
AcDbLine
 10
79.964
 20
289.4445
 30
0.0
 11
82.17200000000001
 21
288.4854999999999
 31
0.0
  0
LINE
  5
36C
330
1E
100
AcDbEntity
  8
0
100
AcDbLine
 10
80.0
 20
255.954119565217
 30
0.0
 11
82.17200000000001
 21
256.8964999999999
 31
0.0
  0
LINE
  5
36D
330
1E
100
AcDbEntity
  8
0
100
AcDbLine
 10
81.0
 20
288.9945344202899
 30
0.0
 11
81.0
 21
307.1594999999999
 31
0.0
  0
LINE
  5
36F
330
1E
100
AcDbEntity
  8
0
100
AcDbLine
 10
80.24399999999999
 20
308.0935
 30
0.0
 11
81.0
 21
307.1594999999999
 31
0.0
  0
LINE
  5
371
330
1E
100
AcDbEntity
  8
0
100
AcDbLine
 10
81.0
 20
307.1594999999999
 30
0.0
 11
81.0
 21
288.9945344202899
 31
0.0
  0
LINE
  5
373
330
1E
100
AcDbEntity
  8
0
100
AcDbLine
 10
82.17200000000001
 20
258.9415
 30
0.0
 11
83.0
 21
257.9195
 31
0.0
  0
LINE
  5
374
330
1E
100
AcDbEntity
  8
0
100
AcDbLine
 10
82.17200000000001
 20
288.4854999999999
 30
0.0
 11
83.0
 21
287.4634999999999
 31
0.0
  0
LINE
  5
376
330
1E
100
AcDbEntity
  8
0
100
AcDbLine
 10
82.17200000000001
 20
256.8964999999999
 30
0.0
 11
83.0
 21
257.9195
 31
0.0
  0
LINE
  5
377
330
1E
100
AcDbEntity
  8
0
100
AcDbLine
 10
80.0
 20
218.253825192308
 30
0.0
 11
80.0
 21
257.9195
 31
0.0
  0
LINE
  5
378
330
1E
100
AcDbEntity
  8
0
100
AcDbLine
 10
80.0
 20
218.253825192308
 30
0.0
 11
80.0
 21
257.9195
 31
0.0
  0
LINE
  5
379
330
1E
100
AcDbEntity
  8
0
100
AcDbLine
 10
83.0
 20
257.9195
 30
0.0
 11
83.0
 21
287.4634999999999
 31
0.0
  0
LINE
  5
37A
330
1E
100
AcDbEntity
  8
0
100
AcDbLine
 10
83.0
 20
287.4634999999999
 30
0.0
 11
83.0
 21
257.9195
 31
0.0
  0
LINE
  5
37B
330
1E
100
AcDbEntity
  8
0
100
AcDbLine
 10
82.568
 20
217.6629999999999
 30
0.0
 11
85.06399999999999
 21
216.5793999999999
 31
0.0
  0
LINE
  5
37C
330
1E
100
AcDbEntity
  8
0
100
AcDbLine
 10
85.06399999999999
 20
216.5793999999999
 30
0.0
 11
86.0
 21
215.4236
 31
0.0
  0
LINE
  5
37D
330
1E
100
AcDbEntity
  8
0
100
AcDbLine
 10
88.31999999999998
 20
517.7405
 30
0.0
 11
94.71999999999999
 21
526.0914999999999
 31
0.0
  0
LINE
  5
37E
330
1E
100
AcDbEntity
  8
0
100
AcDbLine
 10
84.77999999999999
 20
522.9635
 30
0.0
 11
90.38
 21
530.2704999999999
 31
0.0
  0
LINE
  5
37F
330
1E
100
AcDbEntity
  8
0
100
AcDbLine
 10
84.77999999999999
 20
523.6575
 30
0.0
 11
90.38
 21
530.9655
 31
0.0
  0
LINE
  5
380
330
1E
100
AcDbEntity
  8
0
100
AcDbLine
 10
81.69999999999999
 20
535.8495
 30
0.0
 11
84.1
 21
541.7585
 31
0.0
  0
LINE
  5
381
330
1E
100
AcDbEntity
  8
0
100
AcDbLine
 10
81.69999999999999
 20
537.7595
 30
0.0
 11
84.1
 21
543.6684999999999
 31
0.0
  0
LINE
  5
382
330
1E
100
AcDbEntity
  8
0
100
AcDbLine
 10
84.1
 20
543.6684999999999
 30
0.0
 11
85.0
 21
549.9715
 31
0.0
  0
LINE
  5
383
330
1E
100
AcDbEntity
  8
0
100
AcDbLine
 10
84.1
 20
541.7585
 30
0.0
 11
85.0
 21
548.0615
 31
0.0
  0
LINE
  5
384
330
1E
100
AcDbEntity
  8
0
100
AcDbLine
 10
84.1
 20
556.2744999999999
 30
0.0
 11
85.0
 21
549.9715
 31
0.0
  0
LINE
  5
385
330
1E
100
AcDbEntity
  8
0
100
AcDbLine
 10
84.1
 20
554.3645
 30
0.0
 11
84.86363636363639
 21
549.0164999999999
 31
0.0
  0
LINE
  5
386
330
1E
100
AcDbEntity
  8
0
100
AcDbLine
 10
81.69999999999999
 20
560.2735
 30
0.0
 11
84.1
 21
554.3645
 31
0.0
  0
LINE
  5
387
330
1E
100
AcDbEntity
  8
0
100
AcDbLine
 10
81.69999999999999
 20
562.1834999999999
 30
0.0
 11
84.1
 21
556.2744999999999
 31
0.0
  0
LINE
  5
388
330
1E
100
AcDbEntity
  8
0
100
AcDbLine
 10
90.38
 20
530.2704999999999
 30
0.0
 11
93.74
 21
538.5425
 31
0.0
  0
LINE
  5
389
330
1E
100
AcDbEntity
  8
0
100
AcDbLine
 10
85.0
 20
548.0615
 30
0.0
 11
85.0
 21
549.9715
 31
0.0
  0
LINE
  5
38A
330
1E
100
AcDbEntity
  8
0
100
AcDbLine
 10
85.0
 20
549.9715
 30
0.0
 11
85.0
 21
548.0615
 31
0.0
  0
LINE
  5
38B
330
1E
100
AcDbEntity
  8
0
100
AcDbLine
 10
93.74
 20
538.5425
 30
0.0
 11
95.0
 21
547.3664999999999
 31
0.0
  0
LINE
  5
38C
330
1E
100
AcDbEntity
  8
0
100
AcDbLine
 10
93.74
 20
539.2374999999999
 30
0.0
 11
95.0
 21
548.0615
 31
0.0
  0
LINE
  5
38D
330
1E
100
AcDbEntity
  8
0
100
AcDbLine
 10
90.38
 20
530.9655
 30
0.0
 11
93.74
 21
539.2374999999999
 31
0.0
  0
LINE
  5
38E
330
1E
100
AcDbEntity
  8
0
100
AcDbLine
 10
93.74
 20
556.8855
 30
0.0
 11
95.0
 21
548.0615
 31
0.0
  0
LINE
  5
38F
330
1E
100
AcDbEntity
  8
0
100
AcDbLine
 10
90.38
 20
565.1575
 30
0.0
 11
93.74
 21
556.8855
 31
0.0
  0
LINE
  5
390
330
1E
100
AcDbEntity
  8
0
100
AcDbLine
 10
84.77999999999999
 20
572.4655
 30
0.0
 11
90.38
 21
565.1575
 31
0.0
  0
LINE
  5
391
330
1E
100
AcDbEntity
  8
0
100
AcDbLine
 10
94.71999999999999
 20
526.0914999999999
 30
0.0
 11
98.56000000000001
 21
535.5454999999999
 31
0.0
  0
LINE
  5
392
330
1E
100
AcDbEntity
  8
0
100
AcDbLine
 10
94.71999999999999
 20
527.1335
 30
0.0
 11
98.56000000000001
 21
536.5874999999999
 31
0.0
  0
LINE
  5
393
330
1E
100
AcDbEntity
  8
0
100
AcDbLine
 10
88.31999999999998
 20
518.7825
 30
0.0
 11
94.71999999999999
 21
527.1335
 31
0.0
  0
LINE
  5
394
330
1E
100
AcDbEntity
  8
0
100
AcDbLine
 10
98.56000000000001
 20
535.5454999999999
 30
0.0
 11
100.0
 21
545.6304999999999
 31
0.0
  0
LINE
  5
395
330
1E
100
AcDbEntity
  8
0
100
AcDbLine
 10
95.0
 20
547.3664999999999
 30
0.0
 11
95.0
 21
548.0615
 31
0.0
  0
LINE
  5
396
330
1E
100
AcDbEntity
  8
0
100
AcDbLine
 10
95.0
 20
548.0615
 30
0.0
 11
95.0
 21
547.3664999999999
 31
0.0
  0
LINE
  5
397
330
1E
100
AcDbEntity
  8
0
100
AcDbLine
 10
100.0
 20
545.6304999999999
 30
0.0
 11
100.0
 21
546.6725
 31
0.0
  0
LINE
  5
398
330
1E
100
AcDbEntity
  8
0
100
AcDbLine
 10
98.56000000000001
 20
536.5874999999999
 30
0.0
 11
100.0
 21
546.6725
 31
0.0
  0
LINE
  5
399
330
1E
100
AcDbEntity
  8
0
100
AcDbLine
 10
100.0
 20
546.6725
 30
0.0
 11
100.0
 21
545.6304999999999
 31
0.0
  0
LINE
  5
39A
330
1E
100
AcDbEntity
  8
0
100
AcDbLine
 10
98.56000000000001
 20
556.7565
 30
0.0
 11
100.0
 21
546.6725
 31
0.0
  0
LINE
  5
39B
330
1E
100
AcDbEntity
  8
0
100
AcDbLine
 10
94.71999999999999
 20
566.2105
 30
0.0
 11
98.56000000000001
 21
556.7565
 31
0.0
  0
LINE
  5
39C
330
1E
100
AcDbEntity
  8
0
100
AcDbLine
 10
88.31999999999998
 20
574.5625
 30
0.0
 11
94.71999999999999
 21
566.2105
 31
0.0
  0
LINE
  5
39D
330
1E
100
AcDbEntity
  8
0
100
AcDbLine
 10
79.84
 20
580.8645
 30
0.0
 11
88.31999999999998
 21
574.5625
 31
0.0
  0
LINE
  5
39E
330
1E
100
AcDbEntity
  8
0
100
AcDbLine
 10
70.24
 20
584.6464999999999
 30
0.0
 11
79.84
 21
580.8645
 31
0.0
  0
LINE
  5
39F
330
1E
100
AcDbEntity
  8
0
100
AcDbLine
 10
60.0
 20
586.0644999999999
 30
0.0
 11
70.24
 21
584.6464999999999
 31
0.0
  0
LINE
  5
3A0
330
1E
100
AcDbEntity
  8
0
100
AcDbLine
 10
68.95999999999999
 20
152.6135
 30
0.0
 11
77.36
 21
152.6135
 31
0.0
  0
LINE
  5
3A1
330
1E
100
AcDbEntity
  8
0
100
AcDbLine
 10
60.0
 20
152.6135
 30
0.0
 11
68.95999999999999
 21
152.6135
 31
0.0
  0
LINE
  5
3A2
330
1E
100
AcDbEntity
  8
0
100
AcDbLine
 10
53.088
 20
150.6135
 30
0.0
 11
60.0
 21
150.6135
 31
0.0
  0
LINE
  5
3A3
330
1E
100
AcDbEntity
  8
0
100
AcDbLine
 10
51.04
 20
150.6135
 30
0.0
 11
60.0
 21
150.6135
 31
0.0
  0
LINE
  5
3A4
330
1E
100
AcDbEntity
  8
0
100
AcDbLine
 10
33.0
 20
140.6134999999999
 30
0.0
 11
33.0
 21
150.6135
 31
0.0
  0
LINE
  5
3A5
330
1E
100
AcDbEntity
  8
0
100
AcDbLine
 10
29.62
 20
150.6135
 30
0.0
 11
33.0
 21
150.6135
 31
0.0
  0
LINE
  5
3A6
330
1E
100
AcDbEntity
  8
0
100
AcDbLine
 10
29.62
 20
150.6135
 30
0.0
 11
35.22
 21
150.6135
 31
0.0
  0
LINE
  5
3AB
330
1E
100
AcDbEntity
  8
0
100
AcDbLine
 10
54.88
 20
130.8934999999999
 30
0.0
 11
50.08
 21
128.9735
 31
0.0
  0
LINE
  5
3AC
330
1E
100
AcDbEntity
  8
0
100
AcDbLine
 10
65.12
 20
130.8934999999999
 30
0.0
 11
70.14194396675293
 21
128.7232399730437
 31
0.0
  0
LINE
  5
3AD
330
1E
100
AcDbEntity
  8
0
100
AcDbLine
 10
70.14194396675293
 20
128.7232399730437
 30
0.0
 11
74.60245979658066
 21
125.0494293116676
 31
0.0
  0
LINE
  5
3AE
330
1E
100
AcDbEntity
  8
0
100
AcDbLine
 10
74.60245979658066
 20
125.0494293116676
 30
0.0
 11
77.36
 21
121.5335
 31
0.0
  0
LINE
  5
3AF
330
1E
100
AcDbEntity
  8
0
100
AcDbLine
 10
87.0
 20
61.652
 30
0.0
 11
87.38548554815407
 21
38.29361403569555
 31
0.0
  0
LINE
  5
3B0
330
1E
100
AcDbEntity
  8
0
100
AcDbLine
 10
87.38548554815407
 20
38.29361403569555
 30
0.0
 11
86.3519999999999
 21
37.6135
 31
0.0
  0
ENDSEC
  0
SECTION
  2
OBJECTS
  0
DICTIONARY
  5
C
330
0
100
AcDbDictionary
281
     1
  3
ACAD_GROUP
350
D
  3
ACAD_LAYOUT
350
19
  3
ACAD_MLINESTYLE
350
16
  3
ACAD_PLOTSETTINGS
350
18
  3
ACAD_PLOTSTYLENAME
350
E
  3
AcDbVariableDictionary
350
3B1
  0
DICTIONARY
  5
D
102
{ACAD_REACTORS
330
C
102
}
330
C
100
AcDbDictionary
281
     1
  0
DICTIONARY
  5
19
102
{ACAD_REACTORS
330
C
102
}
330
C
100
AcDbDictionary
281
     1
  3
Layout1
350
1D
  3
Model
350
21
  0
DICTIONARY
  5
16
102
{ACAD_REACTORS
330
C
102
}
330
C
100
AcDbDictionary
281
     1
  3
Standard
350
17
  0
DICTIONARY
  5
18
102
{ACAD_REACTORS
330
C
102
}
330
C
100
AcDbDictionary
281
     1
  0
ACDBDICTIONARYWDFLT
  5
E
102
{ACAD_REACTORS
330
C
102
}
330
C
100
AcDbDictionary
281
     1
  3
Normal
350
F
100
AcDbDictionaryWithDefault
340
F
  0
DICTIONARY
  5
3B1
102
{ACAD_REACTORS
330
C
102
}
330
C
100
AcDbDictionary
281
     1
  3
DIMASSOC
350
3B2
  0
LAYOUT
  5
1D
102
{ACAD_REACTORS
330
19
102
}
330
19
100
AcDbPlotSettings
  1

  2
hp deskjet 980c series
  4

  6

 40
0.0
 41
0.0
 42
0.0
 43
0.0
 44
0.0
 45
0.0
 46
0.0
 47
0.0
 48
0.0
 49
0.0
140
0.0
141
0.0
142
1.0
143
1.0
 70
   688
 72
     0
 73
     0
 74
     5
  7

 75
    16
147
1.0
148
0.0
149
0.0
100
AcDbLayout
  1
Layout1
 70
     1
 71
     1
 10
0.0
 20
0.0
 11
12.0
 21
9.0
 12
0.0
 22
0.0
 32
0.0
 14
1.000000000000000E+20
 24
1.000000000000000E+20
 34
1.000000000000000E+20
 15
-1.000000000000000E+20
 25
-1.000000000000000E+20
 35
-1.000000000000000E+20
146
0.0
 13
0.0
 23
0.0
 33
0.0
 16
1.0
 26
0.0
 36
0.0
 17
0.0
 27
1.0
 37
0.0
 76
     0
330
1A
  0
LAYOUT
  5
21
102
{ACAD_REACTORS
330
19
102
}
330
19
100
AcDbPlotSettings
  1

  2
hp deskjet 980c series
  4

  6

 40
0.0
 41
0.0
 42
0.0
 43
0.0
 44
0.0
 45
0.0
 46
0.0
 47
0.0
 48
0.0
 49
0.0
140
0.0
141
0.0
142
1.0
143
1.0
 70
  1712
 72
     0
 73
     0
 74
     0
  7

 75
     0
147
1.0
148
0.0
149
0.0
100
AcDbLayout
  1
Model
 70
     1
 71
     0
 10
0.0
 20
0.0
 11
12.0
 21
9.0
 12
0.0
 22
0.0
 32
0.0
 14
0.0
 24
0.0
 34
0.0
 15
0.0
 25
0.0
 35
0.0
146
0.0
 13
0.0
 23
0.0
 33
0.0
 16
1.0
 26
0.0
 36
0.0
 17
0.0
 27
1.0
 37
0.0
 76
     0
330
1E
  0
MLINESTYLE
  5
17
102
{ACAD_REACTORS
330
16
102
}
330
16
100
AcDbMlineStyle
  2
STANDARD
 70
     0
  3

 62
   256
 51
90.0
 52
90.0
 71
     2
 49
0.5
 62
   256
  6
BYLAYER
 49
-0.5
 62
   256
  6
BYLAYER
  0
ACDBPLACEHOLDER
  5
F
102
{ACAD_REACTORS
330
E
102
}
330
E
  0
DICTIONARYVAR
  5
3B2
102
{ACAD_REACTORS
330
3B1
102
}
330
3B1
100
DictionaryVariables
280
     0
  1
1
  0
ENDSEC
  0
EOF
