  0
SECTION
  2
HEADER
  9
$ACADVER
  1
AC1015
  9
$ACADMAINTVER
 70
    13
  9
$DWGCODEPAGE
  3
ANSI_1252
  9
$INSBASE
 10
0.0
 20
0.0
 30
0.0
  9
$EXTMIN
 10
-0.164100000000041
 20
-0.0000000000000059
 30
0.0
  9
$EXTMAX
 10
669.1640999999999
 20
100.0
 30
0.0
  9
$LIMMIN
 10
0.0
 20
0.0
  9
$LIMMAX
 10
12.0
 20
9.0
  9
$ORTHOMODE
 70
     0
  9
$REGENMODE
 70
     1
  9
$FILLMODE
 70
     1
  9
$QTEXTMODE
 70
     0
  9
$MIRRTEXT
 70
     1
  9
$LTSCALE
 40
1.0
  9
$ATTMODE
 70
     1
  9
$TEXTSIZE
 40
0.2
  9
$TRACEWID
 40
0.05
  9
$TEXTSTYLE
  7
Standard
  9
$CLAYER
  8
0
  9
$CELTYPE
  6
Continuous
  9
$CECOLOR
 62
   256
  9
$CELTSCALE
 40
1.0
  9
$DISPSILH
 70
     0
  9
$DIMSCALE
 40
1.0
  9
$DIMASZ
 40
0.18
  9
$DIMEXO
 40
0.0625
  9
$DIMDLI
 40
0.38
  9
$DIMRND
 40
0.0
  9
$DIMDLE
 40
0.0
  9
$DIMEXE
 40
0.18
  9
$DIMTP
 40
0.0
  9
$DIMTM
 40
0.0
  9
$DIMTXT
 40
0.18
  9
$DIMCEN
 40
0.09
  9
$DIMTSZ
 40
0.0
  9
$DIMTOL
 70
     0
  9
$DIMLIM
 70
     0
  9
$DIMTIH
 70
     1
  9
$DIMTOH
 70
     1
  9
$DIMSE1
 70
     0
  9
$DIMSE2
 70
     0
  9
$DIMTAD
 70
     0
  9
$DIMZIN
 70
     0
  9
$DIMBLK
  1

  9
$DIMASO
 70
     1
  9
$DIMSHO
 70
     1
  9
$DIMPOST
  1

  9
$DIMAPOST
  1

  9
$DIMALT
 70
     0
  9
$DIMALTD
 70
     2
  9
$DIMALTF
 40
25.4
  9
$DIMLFAC
 40
1.0
  9
$DIMTOFL
 70
     0
  9
$DIMTVP
 40
0.0
  9
$DIMTIX
 70
     0
  9
$DIMSOXD
 70
     0
  9
$DIMSAH
 70
     0
  9
$DIMBLK1
  1

  9
$DIMBLK2
  1

  9
$DIMSTYLE
  2
Standard
  9
$DIMCLRD
 70
     0
  9
$DIMCLRE
 70
     0
  9
$DIMCLRT
 70
     0
  9
$DIMTFAC
 40
1.0
  9
$DIMGAP
 40
0.09
  9
$DIMJUST
 70
     0
  9
$DIMSD1
 70
     0
  9
$DIMSD2
 70
     0
  9
$DIMTOLJ
 70
     1
  9
$DIMTZIN
 70
     0
  9
$DIMALTZ
 70
     0
  9
$DIMALTTZ
 70
     0
  9
$DIMUPT
 70
     0
  9
$DIMDEC
 70
     4
  9
$DIMTDEC
 70
     4
  9
$DIMALTU
 70
     2
  9
$DIMALTTD
 70
     2
  9
$DIMTXSTY
  7
Standard
  9
$DIMAUNIT
 70
     0
  9
$DIMADEC
 70
     0
  9
$DIMALTRND
 40
0.0
  9
$DIMAZIN
 70
     0
  9
$DIMDSEP
 70
    46
  9
$DIMATFIT
 70
     3
  9
$DIMFRAC
 70
     0
  9
$DIMLDRBLK
  1

  9
$DIMLUNIT
 70
     2
  9
$DIMLWD
 70
    -2
  9
$DIMLWE
 70
    -2
  9
$DIMTMOVE
 70
     0
  9
$LUNITS
 70
     2
  9
$LUPREC
 70
     4
  9
$SKETCHINC
 40
0.1
  9
$FILLETRAD
 40
0.0
  9
$AUNITS
 70
     0
  9
$AUPREC
 70
     0
  9
$MENU
  1
.
  9
$ELEVATION
 40
0.0
  9
$PELEVATION
 40
0.0
  9
$THICKNESS
 40
0.0
  9
$LIMCHECK
 70
     0
  9
$CHAMFERA
 40
0.0
  9
$CHAMFERB
 40
0.0
  9
$CHAMFERC
 40
0.0
  9
$CHAMFERD
 40
0.0
  9
$SKPOLY
 70
     0
  9
$TDCREATE
 40
2454781.431258680
  9
$TDUCREATE
 40
2454781.389592013
  9
$TDUPDATE
 40
2454781.433726666
  9
$TDUUPDATE
 40
2454781.392060000
  9
$TDINDWG
 40
0.0024679861
  9
$TDUSRTIMER
 40
0.0024679861
  9
$USRTIMER
 70
     1
  9
$ANGBASE
 50
0.0
  9
$ANGDIR
 70
     0
  9
$PDMODE
 70
     0
  9
$PDSIZE
 40
0.0
  9
$PLINEWID
 40
0.0
  9
$SPLFRAME
 70
     0
  9
$SPLINETYPE
 70
     6
  9
$SPLINESEGS
 70
     8
  9
$HANDSEED
  5
37B
  9
$SURFTAB1
 70
     6
  9
$SURFTAB2
 70
     6
  9
$SURFTYPE
 70
     6
  9
$SURFU
 70
     6
  9
$SURFV
 70
     6
  9
$UCSBASE
  2

  9
$UCSNAME
  2

  9
$UCSORG
 10
0.0
 20
0.0
 30
0.0
  9
$UCSXDIR
 10
1.0
 20
0.0
 30
0.0
  9
$UCSYDIR
 10
0.0
 20
1.0
 30
0.0
  9
$UCSORTHOREF
  2

  9
$UCSORTHOVIEW
 70
     1
  9
$UCSORGTOP
 10
0.0
 20
0.0
 30
0.0
  9
$UCSORGBOTTOM
 10
0.0
 20
0.0
 30
0.0
  9
$UCSORGLEFT
 10
0.0
 20
0.0
 30
0.0
  9
$UCSORGRIGHT
 10
0.0
 20
0.0
 30
0.0
  9
$UCSORGFRONT
 10
0.0
 20
0.0
 30
0.0
  9
$UCSORGBACK
 10
0.0
 20
0.0
 30
0.0
  9
$PUCSBASE
  2

  9
$PUCSNAME
  2

  9
$PUCSORG
 10
0.0
 20
0.0
 30
0.0
  9
$PUCSXDIR
 10
1.0
 20
0.0
 30
0.0
  9
$PUCSYDIR
 10
0.0
 20
1.0
 30
0.0
  9
$PUCSORTHOREF
  2

  9
$PUCSORTHOVIEW
 70
     0
  9
$PUCSORGTOP
 10
0.0
 20
0.0
 30
0.0
  9
$PUCSORGBOTTOM
 10
0.0
 20
0.0
 30
0.0
  9
$PUCSORGLEFT
 10
0.0
 20
0.0
 30
0.0
  9
$PUCSORGRIGHT
 10
0.0
 20
0.0
 30
0.0
  9
$PUCSORGFRONT
 10
0.0
 20
0.0
 30
0.0
  9
$PUCSORGBACK
 10
0.0
 20
0.0
 30
0.0
  9
$USERI1
 70
     0
  9
$USERI2
 70
     0
  9
$USERI3
 70
     0
  9
$USERI4
 70
     0
  9
$USERI5
 70
     0
  9
$USERR1
 40
0.0
  9
$USERR2
 40
0.0
  9
$USERR3
 40
0.0
  9
$USERR4
 40
0.0
  9
$USERR5
 40
0.0
  9
$WORLDVIEW
 70
     1
  9
$SHADEDGE
 70
     3
  9
$SHADEDIF
 70
    70
  9
$TILEMODE
 70
     1
  9
$MAXACTVP
 70
    64
  9
$PINSBASE
 10
0.0
 20
0.0
 30
0.0
  9
$PLIMCHECK
 70
     0
  9
$PEXTMIN
 10
1.000000000000000E+20
 20
1.000000000000000E+20
 30
1.000000000000000E+20
  9
$PEXTMAX
 10
-1.000000000000000E+20
 20
-1.000000000000000E+20
 30
-1.000000000000000E+20
  9
$PLIMMIN
 10
0.0
 20
0.0
  9
$PLIMMAX
 10
12.0
 20
9.0
  9
$UNITMODE
 70
     0
  9
$VISRETAIN
 70
     1
  9
$PLINEGEN
 70
     0
  9
$PSLTSCALE
 70
     1
  9
$TREEDEPTH
 70
  3020
  9
$CMLSTYLE
  2
Standard
  9
$CMLJUST
 70
     0
  9
$CMLSCALE
 40
1.0
  9
$PROXYGRAPHICS
 70
     1
  9
$MEASUREMENT
 70
     0
  9
$CELWEIGHT
370
    -1
  9
$ENDCAPS
280
     0
  9
$JOINSTYLE
280
     0
  9
$LWDISPLAY
290
     0
  9
$INSUNITS
 70
     0
  9
$HYPERLINKBASE
  1

  9
$STYLESHEET
  1

  9
$XEDIT
290
     1
  9
$CEPSNTYPE
380
     0
  9
$PSTYLEMODE
290
     1
  9
$FINGERPRINTGUID
  2
{069C73AC-003E-4BF7-AFA1-CF81D85DCEEB}
  9
$VERSIONGUID
  2
{BC3F4047-9428-40F9-958D-97AAFEFE84F2}
  9
$EXTNAMES
290
     1
  9
$PSVPSCALE
 40
0.0
  9
$OLESTARTUP
290
     0
  0
ENDSEC
  0
SECTION
  2
CLASSES
  0
CLASS
  1
ACDBDICTIONARYWDFLT
  2
AcDbDictionaryWithDefault
  3
AutoCAD 2000
 90
        0
280
     0
281
     0
  0
CLASS
  1
ACDBPLACEHOLDER
  2
AcDbPlaceHolder
  3
AutoCAD 2000
 90
        0
280
     0
281
     0
  0
CLASS
  1
LAYOUT
  2
AcDbLayout
  3
AutoCAD 2000
 90
        0
280
     0
281
     0
  0
CLASS
  1
DICTIONARYVAR
  2
AcDbDictionaryVar
  3
AutoCAD 2000
 90
        0
280
     0
281
     0
  0
ENDSEC
  0
SECTION
  2
TABLES
  0
TABLE
  2
VPORT
  5
8
330
0
100
AcDbSymbolTable
 70
     2
  0
VPORT
  5
37A
330
8
100
AcDbSymbolTableRecord
100
AcDbViewportTableRecord
  2
*Active
 70
     0
 10
0.0
 20
0.0
 11
1.0
 21
1.0
 12
334.5
 22
50.0
 13
0.0
 23
0.0
 14
1.0
 24
1.0
 15
0.0
 25
0.0
 16
0.0
 26
0.0
 36
1.0
 17
0.0
 27
0.0
 37
0.0
 40
323.2758159515766
 41
2.078104993597951
 42
50.0
 43
0.0
 44
0.0
 50
0.0
 51
0.0
 71
     0
 72
   100
 73
     1
 74
     3
 75
     0
 76
     0
 77
     0
 78
     0
281
     0
 65
     1
110
0.0
120
0.0
130
0.0
111
1.0
121
0.0
131
0.0
112
0.0
122
1.0
132
0.0
 79
     1
146
0.0
  0
ENDTAB
  0
TABLE
  2
LTYPE
  5
5
330
0
100
AcDbSymbolTable
 70
     1
  0
LTYPE
  5
13
330
5
100
AcDbSymbolTableRecord
100
AcDbLinetypeTableRecord
  2
ByBlock
 70
     0
  3

 72
    65
 73
     0
 40
0.0
  0
LTYPE
  5
14
330
5
100
AcDbSymbolTableRecord
100
AcDbLinetypeTableRecord
  2
ByLayer
 70
     0
  3

 72
    65
 73
     0
 40
0.0
  0
LTYPE
  5
15
330
5
100
AcDbSymbolTableRecord
100
AcDbLinetypeTableRecord
  2
Continuous
 70
     0
  3
Solid line
 72
    65
 73
     0
 40
0.0
  0
ENDTAB
  0
TABLE
  2
LAYER
  5
2
330
0
100
AcDbSymbolTable
 70
     1
  0
LAYER
  5
10
330
2
100
AcDbSymbolTableRecord
100
AcDbLayerTableRecord
  2
0
 70
     0
 62
     7
  6
Continuous
370
    -3
390
F
  0
ENDTAB
  0
TABLE
  2
STYLE
  5
3
330
0
100
AcDbSymbolTable
 70
     1
  0
STYLE
  5
11
330
3
100
AcDbSymbolTableRecord
100
AcDbTextStyleTableRecord
  2
Standard
 70
     0
 40
0.0
 41
1.0
 50
0.0
 71
     0
 42
0.2
  3
txt
  4

  0
ENDTAB
  0
TABLE
  2
VIEW
  5
6
330
0
100
AcDbSymbolTable
 70
     0
  0
ENDTAB
  0
TABLE
  2
UCS
  5
7
330
0
100
AcDbSymbolTable
 70
     0
  0
ENDTAB
  0
TABLE
  2
APPID
  5
9
330
0
100
AcDbSymbolTable
 70
     1
  0
APPID
  5
12
330
9
100
AcDbSymbolTableRecord
100
AcDbRegAppTableRecord
  2
ACAD
 70
     0
  0
ENDTAB
  0
TABLE
  2
DIMSTYLE
  5
A
330
0
100
AcDbSymbolTable
 70
     1
100
AcDbDimStyleTable
 71
     0
  0
DIMSTYLE
105
373
330
A
100
AcDbSymbolTableRecord
100
AcDbDimStyleTableRecord
  2
Standard
 70
     0
340
11
  0
ENDTAB
  0
TABLE
  2
BLOCK_RECORD
  5
1
330
0
100
AcDbSymbolTable
 70
     0
  0
BLOCK_RECORD
  5
1E
330
1
100
AcDbSymbolTableRecord
100
AcDbBlockTableRecord
  2
*Model_Space
340
21
  0
BLOCK_RECORD
  5
1A
330
1
100
AcDbSymbolTableRecord
100
AcDbBlockTableRecord
  2
*Paper_Space
340
1D
  0
ENDTAB
  0
ENDSEC
  0
SECTION
  2
BLOCKS
  0
BLOCK
  5
1F
330
1E
100
AcDbEntity
  8
0
100
AcDbBlockBegin
  2
*Model_Space
 70
     0
 10
0.0
 20
0.0
 30
0.0
  3
*Model_Space
  1

  0
ENDBLK
  5
20
330
1E
100
AcDbEntity
  8
0
100
AcDbBlockEnd
  0
BLOCK
  5
1B
330
1A
100
AcDbEntity
 67
     1
  8
0
100
AcDbBlockBegin
  2
*Paper_Space
 70
     0
 10
0.0
 20
0.0
 30
0.0
  3
*Paper_Space
  1

  0
ENDBLK
  5
1C
330
1A
100
AcDbEntity
 67
     1
  8
0
100
AcDbBlockEnd
  0
ENDSEC
  0
SECTION
  2
ENTITIES
  0
LINE
  5
22
330
1E
100
AcDbEntity
  8
0
100
AcDbLine
 10
34.219
 20
-0.0000000000000059
 30
0.0
 11
38.35278999999999
 21
-0.0000000000000059
 31
0.0
  0
LINE
  5
23
330
1E
100
AcDbEntity
  8
0
100
AcDbLine
 10
30.1706
 20
-0.0000000000000058
 30
0.0
 11
34.219
 21
-0.0000000000000059
 31
0.0
  0
LINE
  5
24
330
1E
100
AcDbEntity
  8
0
100
AcDbLine
 10
26.3856
 20
-0.0000000000000057
 30
0.0
 11
30.1706
 21
-0.0000000000000058
 31
0.0
  0
LINE
  5
25
330
1E
100
AcDbEntity
  8
0
100
AcDbLine
 10
38.35278999999999
 20
-0.0000000000000059
 30
0.0
 11
42.28654
 21
-0.0000000000000058
 31
0.0
  0
LINE
  5
26
330
1E
100
AcDbEntity
  8
0
100
AcDbLine
 10
42.28654
 20
-0.0000000000000058
 30
0.0
 11
45.80148
 21
-0.0000000000000057
 31
0.0
  0
LINE
  5
27
330
1E
100
AcDbEntity
  8
0
100
AcDbLine
 10
23.2755
 20
-0.0000000000000055
 30
0.0
 11
26.3856
 21
-0.0000000000000057
 31
0.0
  0
LINE
  5
28
330
1E
100
AcDbEntity
  8
0
100
AcDbLine
 10
21.09599999999999
 20
-0.0000000000000053
 30
0.0
 11
23.2755
 21
-0.0000000000000055
 31
0.0
  0
LINE
  5
29
330
1E
100
AcDbEntity
  8
0
100
AcDbLine
 10
45.80148
 20
-0.0000000000000057
 30
0.0
 11
48.69741
 21
-0.0000000000000055
 31
0.0
  0
LINE
  5
2A
330
1E
100
AcDbEntity
  8
0
100
AcDbLine
 10
48.69741
 20
-0.0000000000000055
 30
0.0
 11
50.6295
 21
-0.0000000000000052
 31
0.0
  0
LINE
  5
2B
330
1E
100
AcDbEntity
  8
0
100
AcDbLine
 10
19.6735
 20
-0.0000000000000048
 30
0.0
 11
19.81749999999999
 21
-0.0000000000000051
 31
0.0
  0
LINE
  5
2C
330
1E
100
AcDbEntity
  8
0
100
AcDbLine
 10
19.6735
 20
-0.0000000000000048
 30
0.0
 11
20.5193
 21
-0.0000000000000046
 31
0.0
  0
LINE
  5
2D
330
1E
100
AcDbEntity
  8
0
100
AcDbLine
 10
19.6735
 20
-0.0000000000000048
 30
0.0
 11
19.6735
 21
27.1373270669226
 31
0.0
  0
LINE
  5
2E
330
1E
100
AcDbEntity
  8
0
100
AcDbLine
 10
47.87335999999999
 20
-0.0000000000000043
 30
0.0
 11
50.05283
 21
-0.0000000000000045
 31
0.0
  0
LINE
  5
2F
330
1E
100
AcDbEntity
  8
0
100
AcDbLine
 10
50.05283
 20
-0.0000000000000045
 30
0.0
 11
51.33134
 21
-0.0000000000000047
 31
0.0
  0
LINE
  5
30
330
1E
100
AcDbEntity
  8
0
100
AcDbLine
 10
32.796
 20
-0.0000000000000039
 30
0.0
 11
36.92984
 21
-0.0000000000000039
 31
0.0
  0
LINE
  5
31
330
1E
100
AcDbEntity
  8
0
100
AcDbLine
 10
36.92984
 20
-0.0000000000000039
 30
0.0
 11
40.97822999999999
 21
-0.000000000000004
 31
0.0
  0
LINE
  5
32
330
1E
100
AcDbEntity
  8
0
100
AcDbLine
 10
40.97822999999999
 20
-0.000000000000004
 30
0.0
 11
44.763237
 21
-0.0000000000000041
 31
0.0
  0
LINE
  5
33
330
1E
100
AcDbEntity
  8
0
100
AcDbLine
 10
44.763237
 20
-0.0000000000000041
 30
0.0
 11
47.87335999999999
 21
-0.0000000000000043
 31
0.0
  0
LINE
  5
34
330
1E
100
AcDbEntity
  8
0
100
AcDbLine
 10
28.8623
 20
-0.000000000000004
 30
0.0
 11
32.796
 21
-0.0000000000000039
 31
0.0
  0
LINE
  5
35
330
1E
100
AcDbEntity
  8
0
100
AcDbLine
 10
25.3474
 20
-0.0000000000000042
 30
0.0
 11
28.8623
 21
-0.000000000000004
 31
0.0
  0
LINE
  5
36
330
1E
100
AcDbEntity
  8
0
100
AcDbLine
 10
22.4514
 20
-0.0000000000000043
 30
0.0
 11
25.3474
 21
-0.0000000000000042
 31
0.0
  0
LINE
  5
37
330
1E
100
AcDbEntity
  8
0
100
AcDbLine
 10
20.5193
 20
-0.0000000000000046
 30
0.0
 11
22.4514
 21
-0.0000000000000043
 31
0.0
  0
LINE
  5
38
330
1E
100
AcDbEntity
  8
0
100
AcDbLine
 10
19.81749999999999
 20
-0.0000000000000051
 30
0.0
 11
21.09599999999999
 21
-0.0000000000000053
 31
0.0
  0
LINE
  5
39
330
1E
100
AcDbEntity
  8
0
100
AcDbLine
 10
50.6295
 20
-0.0000000000000052
 30
0.0
 11
51.47535999999999
 21
-0.000000000000005
 31
0.0
  0
LINE
  5
3A
330
1E
100
AcDbEntity
  8
0
100
AcDbLine
 10
51.47535999999999
 20
-0.000000000000005
 30
0.0
 11
51.47535999999999
 21
26.0
 31
0.0
  0
LINE
  5
3B
330
1E
100
AcDbEntity
  8
0
100
AcDbLine
 10
51.33134
 20
-0.0000000000000047
 30
0.0
 11
51.47535999999999
 21
-0.000000000000005
 31
0.0
  0
LINE
  5
3C
330
1E
100
AcDbEntity
  8
0
100
AcDbLine
 10
58.225
 20
20.0
 30
0.0
 11
64.1338
 21
20.0
 31
0.0
  0
LINE
  5
3D
330
1E
100
AcDbEntity
  8
0
100
AcDbLine
 10
64.1338
 20
20.0
 30
0.0
 11
65.91199999999999
 21
21.44
 31
0.0
  0
LINE
  5
3E
330
1E
100
AcDbEntity
  8
0
100
AcDbLine
 10
56.44680000000001
 20
21.44
 30
0.0
 11
58.225
 21
20.0
 31
0.0
  0
LINE
  5
3F
330
1E
100
AcDbEntity
  8
0
100
AcDbLine
 10
51.47535999999999
 20
26.0
 30
0.0
 11
51.47535999999999
 21
0.0
 31
0.0
  0
LINE
  5
40
330
1E
100
AcDbEntity
  8
0
100
AcDbLine
 10
54.7798
 20
25.28
 30
0.0
 11
56.44680000000001
 21
21.44
 31
0.0
  0
LINE
  5
41
330
1E
100
AcDbEntity
  8
0
100
AcDbLine
 10
62.3557
 20
21.44
 30
0.0
 11
64.1338
 21
20.0
 31
0.0
  0
LINE
  5
42
330
1E
100
AcDbEntity
  8
0
100
AcDbLine
 10
60.6887
 20
25.28
 30
0.0
 11
62.3557
 21
21.44
 31
0.0
  0
LINE
  5
43
330
1E
100
AcDbEntity
  8
0
100
AcDbLine
 10
65.91199999999999
 20
21.44
 30
0.0
 11
67.57899999999999
 21
25.28
 31
0.0
  0
LINE
  5
44
330
1E
100
AcDbEntity
  8
0
100
AcDbLine
 10
68.0731
 20
25.0
 30
0.0
 11
72.01229999999999
 21
25.0
 31
0.0
  0
LINE
  5
45
330
1E
100
AcDbEntity
  8
0
100
AcDbLine
 10
72.01229999999999
 20
25.0
 30
0.0
 11
73.56819999999991
 21
26.26
 31
0.0
  0
LINE
  5
46
330
1E
100
AcDbEntity
  8
0
100
AcDbLine
 10
67.57899999999999
 20
25.28
 30
0.0
 11
67.6023000979917
 21
25.381263497995
 31
0.0
  0
LINE
  5
47
330
1E
100
AcDbEntity
  8
0
100
AcDbLine
 10
16.0196
 20
31.89999999999999
 30
0.0
 11
17.374
 21
28.7
 31
0.0
  0
LINE
  5
48
330
1E
100
AcDbEntity
  8
0
100
AcDbLine
 10
17.374
 20
28.7
 30
0.0
 11
18.0969
 21
27.7
 31
0.0
  0
LINE
  5
4A
330
1E
100
AcDbEntity
  8
0
100
AcDbLine
 10
18.0969
 20
27.7
 30
0.0
 11
19.59019999999999
 21
26.5
 31
0.0
  0
LINE
  5
4B
330
1E
100
AcDbEntity
  8
0
100
AcDbLine
 10
19.6735
 20
27.1373270669226
 30
0.0
 11
19.6735
 21
0.0
 31
0.0
  0
LINE
  5
4C
330
1E
100
AcDbEntity
  8
0
100
AcDbLine
 10
66.5172
 20
26.26
 30
0.0
 11
68.0731
 21
25.0
 31
0.0
  0
LINE
  5
4D
330
1E
100
AcDbEntity
  8
0
100
AcDbLine
 10
65.05849999999999
 20
29.62
 30
0.0
 11
66.5172
 21
26.26
 31
0.0
  0
LINE
  5
4E
330
1E
100
AcDbEntity
  8
0
100
AcDbLine
 10
70.4564
 20
26.26
 30
0.0
 11
72.01229999999999
 21
25.0
 31
0.0
  0
LINE
  5
4F
330
1E
100
AcDbEntity
  8
0
100
AcDbLine
 10
68.99779999999999
 20
29.62
 30
0.0
 11
70.4564
 21
26.26
 31
0.0
  0
LINE
  5
50
330
1E
100
AcDbEntity
  8
0
100
AcDbLine
 10
73.56819999999991
 20
26.26
 30
0.0
 11
75.02679999999999
 21
29.62
 31
0.0
  0
LINE
  5
51
330
1E
100
AcDbEntity
  8
0
100
AcDbLine
 10
75.02679999999999
 20
29.62
 30
0.0
 11
76.26468035714281
 21
35.0
 31
0.0
  0
LINE
  5
52
330
1E
100
AcDbEntity
  8
0
100
AcDbLine
 10
53.30728
 20
31.68
 30
0.0
 11
54.7798
 21
25.28
 31
0.0
  0
LINE
  5
53
330
1E
100
AcDbEntity
  8
0
100
AcDbLine
 10
110.6114
 20
34.0
 30
0.0
 11
117.1310999999999
 21
34.936
 31
0.0
  0
LINE
  5
54
330
1E
100
AcDbEntity
  8
0
100
AcDbLine
 10
110.6114
 20
34.0
 30
0.0
 11
111.0139999999999
 21
34.0
 31
0.0
  0
LINE
  5
55
330
1E
100
AcDbEntity
  8
0
100
AcDbLine
 10
111.0139999999999
 20
34.0
 30
0.0
 11
117.5337
 21
34.936
 31
0.0
  0
LINE
  5
56
330
1E
100
AcDbEntity
  8
0
100
AcDbLine
 10
59.2161
 20
31.68
 30
0.0
 11
60.6887
 21
25.28
 31
0.0
  0
LINE
  5
57
330
1E
100
AcDbEntity
  8
0
100
AcDbLine
 10
19.59019999999999
 20
26.5
 30
0.0
 11
19.6735
 21
26.4725100653422
 31
0.0
  0
LINE
  5
58
330
1E
100
AcDbEntity
  8
0
100
AcDbLine
 10
51.33134
 20
26.0
 30
0.0
 11
54.6141415
 21
26.0
 31
0.0
  0
LINE
  5
59
330
1E
100
AcDbEntity
  8
0
100
AcDbLine
 10
51.33134
 20
26.0
 30
0.0
 11
54.6141415
 21
26.0
 31
0.0
  0
LINE
  5
5A
330
1E
100
AcDbEntity
  8
0
100
AcDbLine
 10
332.4861
 20
23.0
 30
0.0
 11
332.4861
 21
60.0
 31
0.0
  0
LINE
  5
5B
330
1E
100
AcDbEntity
  8
0
100
AcDbLine
 10
332.4861
 20
23.0
 30
0.0
 11
362.4861
 21
23.0
 31
0.0
  0
LINE
  5
5C
330
1E
100
AcDbEntity
  8
0
100
AcDbLine
 10
332.4861
 20
23.0
 30
0.0
 11
332.4861
 21
40.0
 31
0.0
  0
LINE
  5
5D
330
1E
100
AcDbEntity
  8
0
100
AcDbLine
 10
332.4861
 20
23.0
 30
0.0
 11
362.4861
 21
23.0
 31
0.0
  0
LINE
  5
5E
330
1E
100
AcDbEntity
  8
0
100
AcDbLine
 10
312.4861
 20
34.0
 30
0.0
 11
312.4861
 21
34.936
 31
0.0
  0
LINE
  5
5F
330
1E
100
AcDbEntity
  8
0
100
AcDbLine
 10
97.9061
 20
34.0
 30
0.0
 11
104.4608999999999
 21
34.936
 31
0.0
  0
LINE
  5
60
330
1E
100
AcDbEntity
  8
0
100
AcDbLine
 10
106.8132999999999
 20
34.5
 30
0.0
 11
108.7722999999999
 21
34.5
 31
0.0
  0
LINE
  5
61
330
1E
100
AcDbEntity
  8
0
100
AcDbLine
 10
106.8132999999999
 20
34.5
 30
0.0
 11
109.6317999999999
 21
34.5
 31
0.0
  0
LINE
  5
62
330
1E
100
AcDbEntity
  8
0
100
AcDbLine
 10
106.8132999999999
 20
34.5
 30
0.0
 11
106.8132999999999
 21
35.8914758836165
 31
0.0
  0
LINE
  5
63
330
1E
100
AcDbEntity
  8
0
100
AcDbLine
 10
104.275755701895
 20
34.9095621127988
 30
0.0
 11
106.8132999999999
 21
34.5452654375901
 31
0.0
  0
LINE
  5
64
330
1E
100
AcDbEntity
  8
0
100
AcDbLine
 10
109.6317999999999
 20
34.5
 30
0.0
 11
111.5909
 21
34.5
 31
0.0
  0
LINE
  5
65
330
1E
100
AcDbEntity
  8
0
100
AcDbLine
 10
108.7722999999999
 20
34.5
 30
0.0
 11
111.5909
 21
34.5
 31
0.0
  0
LINE
  5
67
330
1E
100
AcDbEntity
  8
0
100
AcDbLine
 10
111.5909
 20
34.5
 30
0.0
 11
111.5909
 21
37.14062246419529
 31
0.0
  0
LINE
  5
68
330
1E
100
AcDbEntity
  8
0
100
AcDbLine
 10
107.128600854701
 20
34.5
 30
0.0
 11
110.6114
 21
34.0
 31
0.0
  0
LINE
  5
69
330
1E
100
AcDbEntity
  8
0
100
AcDbLine
 10
97.55880000000001
 20
34.0
 30
0.0
 11
104.1136
 21
34.936
 31
0.0
  0
LINE
  5
6A
330
1E
100
AcDbEntity
  8
0
100
AcDbLine
 10
97.55880000000001
 20
34.0
 30
0.0
 11
97.9061
 21
34.0
 31
0.0
  0
LINE
  5
6B
330
1E
100
AcDbEntity
  8
0
100
AcDbLine
 10
296.4861
 20
34.5
 30
0.0
 11
310.4861
 21
34.5
 31
0.0
  0
LINE
  5
6C
330
1E
100
AcDbEntity
  8
0
100
AcDbLine
 10
296.4861
 20
34.5
 30
0.0
 11
296.4861
 21
37.5
 31
0.0
  0
LINE
  5
6D
330
1E
100
AcDbEntity
  8
0
100
AcDbLine
 10
14.8388
 20
37.0
 30
0.0
 11
16.0196
 21
31.89999999999999
 31
0.0
  0
LINE
  5
6E
330
1E
100
AcDbEntity
  8
0
100
AcDbLine
 10
91.0038999999999
 20
34.936
 30
0.0
 11
97.55880000000001
 21
34.0
 31
0.0
  0
LINE
  5
6F
330
1E
100
AcDbEntity
  8
0
100
AcDbLine
 10
117.1310999999999
 20
34.936
 30
0.0
 11
123.2433
 21
37.43199999999999
 31
0.0
  0
LINE
  5
70
330
1E
100
AcDbEntity
  8
0
100
AcDbLine
 10
117.5337
 20
34.936
 30
0.0
 11
123.646
 21
37.43199999999999
 31
0.0
  0
LINE
  5
71
330
1E
100
AcDbEntity
  8
0
100
AcDbLine
 10
104.4608999999999
 20
34.936
 30
0.0
 11
110.6060999999999
 21
37.43199999999999
 31
0.0
  0
LINE
  5
72
330
1E
100
AcDbEntity
  8
0
100
AcDbLine
 10
104.1136
 20
34.936
 30
0.0
 11
110.2589
 21
37.43199999999999
 31
0.0
  0
LINE
  5
73
330
1E
100
AcDbEntity
  8
0
100
AcDbLine
 10
82.8452
 20
35.0
 30
0.0
 11
83.95650000000001
 21
35.89999999999999
 31
0.0
  0
LINE
  5
74
330
1E
100
AcDbEntity
  8
0
100
AcDbLine
 10
72.01229999999999
 20
35.0
 30
0.0
 11
82.8452
 21
35.0
 31
0.0
  0
LINE
  5
75
330
1E
100
AcDbEntity
  8
0
100
AcDbLine
 10
63.7701
 20
35.22
 30
0.0
 11
65.05849999999999
 21
29.62
 31
0.0
  0
LINE
  5
76
330
1E
100
AcDbEntity
  8
0
100
AcDbLine
 10
70.90100000000001
 20
35.89999999999999
 30
0.0
 11
72.01229999999999
 21
35.0
 31
0.0
  0
LINE
  5
77
330
1E
100
AcDbEntity
  8
0
100
AcDbLine
 10
81.73379999999999
 20
35.89999999999999
 30
0.0
 11
82.8452
 21
35.0
 31
0.0
  0
LINE
  5
78
330
1E
100
AcDbEntity
  8
0
100
AcDbLine
 10
90.1443
 20
37.0
 30
0.0
 11
95.94289999999999
 21
37.828
 31
0.0
  0
LINE
  5
79
330
1E
100
AcDbEntity
  8
0
100
AcDbLine
 10
84.93489999999999
 20
37.0
 30
0.0
 11
90.73339999999999
 21
37.828
 31
0.0
  0
LINE
  5
7A
330
1E
100
AcDbEntity
  8
0
100
AcDbLine
 10
84.93489999999999
 20
37.0
 30
0.0
 11
90.1443
 21
37.0
 31
0.0
  0
LINE
  5
7B
330
1E
100
AcDbEntity
  8
0
100
AcDbLine
 10
84.93489999999999
 20
37.0
 30
0.0
 11
84.93489999999999
 21
38.1537287647567
 31
0.0
  0
LINE
  5
7C
330
1E
100
AcDbEntity
  8
0
100
AcDbLine
 10
106.8132999999999
 20
35.8914758836165
 30
0.0
 11
106.8132999999999
 21
34.5
 31
0.0
  0
LINE
  5
7E
330
1E
100
AcDbEntity
  8
0
100
AcDbLine
 10
84.46327364124108
 20
37.06734498414309
 30
0.0
 11
84.93489999999999
 21
37.0
 31
0.0
  0
LINE
  5
7F
330
1E
100
AcDbEntity
  8
0
100
AcDbLine
 10
110.4990685141469
 20
37.38852694970239
 30
0.0
 11
113.5602
 21
37.828
 31
0.0
  0
LINE
  5
80
330
1E
100
AcDbEntity
  8
0
100
AcDbLine
 10
85.9222923076922
 20
37.0
 30
0.0
 11
91.0038999999999
 21
34.936
 31
0.0
  0
LINE
  5
81
330
1E
100
AcDbEntity
  8
0
100
AcDbLine
 10
111.5909
 20
37.14062246419529
 30
0.0
 11
116.3788
 21
37.828
 31
0.0
  0
LINE
  5
82
330
1E
100
AcDbEntity
  8
0
100
AcDbLine
 10
111.5909
 20
37.14062246419529
 30
0.0
 11
111.5909
 21
34.5
 31
0.0
  0
LINE
  5
83
330
1E
100
AcDbEntity
  8
0
100
AcDbLine
 10
123.2433
 20
37.43199999999999
 30
0.0
 11
128.6424
 21
41.592
 31
0.0
  0
LINE
  5
84
330
1E
100
AcDbEntity
  8
0
100
AcDbLine
 10
123.646
 20
37.43199999999999
 30
0.0
 11
129.0451
 21
41.592
 31
0.0
  0
LINE
  5
85
330
1E
100
AcDbEntity
  8
0
100
AcDbLine
 10
110.6060999999999
 20
37.43199999999999
 30
0.0
 11
116.0344
 21
41.592
 31
0.0
  0
LINE
  5
86
330
1E
100
AcDbEntity
  8
0
100
AcDbLine
 10
110.2589
 20
37.43199999999999
 30
0.0
 11
115.6870999999999
 21
41.592
 31
0.0
  0
LINE
  5
87
330
1E
100
AcDbEntity
  8
0
100
AcDbLine
 10
83.95650000000001
 20
35.89999999999999
 30
0.0
 11
84.9984
 21
38.3
 31
0.0
  0
LINE
  5
88
330
1E
100
AcDbEntity
  8
0
100
AcDbLine
 10
67.70929999999999
 20
35.22
 30
0.0
 11
68.99779999999999
 21
29.62
 31
0.0
  0
LINE
  5
8B
330
1E
100
AcDbEntity
  8
0
100
AcDbLine
 10
80.692
 20
38.3
 30
0.0
 11
81.73379999999999
 21
35.89999999999999
 31
0.0
  0
LINE
  5
8C
330
1E
100
AcDbEntity
  8
0
100
AcDbLine
 10
69.8591
 20
38.3
 30
0.0
 11
70.90100000000001
 21
35.89999999999999
 31
0.0
  0
LINE
  5
8D
330
1E
100
AcDbEntity
  8
0
100
AcDbLine
 10
85.1670994104537
 20
39.03315693374059
 30
0.0
 11
90.2292
 21
39.756
 31
0.0
  0
LINE
  5
8E
330
1E
100
AcDbEntity
  8
0
100
AcDbLine
 10
85.2850866374723
 20
39.54592193599439
 30
0.0
 11
86.75629999999999
 21
39.756
 31
0.0
  0
LINE
  5
8F
330
1E
100
AcDbEntity
  8
0
100
AcDbLine
 10
90.2292
 20
39.756
 30
0.0
 11
95.1927
 21
41.772
 31
0.0
  0
LINE
  5
90
330
1E
100
AcDbEntity
  8
0
100
AcDbLine
 10
86.75629999999999
 20
39.756
 30
0.0
 11
91.71969999999999
 21
41.772
 31
0.0
  0
LINE
  5
93
330
1E
100
AcDbEntity
  8
0
100
AcDbLine
 10
95.94289999999999
 20
37.828
 30
0.0
 11
101.3789999999999
 21
40.036
 31
0.0
  0
LINE
  5
94
330
1E
100
AcDbEntity
  8
0
100
AcDbLine
 10
90.73339999999999
 20
37.828
 30
0.0
 11
96.1696
 21
40.036
 31
0.0
  0
LINE
  5
96
330
1E
100
AcDbEntity
  8
0
100
AcDbLine
 10
113.5602
 20
37.828
 30
0.0
 11
118.9672
 21
40.036
 31
0.0
  0
LINE
  5
97
330
1E
100
AcDbEntity
  8
0
100
AcDbLine
 10
116.3788
 20
37.828
 30
0.0
 11
121.7857999999999
 21
40.036
 31
0.0
  0
LINE
  5
98
330
1E
100
AcDbEntity
  8
0
100
AcDbLine
 10
126.9860999999999
 20
40.0
 30
0.0
 11
134.4627
 21
40.0
 31
0.0
  0
LINE
  5
99
330
1E
100
AcDbEntity
  8
0
100
AcDbLine
 10
142.4860999999999
 20
40.0
 30
0.0
 11
296.4861
 21
40.0
 31
0.0
  0
LINE
  5
9A
330
1E
100
AcDbEntity
  8
0
100
AcDbLine
 10
134.4627
 20
40.0
 30
0.0
 11
142.4860999999999
 21
40.0
 31
0.0
  0
LINE
  5
9B
330
1E
100
AcDbEntity
  8
0
100
AcDbLine
 10
84.9984
 20
38.3
 30
0.0
 11
85.91880000000001
 21
42.29999999999999
 31
0.0
  0
LINE
  5
9C
330
1E
100
AcDbEntity
  8
0
100
AcDbLine
 10
296.4861
 20
37.5
 30
0.0
 11
296.4861
 21
34.5
 31
0.0
  0
LINE
  5
9D
330
1E
100
AcDbEntity
  8
0
100
AcDbLine
 10
296.4861
 20
37.0
 30
0.0
 11
296.4861
 21
37.828
 31
0.0
  0
LINE
  5
9E
330
1E
100
AcDbEntity
  8
0
100
AcDbLine
 10
118.9672
 20
40.036
 30
0.0
 11
123.7433999999999
 21
43.71599999999999
 31
0.0
  0
LINE
  5
9F
330
1E
100
AcDbEntity
  8
0
100
AcDbLine
 10
101.3789999999999
 20
40.036
 30
0.0
 11
106.1809999999999
 21
43.71599999999999
 31
0.0
  0
LINE
  5
A0
330
1E
100
AcDbEntity
  8
0
100
AcDbLine
 10
96.1696
 20
40.036
 30
0.0
 11
100.9715
 21
43.71599999999999
 31
0.0
  0
LINE
  5
A2
330
1E
100
AcDbEntity
  8
0
100
AcDbLine
 10
121.7857999999999
 20
40.036
 30
0.0
 11
126.5619
 21
43.71599999999999
 31
0.0
  0
LINE
  5
A3
330
1E
100
AcDbEntity
  8
0
100
AcDbLine
 10
52.19594
 20
40.16
 30
0.0
 11
53.30728
 21
31.68
 31
0.0
  0
LINE
  5
A4
330
1E
100
AcDbEntity
  8
0
100
AcDbLine
 10
128.6424
 20
41.592
 30
0.0
 11
132.7172999999999
 21
47.10399999999999
 31
0.0
  0
LINE
  5
A5
330
1E
100
AcDbEntity
  8
0
100
AcDbLine
 10
129.0451
 20
41.592
 30
0.0
 11
133.1199
 21
47.10399999999999
 31
0.0
  0
LINE
  5
A6
330
1E
100
AcDbEntity
  8
0
100
AcDbLine
 10
58.1048
 20
40.16
 30
0.0
 11
59.2161
 21
31.68
 31
0.0
  0
LINE
  5
A7
330
1E
100
AcDbEntity
  8
0
100
AcDbLine
 10
296.4861
 20
40.036
 30
0.0
 11
296.4861
 21
43.71599999999999
 31
0.0
  0
LINE
  5
A8
330
1E
100
AcDbEntity
  8
0
100
AcDbLine
 10
296.4861
 20
40.036
 30
0.0
 11
296.4861
 21
37.828
 31
0.0
  0
LINE
  5
A9
330
1E
100
AcDbEntity
  8
0
100
AcDbLine
 10
296.4861
 20
40.0
 30
0.0
 11
296.4861
 21
37.828
 31
0.0
  0
LINE
  5
AA
330
1E
100
AcDbEntity
  8
0
100
AcDbLine
 10
310.4861
 20
40.036
 30
0.0
 11
310.4861
 21
43.71599999999999
 31
0.0
  0
LINE
  5
AB
330
1E
100
AcDbEntity
  8
0
100
AcDbLine
 10
310.4861
 20
40.036
 30
0.0
 11
310.4861
 21
37.828
 31
0.0
  0
LINE
  5
AC
330
1E
100
AcDbEntity
  8
0
100
AcDbLine
 10
310.4861
 20
37.828
 30
0.0
 11
310.4861
 21
40.036
 31
0.0
  0
LINE
  5
AD
330
1E
100
AcDbEntity
  8
0
100
AcDbLine
 10
310.4861
 20
37.828
 30
0.0
 11
310.4861
 21
37.0
 31
0.0
  0
LINE
  5
AE
330
1E
100
AcDbEntity
  8
0
100
AcDbLine
 10
310.4861
 20
37.0
 30
0.0
 11
310.4861
 21
37.828
 31
0.0
  0
LINE
  5
AF
330
1E
100
AcDbEntity
  8
0
100
AcDbLine
 10
310.4861
 20
37.0
 30
0.0
 11
310.4861
 21
34.5
 31
0.0
  0
LINE
  5
B0
330
1E
100
AcDbEntity
  8
0
100
AcDbLine
 10
296.4861
 20
37.828
 30
0.0
 11
296.4861
 21
37.0
 31
0.0
  0
LINE
  5
B1
330
1E
100
AcDbEntity
  8
0
100
AcDbLine
 10
296.4861
 20
37.828
 30
0.0
 11
296.4861
 21
40.0
 31
0.0
  0
LINE
  5
B2
330
1E
100
AcDbEntity
  8
0
100
AcDbLine
 10
296.4861
 20
37.828
 30
0.0
 11
296.4861
 21
40.036
 31
0.0
  0
LINE
  5
B3
330
1E
100
AcDbEntity
  8
0
100
AcDbLine
 10
13.9532
 20
43.79999999999999
 30
0.0
 11
14.8388
 21
37.0
 31
0.0
  0
LINE
  5
B4
330
1E
100
AcDbEntity
  8
0
100
AcDbLine
 10
91.71969999999999
 20
41.772
 30
0.0
 11
96.10410000000001
 21
45.132
 31
0.0
  0
LINE
  5
B6
330
1E
100
AcDbEntity
  8
0
100
AcDbLine
 10
95.1927
 20
41.772
 30
0.0
 11
99.57700000000002
 21
45.132
 31
0.0
  0
LINE
  5
B7
330
1E
100
AcDbEntity
  8
0
100
AcDbLine
 10
95.1926695652174
 20
41.772
 30
0.0
 11
96.1696
 21
40.036
 31
0.0
  0
LINE
  5
B9
330
1E
100
AcDbEntity
  8
0
100
AcDbLine
 10
116.0344
 20
41.592
 30
0.0
 11
120.1312
 21
47.10399999999999
 31
0.0
  0
LINE
  5
BA
330
1E
100
AcDbEntity
  8
0
100
AcDbLine
 10
115.6870999999999
 20
41.592
 30
0.0
 11
119.7839
 21
47.10399999999999
 31
0.0
  0
LINE
  5
BB
330
1E
100
AcDbEntity
  8
0
100
AcDbLine
 10
79.77160000000001
 20
42.29999999999999
 30
0.0
 11
80.692
 21
38.3
 31
0.0
  0
LINE
  5
BC
330
1E
100
AcDbEntity
  8
0
100
AcDbLine
 10
68.93869999999999
 20
42.29999999999999
 30
0.0
 11
69.8591
 21
38.3
 31
0.0
  0
LINE
  5
BD
330
1E
100
AcDbEntity
  8
0
100
AcDbLine
 10
85.91880000000001
 20
42.29999999999999
 30
0.0
 11
86.6134
 21
47.6
 31
0.0
  0
LINE
  5
BE
330
1E
100
AcDbEntity
  8
0
100
AcDbLine
 10
62.7976
 20
42.64
 30
0.0
 11
63.7701
 21
35.22
 31
0.0
  0
LINE
  5
C1
330
1E
100
AcDbEntity
  8
0
100
AcDbLine
 10
99.57700000000002
 20
45.132
 30
0.0
 11
102.886
 21
49.584
 31
0.0
  0
LINE
  5
C2
330
1E
100
AcDbEntity
  8
0
100
AcDbLine
 10
96.10410000000001
 20
45.132
 30
0.0
 11
99.413
 21
49.584
 31
0.0
  0
LINE
  5
C5
330
1E
100
AcDbEntity
  8
0
100
AcDbLine
 10
106.1809999999999
 20
43.71599999999999
 30
0.0
 11
109.805
 21
48.592
 31
0.0
  0
LINE
  5
C6
330
1E
100
AcDbEntity
  8
0
100
AcDbLine
 10
100.9715
 20
43.71599999999999
 30
0.0
 11
104.5956
 21
48.592
 31
0.0
  0
LINE
  5
C8
330
1E
100
AcDbEntity
  8
0
100
AcDbLine
 10
123.7433999999999
 20
43.71599999999999
 30
0.0
 11
126.6925848376372
 21
47.70540944024838
 31
0.0
  0
LINE
  5
C9
330
1E
100
AcDbEntity
  8
0
100
AcDbLine
 10
126.5619
 20
43.71599999999999
 30
0.0
 11
128.655719585582
 21
46.5482646265429
 31
0.0
  0
LINE
  5
CA
330
1E
100
AcDbEntity
  8
0
100
AcDbLine
 10
66.7369
 20
42.64
 30
0.0
 11
67.70929999999999
 21
35.22
 31
0.0
  0
LINE
  5
CC
330
1E
100
AcDbEntity
  8
0
100
AcDbLine
 10
128.9344
 20
46.38399999999999
 30
0.0
 11
131.7529999999999
 21
46.38399999999999
 31
0.0
  0
LINE
  5
CD
330
1E
100
AcDbEntity
  8
0
100
AcDbLine
 10
128.9344
 20
46.38399999999999
 30
0.0
 11
129.9139999999999
 21
48.11600000000001
 31
0.0
  0
LINE
  5
CE
330
1E
100
AcDbEntity
  8
0
100
AcDbLine
 10
131.7529999999999
 20
46.38399999999999
 30
0.0
 11
132.7324999999999
 21
48.11600000000001
 31
0.0
  0
LINE
  5
D2
330
1E
100
AcDbEntity
  8
0
100
AcDbLine
 10
119.596059216255
 20
46.38399999999999
 30
0.0
 11
121.5927999999999
 21
46.38399999999999
 31
0.0
  0
LINE
  5
D3
330
1E
100
AcDbEntity
  8
0
100
AcDbLine
 10
132.7172999999999
 20
47.10399999999999
 30
0.0
 11
135.1621
 21
53.34399999999999
 31
0.0
  0
LINE
  5
D4
330
1E
100
AcDbEntity
  8
0
100
AcDbLine
 10
133.1199
 20
47.10399999999999
 30
0.0
 11
135.5647999999999
 21
53.34399999999999
 31
0.0
  0
LINE
  5
D5
330
1E
100
AcDbEntity
  8
0
100
AcDbLine
 10
121.5927999999999
 20
46.38399999999999
 30
0.0
 11
122.5775999999999
 21
48.11600000000001
 31
0.0
  0
LINE
  5
D6
330
1E
100
AcDbEntity
  8
0
100
AcDbLine
 10
120.1312
 20
47.10399999999999
 30
0.0
 11
122.5892999999999
 21
53.34399999999999
 31
0.0
  0
LINE
  5
D7
330
1E
100
AcDbEntity
  8
0
100
AcDbLine
 10
119.7839
 20
47.10399999999999
 30
0.0
 11
122.242
 21
53.34399999999999
 31
0.0
  0
LINE
  5
D8
330
1E
100
AcDbEntity
  8
0
100
AcDbLine
 10
79.077
 20
47.6
 30
0.0
 11
79.77160000000001
 21
42.29999999999999
 31
0.0
  0
LINE
  5
D9
330
1E
100
AcDbEntity
  8
0
100
AcDbLine
 10
68.2441
 20
47.6
 30
0.0
 11
68.93869999999999
 21
42.29999999999999
 31
0.0
  0
LINE
  5
DA
330
1E
100
AcDbEntity
  8
0
100
AcDbLine
 10
126.3896
 20
47.88399999999999
 30
0.0
 11
128.9344
 21
46.38399999999999
 31
0.0
  0
LINE
  5
DB
330
1E
100
AcDbEntity
  8
0
100
AcDbLine
 10
126.3896
 20
47.88399999999999
 30
0.0
 11
127.3692
 21
49.616
 31
0.0
  0
LINE
  5
DC
330
1E
100
AcDbEntity
  8
0
100
AcDbLine
 10
129.9139999999999
 20
48.11600000000001
 30
0.0
 11
132.7324999999999
 21
48.11600000000001
 31
0.0
  0
LINE
  5
DD
330
1E
100
AcDbEntity
  8
0
100
AcDbLine
 10
120.529853397436
 20
48.11600000000001
 30
0.0
 11
122.5775999999999
 21
48.11600000000001
 31
0.0
  0
LINE
  5
DE
330
1E
100
AcDbEntity
  8
0
100
AcDbLine
 10
86.6134
 20
47.6
 30
0.0
 11
87.0300999999999
 21
53.6
 31
0.0
  0
LINE
  5
DF
330
1E
100
AcDbEntity
  8
0
100
AcDbLine
 10
296.4861
 20
47.88399999999999
 30
0.0
 11
296.4861
 21
49.616
 31
0.0
  0
LINE
  5
E0
330
1E
100
AcDbEntity
  8
0
100
AcDbLine
 10
296.4861
 20
47.88399999999999
 30
0.0
 11
296.4861
 21
46.38399999999999
 31
0.0
  0
LINE
  5
E1
330
1E
100
AcDbEntity
  8
0
100
AcDbLine
 10
296.4861
 20
46.38399999999999
 30
0.0
 11
310.4861
 21
46.38399999999999
 31
0.0
  0
LINE
  5
E2
330
1E
100
AcDbEntity
  8
0
100
AcDbLine
 10
296.4861
 20
46.38399999999999
 30
0.0
 11
296.4861
 21
47.88399999999999
 31
0.0
  0
LINE
  5
E3
330
1E
100
AcDbEntity
  8
0
100
AcDbLine
 10
296.4861
 20
46.38399999999999
 30
0.0
 11
296.4861
 21
48.11600000000001
 31
0.0
  0
LINE
  5
E4
330
1E
100
AcDbEntity
  8
0
100
AcDbLine
 10
296.4861
 20
48.11600000000001
 30
0.0
 11
310.4861
 21
48.11600000000001
 31
0.0
  0
LINE
  5
E5
330
1E
100
AcDbEntity
  8
0
100
AcDbLine
 10
296.4861
 20
48.11600000000001
 30
0.0
 11
296.4861
 21
46.38399999999999
 31
0.0
  0
LINE
  5
E6
330
1E
100
AcDbEntity
  8
0
100
AcDbLine
 10
296.4861
 20
48.11600000000001
 30
0.0
 11
296.4861
 21
49.616
 31
0.0
  0
LINE
  5
E7
330
1E
100
AcDbEntity
  8
0
100
AcDbLine
 10
109.805
 20
48.592
 30
0.0
 11
111.9795
 21
54.112
 31
0.0
  0
LINE
  5
E8
330
1E
100
AcDbEntity
  8
0
100
AcDbLine
 10
104.5956
 20
48.592
 30
0.0
 11
106.7701
 21
54.112
 31
0.0
  0
LINE
  5
EA
330
1E
100
AcDbEntity
  8
0
100
AcDbLine
 10
127.6779173144162
 20
49.4340305047059
 30
0.0
 11
129.5107999999999
 21
54.112
 31
0.0
  0
LINE
  5
EB
330
1E
100
AcDbEntity
  8
0
100
AcDbLine
 10
99.413
 20
49.584
 30
0.0
 11
101.3983999999999
 21
54.62399999999999
 31
0.0
  0
LINE
  5
ED
330
1E
100
AcDbEntity
  8
0
100
AcDbLine
 10
102.886
 20
49.584
 30
0.0
 11
104.8713
 21
54.62399999999999
 31
0.0
  0
LINE
  5
EF
330
1E
100
AcDbEntity
  8
0
100
AcDbLine
 10
127.3692
 20
49.616
 30
0.0
 11
129.9139999999999
 21
48.11600000000001
 31
0.0
  0
LINE
  5
F0
330
1E
100
AcDbEntity
  8
0
100
AcDbLine
 10
130.496498552593
 20
49.4339826198959
 30
0.0
 11
132.3293999999999
 21
54.112
 31
0.0
  0
LINE
  5
F1
330
1E
100
AcDbEntity
  8
0
100
AcDbLine
 10
130.496498552593
 20
49.4339826198959
 30
0.0
 11
132.7324999999999
 21
48.11600000000001
 31
0.0
  0
LINE
  5
F2
330
1E
100
AcDbEntity
  8
0
100
AcDbLine
 10
120.9140522518969
 20
49.09130647729339
 30
0.0
 11
122.5775999999999
 21
48.11600000000001
 31
0.0
  0
LINE
  5
F3
330
1E
100
AcDbEntity
  8
0
100
AcDbLine
 10
296.4861
 20
49.616
 30
0.0
 11
296.4861
 21
48.11600000000001
 31
0.0
  0
LINE
  5
F4
330
1E
100
AcDbEntity
  8
0
100
AcDbLine
 10
296.4861
 20
49.616
 30
0.0
 11
296.4861
 21
47.88399999999999
 31
0.0
  0
LINE
  5
F5
330
1E
100
AcDbEntity
  8
0
100
AcDbLine
 10
296.4861
 20
48.592
 30
0.0
 11
296.4861
 21
54.112
 31
0.0
  0
LINE
  5
F6
330
1E
100
AcDbEntity
  8
0
100
AcDbLine
 10
296.4861
 20
48.592
 30
0.0
 11
296.4861
 21
43.71599999999999
 31
0.0
  0
LINE
  5
F7
330
1E
100
AcDbEntity
  8
0
100
AcDbLine
 10
310.4861
 20
48.11600000000001
 30
0.0
 11
310.4861
 21
49.616
 31
0.0
  0
LINE
  5
F8
330
1E
100
AcDbEntity
  8
0
100
AcDbLine
 10
310.4861
 20
48.11600000000001
 30
0.0
 11
310.4861
 21
46.38399999999999
 31
0.0
  0
LINE
  5
F9
330
1E
100
AcDbEntity
  8
0
100
AcDbLine
 10
310.4861
 20
46.38399999999999
 30
0.0
 11
310.4861
 21
43.71599999999999
 31
0.0
  0
LINE
  5
FA
330
1E
100
AcDbEntity
  8
0
100
AcDbLine
 10
310.4861
 20
46.38399999999999
 30
0.0
 11
310.4861
 21
48.11600000000001
 31
0.0
  0
LINE
  5
FB
330
1E
100
AcDbEntity
  8
0
100
AcDbLine
 10
296.4861
 20
43.71599999999999
 30
0.0
 11
296.4861
 21
48.592
 31
0.0
  0
LINE
  5
FC
330
1E
100
AcDbEntity
  8
0
100
AcDbLine
 10
296.4861
 20
43.71599999999999
 30
0.0
 11
296.4861
 21
40.036
 31
0.0
  0
LINE
  5
FD
330
1E
100
AcDbEntity
  8
0
100
AcDbLine
 10
10.96819999999999
 20
51.324
 30
0.0
 11
13.0954
 21
52.188
 31
0.0
  0
LINE
  5
FE
330
1E
100
AcDbEntity
  8
0
100
AcDbLine
 10
8.69919999999996
 20
51.0
 30
0.0
 11
13.4402461538461
 21
51.0
 31
0.0
  0
LINE
  5
FF
330
1E
100
AcDbEntity
  8
0
100
AcDbLine
 10
8.69919999999996
 20
51.0
 30
0.0
 11
10.96819999999999
 21
51.324
 31
0.0
  0
LINE
  5
100
330
1E
100
AcDbEntity
  8
0
100
AcDbLine
 10
6.430199999999959
 20
51.324
 30
0.0
 11
8.69919999999996
 21
51.0
 31
0.0
  0
LINE
  5
101
330
1E
100
AcDbEntity
  8
0
100
AcDbLine
 10
13.0954
 20
52.188
 30
0.0
 11
13.37754748669699
 21
52.4042279834187
 31
0.0
  0
LINE
  5
102
330
1E
100
AcDbEntity
  8
0
100
AcDbLine
 10
4.30299999999995
 20
52.188
 30
0.0
 11
6.430199999999959
 21
51.324
 31
0.0
  0
LINE
  5
103
330
1E
100
AcDbEntity
  8
0
100
AcDbLine
 10
13.3975
 20
51.6
 30
0.0
 11
13.9532
 21
43.79999999999999
 31
0.0
  0
LINE
  5
104
330
1E
100
AcDbEntity
  8
0
100
AcDbLine
 10
51.52913
 20
49.75999999999999
 30
0.0
 11
52.19594
 21
40.16
 31
0.0
  0
LINE
  5
105
330
1E
100
AcDbEntity
  8
0
100
AcDbLine
 10
62.2142
 20
51.04
 30
0.0
 11
62.7976
 21
42.64
 31
0.0
  0
LINE
  5
107
330
1E
100
AcDbEntity
  8
0
100
AcDbLine
 10
135.1621
 20
53.34399999999999
 30
0.0
 11
136.079
 21
60.0
 31
0.0
  0
LINE
  5
108
330
1E
100
AcDbEntity
  8
0
100
AcDbLine
 10
135.5647999999999
 20
53.34399999999999
 30
0.0
 11
136.4815999999999
 21
60.0
 31
0.0
  0
LINE
  5
109
330
1E
100
AcDbEntity
  8
0
100
AcDbLine
 10
122.5892999999999
 20
53.34399999999999
 30
0.0
 11
123.5111
 21
60.0
 31
0.0
  0
LINE
  5
10A
330
1E
100
AcDbEntity
  8
0
100
AcDbLine
 10
122.242
 20
53.34399999999999
 30
0.0
 11
123.1638
 21
60.0
 31
0.0
  0
LINE
  5
10B
330
1E
100
AcDbEntity
  8
0
100
AcDbLine
 10
66.1534
 20
51.04
 30
0.0
 11
66.7369
 21
42.64
 31
0.0
  0
LINE
  5
10D
330
1E
100
AcDbEntity
  8
0
100
AcDbLine
 10
57.438
 20
49.75999999999999
 30
0.0
 11
58.1048
 21
40.16
 31
0.0
  0
LINE
  5
10F
330
1E
100
AcDbEntity
  8
0
100
AcDbLine
 10
310.4861
 20
49.616
 30
0.0
 11
310.4861
 21
54.112
 31
0.0
  0
LINE
  5
110
330
1E
100
AcDbEntity
  8
0
100
AcDbLine
 10
310.4861
 20
49.616
 30
0.0
 11
310.4861
 21
48.11600000000001
 31
0.0
  0
LINE
  5
111
330
1E
100
AcDbEntity
  8
0
100
AcDbLine
 10
310.4861
 20
43.71599999999999
 30
0.0
 11
310.4861
 21
46.38399999999999
 31
0.0
  0
LINE
  5
112
330
1E
100
AcDbEntity
  8
0
100
AcDbLine
 10
310.4861
 20
43.71599999999999
 30
0.0
 11
310.4861
 21
40.036
 31
0.0
  0
LINE
  5
113
330
1E
100
AcDbEntity
  8
0
100
AcDbLine
 10
78.66030000000001
 20
53.6
 30
0.0
 11
79.077
 21
47.6
 31
0.0
  0
LINE
  5
114
330
1E
100
AcDbEntity
  8
0
100
AcDbLine
 10
2.42399999999995
 20
53.628
 30
0.0
 11
4.30299999999995
 21
52.188
 31
0.0
  0
LINE
  5
115
330
1E
100
AcDbEntity
  8
0
100
AcDbLine
 10
67.8274
 20
53.6
 30
0.0
 11
68.2441
 21
47.6
 31
0.0
  0
LINE
  5
116
330
1E
100
AcDbEntity
  8
0
100
AcDbLine
 10
129.5107999999999
 20
54.112
 30
0.0
 11
130.3217999999999
 21
60.0
 31
0.0
  0
LINE
  5
117
330
1E
100
AcDbEntity
  8
0
100
AcDbLine
 10
132.3293999999999
 20
54.112
 30
0.0
 11
133.1404
 21
60.0
 31
0.0
  0
LINE
  5
118
330
1E
100
AcDbEntity
  8
0
100
AcDbLine
 10
87.0300999999999
 20
53.6
 30
0.0
 11
87.1864
 21
60.0
 31
0.0
  0
LINE
  5
119
330
1E
100
AcDbEntity
  8
0
100
AcDbLine
 10
1.005899999999959
 20
55.536
 30
0.0
 11
2.42399999999995
 21
53.628
 31
0.0
  0
LINE
  5
11A
330
1E
100
AcDbEntity
  8
0
100
AcDbLine
 10
0.154999999999958
 20
57.696
 30
0.0
 11
1.005899999999959
 21
55.536
 31
0.0
  0
LINE
  5
11B
330
1E
100
AcDbEntity
  8
0
100
AcDbLine
 10
-0.164100000000041
 20
60.0
 30
0.0
 11
0.154999999999958
 21
62.30399999999999
 31
0.0
  0
LINE
  5
11C
330
1E
100
AcDbEntity
  8
0
100
AcDbLine
 10
-0.164100000000041
 20
60.0
 30
0.0
 11
0.154999999999958
 21
57.696
 31
0.0
  0
LINE
  5
11D
330
1E
100
AcDbEntity
  8
0
100
AcDbLine
 10
1.005899999999959
 20
64.464
 30
0.0
 11
2.42399999999995
 21
66.37199999999999
 31
0.0
  0
LINE
  5
11E
330
1E
100
AcDbEntity
  8
0
100
AcDbLine
 10
0.154999999999958
 20
62.30399999999999
 30
0.0
 11
1.005899999999959
 21
64.464
 31
0.0
  0
LINE
  5
11F
330
1E
100
AcDbEntity
  8
0
100
AcDbLine
 10
13.1891
 20
60.0
 30
0.0
 11
13.3975
 21
68.4
 31
0.0
  0
LINE
  5
120
330
1E
100
AcDbEntity
  8
0
100
AcDbLine
 10
13.1891
 20
60.0
 30
0.0
 11
13.3975
 21
51.6
 31
0.0
  0
LINE
  5
122
330
1E
100
AcDbEntity
  8
0
100
AcDbLine
 10
104.8713
 20
54.62399999999999
 30
0.0
 11
105.6159
 21
60.0
 31
0.0
  0
LINE
  5
124
330
1E
100
AcDbEntity
  8
0
100
AcDbLine
 10
101.3983999999999
 20
54.62399999999999
 30
0.0
 11
102.1428999999999
 21
60.0
 31
0.0
  0
LINE
  5
127
330
1E
100
AcDbEntity
  8
0
100
AcDbLine
 10
106.7701
 20
54.112
 30
0.0
 11
107.5855
 21
60.0
 31
0.0
  0
LINE
  5
129
330
1E
100
AcDbEntity
  8
0
100
AcDbLine
 10
111.9795
 20
54.112
 30
0.0
 11
112.7949
 21
60.0
 31
0.0
  0
LINE
  5
130
330
1E
100
AcDbEntity
  8
0
100
AcDbLine
 10
78.50399999999999
 20
60.0
 30
0.0
 11
78.66030000000001
 21
66.4
 31
0.0
  0
LINE
  5
131
330
1E
100
AcDbEntity
  8
0
100
AcDbLine
 10
78.50399999999999
 20
60.0
 30
0.0
 11
78.66030000000001
 21
53.6
 31
0.0
  0
LINE
  5
132
330
1E
100
AcDbEntity
  8
0
100
AcDbLine
 10
67.67109999999999
 20
60.0
 30
0.0
 11
67.8274
 21
66.4
 31
0.0
  0
LINE
  5
133
330
1E
100
AcDbEntity
  8
0
100
AcDbLine
 10
67.67109999999999
 20
60.0
 30
0.0
 11
67.8274
 21
53.6
 31
0.0
  0
LINE
  5
134
330
1E
100
AcDbEntity
  8
0
100
AcDbLine
 10
61.99539999999999
 20
60.0
 30
0.0
 11
62.2142
 21
68.95999999999999
 31
0.0
  0
LINE
  5
135
330
1E
100
AcDbEntity
  8
0
100
AcDbLine
 10
61.99539999999999
 20
60.0
 30
0.0
 11
62.2142
 21
51.04
 31
0.0
  0
LINE
  5
136
330
1E
100
AcDbEntity
  8
0
100
AcDbLine
 10
65.93459999999989
 20
60.0
 30
0.0
 11
66.1534
 21
68.95999999999999
 31
0.0
  0
LINE
  5
137
330
1E
100
AcDbEntity
  8
0
100
AcDbLine
 10
65.93459999999989
 20
60.0
 30
0.0
 11
66.1534
 21
51.04
 31
0.0
  0
LINE
  5
13B
330
1E
100
AcDbEntity
  8
0
100
AcDbLine
 10
51.27907
 20
60.0
 30
0.0
 11
51.52913
 21
70.24
 31
0.0
  0
LINE
  5
13C
330
1E
100
AcDbEntity
  8
0
100
AcDbLine
 10
51.27907
 20
60.0
 30
0.0
 11
51.52913
 21
49.75999999999999
 31
0.0
  0
LINE
  5
13E
330
1E
100
AcDbEntity
  8
0
100
AcDbLine
 10
104.8713
 20
65.37600000000001
 30
0.0
 11
105.6159
 21
60.0
 31
0.0
  0
LINE
  5
13F
330
1E
100
AcDbEntity
  8
0
100
AcDbLine
 10
101.3983999999999
 20
65.37600000000001
 30
0.0
 11
102.1428999999999
 21
60.0
 31
0.0
  0
LINE
  5
145
330
1E
100
AcDbEntity
  8
0
100
AcDbLine
 10
57.1879
 20
60.0
 30
0.0
 11
57.438
 21
70.24
 31
0.0
  0
LINE
  5
146
330
1E
100
AcDbEntity
  8
0
100
AcDbLine
 10
57.1879
 20
60.0
 30
0.0
 11
57.438
 21
49.75999999999999
 31
0.0
  0
LINE
  5
149
330
1E
100
AcDbEntity
  8
0
100
AcDbLine
 10
296.4861
 20
54.112
 30
0.0
 11
296.4861
 21
60.0
 31
0.0
  0
LINE
  5
14A
330
1E
100
AcDbEntity
  8
0
100
AcDbLine
 10
296.4861
 20
54.112
 30
0.0
 11
296.4861
 21
48.592
 31
0.0
  0
LINE
  5
14B
330
1E
100
AcDbEntity
  8
0
100
AcDbLine
 10
310.4861
 20
54.112
 30
0.0
 11
310.4861
 21
60.0
 31
0.0
  0
LINE
  5
14C
330
1E
100
AcDbEntity
  8
0
100
AcDbLine
 10
310.4861
 20
54.112
 30
0.0
 11
310.4861
 21
49.616
 31
0.0
  0
LINE
  5
14D
330
1E
100
AcDbEntity
  8
0
100
AcDbLine
 10
296.4861
 20
60.0
 30
0.0
 11
296.4861
 21
65.888
 31
0.0
  0
LINE
  5
14E
330
1E
100
AcDbEntity
  8
0
100
AcDbLine
 10
296.4861
 20
60.0
 30
0.0
 11
296.4861
 21
54.112
 31
0.0
  0
LINE
  5
14F
330
1E
100
AcDbEntity
  8
0
100
AcDbLine
 10
2.42399999999995
 20
66.37199999999999
 30
0.0
 11
4.30299999999995
 21
67.812
 31
0.0
  0
LINE
  5
150
330
1E
100
AcDbEntity
  8
0
100
AcDbLine
 10
111.9795
 20
65.888
 30
0.0
 11
112.7949
 21
60.0
 31
0.0
  0
LINE
  5
151
330
1E
100
AcDbEntity
  8
0
100
AcDbLine
 10
106.7701
 20
65.888
 30
0.0
 11
107.5855
 21
60.0
 31
0.0
  0
LINE
  5
153
330
1E
100
AcDbEntity
  8
0
100
AcDbLine
 10
129.5107999999999
 20
65.888
 30
0.0
 11
130.3217999999999
 21
60.0
 31
0.0
  0
LINE
  5
154
330
1E
100
AcDbEntity
  8
0
100
AcDbLine
 10
132.3293999999999
 20
65.888
 30
0.0
 11
133.1404
 21
60.0
 31
0.0
  0
LINE
  5
155
330
1E
100
AcDbEntity
  8
0
100
AcDbLine
 10
87.0300999999999
 20
66.4
 30
0.0
 11
87.1864
 21
60.0
 31
0.0
  0
LINE
  5
156
330
1E
100
AcDbEntity
  8
0
100
AcDbLine
 10
135.1621
 20
66.65600000000001
 30
0.0
 11
136.079
 21
60.0
 31
0.0
  0
LINE
  5
157
330
1E
100
AcDbEntity
  8
0
100
AcDbLine
 10
135.5647999999999
 20
66.65600000000001
 30
0.0
 11
136.4815999999999
 21
60.0
 31
0.0
  0
LINE
  5
158
330
1E
100
AcDbEntity
  8
0
100
AcDbLine
 10
78.66030000000001
 20
66.4
 30
0.0
 11
79.077
 21
72.40000000000001
 31
0.0
  0
LINE
  5
159
330
1E
100
AcDbEntity
  8
0
100
AcDbLine
 10
67.8274
 20
66.4
 30
0.0
 11
68.2441
 21
72.40000000000001
 31
0.0
  0
LINE
  5
15A
330
1E
100
AcDbEntity
  8
0
100
AcDbLine
 10
296.4861
 20
65.888
 30
0.0
 11
296.4861
 21
71.408
 31
0.0
  0
LINE
  5
15B
330
1E
100
AcDbEntity
  8
0
100
AcDbLine
 10
296.4861
 20
65.888
 30
0.0
 11
296.4861
 21
60.0
 31
0.0
  0
LINE
  5
15C
330
1E
100
AcDbEntity
  8
0
100
AcDbLine
 10
310.4861
 20
65.888
 30
0.0
 11
310.4861
 21
70.384
 31
0.0
  0
LINE
  5
15D
330
1E
100
AcDbEntity
  8
0
100
AcDbLine
 10
310.4861
 20
65.888
 30
0.0
 11
310.4861
 21
60.0
 31
0.0
  0
LINE
  5
15E
330
1E
100
AcDbEntity
  8
0
100
AcDbLine
 10
310.4861
 20
53.34399999999999
 30
0.0
 11
310.4861
 21
60.0
 31
0.0
  0
LINE
  5
15F
330
1E
100
AcDbEntity
  8
0
100
AcDbLine
 10
310.4861
 20
53.34399999999999
 30
0.0
 11
310.4861
 21
47.10399999999999
 31
0.0
  0
LINE
  5
160
330
1E
100
AcDbEntity
  8
0
100
AcDbLine
 10
310.4861
 20
47.10399999999999
 30
0.0
 11
310.4861
 21
53.34399999999999
 31
0.0
  0
LINE
  5
161
330
1E
100
AcDbEntity
  8
0
100
AcDbLine
 10
310.4861
 20
47.10399999999999
 30
0.0
 11
310.4861
 21
41.592
 31
0.0
  0
LINE
  5
162
330
1E
100
AcDbEntity
  8
0
100
AcDbLine
 10
310.4861
 20
41.592
 30
0.0
 11
310.4861
 21
47.10399999999999
 31
0.0
  0
LINE
  5
163
330
1E
100
AcDbEntity
  8
0
100
AcDbLine
 10
310.4861
 20
41.592
 30
0.0
 11
310.4861
 21
37.43199999999999
 31
0.0
  0
LINE
  5
164
330
1E
100
AcDbEntity
  8
0
100
AcDbLine
 10
310.4861
 20
37.43199999999999
 30
0.0
 11
310.4861
 21
41.592
 31
0.0
  0
LINE
  5
165
330
1E
100
AcDbEntity
  8
0
100
AcDbLine
 10
310.4861
 20
37.43199999999999
 30
0.0
 11
310.4861
 21
34.936
 31
0.0
  0
LINE
  5
166
330
1E
100
AcDbEntity
  8
0
100
AcDbLine
 10
310.4861
 20
34.936
 30
0.0
 11
310.4861
 21
37.43199999999999
 31
0.0
  0
LINE
  5
167
330
1E
100
AcDbEntity
  8
0
100
AcDbLine
 10
310.4861
 20
34.936
 30
0.0
 11
310.4861
 21
34.0
 31
0.0
  0
LINE
  5
168
330
1E
100
AcDbEntity
  8
0
100
AcDbLine
 10
310.4861
 20
60.0
 30
0.0
 11
310.4861
 21
66.65600000000001
 31
0.0
  0
LINE
  5
169
330
1E
100
AcDbEntity
  8
0
100
AcDbLine
 10
310.4861
 20
60.0
 30
0.0
 11
310.4861
 21
53.34399999999999
 31
0.0
  0
LINE
  5
16A
330
1E
100
AcDbEntity
  8
0
100
AcDbLine
 10
310.4861
 20
60.0
 30
0.0
 11
310.4861
 21
65.888
 31
0.0
  0
LINE
  5
16B
330
1E
100
AcDbEntity
  8
0
100
AcDbLine
 10
310.4861
 20
60.0
 30
0.0
 11
310.4861
 21
54.112
 31
0.0
  0
LINE
  5
16C
330
1E
100
AcDbEntity
  8
0
100
AcDbLine
 10
4.30299999999995
 20
67.812
 30
0.0
 11
6.430199999999959
 21
68.676
 31
0.0
  0
LINE
  5
16D
330
1E
100
AcDbEntity
  8
0
100
AcDbLine
 10
13.0954
 20
67.812
 30
0.0
 11
13.37754748669699
 21
67.59577201658129
 31
0.0
  0
LINE
  5
16E
330
1E
100
AcDbEntity
  8
0
100
AcDbLine
 10
122.5892999999999
 20
66.65600000000001
 30
0.0
 11
123.5111
 21
60.0
 31
0.0
  0
LINE
  5
16F
330
1E
100
AcDbEntity
  8
0
100
AcDbLine
 10
122.242
 20
66.65600000000001
 30
0.0
 11
123.1638
 21
60.0
 31
0.0
  0
LINE
  5
170
330
1E
100
AcDbEntity
  8
0
100
AcDbLine
 10
13.3975
 20
68.4
 30
0.0
 11
13.9532
 21
76.2
 31
0.0
  0
LINE
  5
171
330
1E
100
AcDbEntity
  8
0
100
AcDbLine
 10
6.430199999999959
 20
68.676
 30
0.0
 11
8.69919999999996
 21
69.0
 31
0.0
  0
LINE
  5
172
330
1E
100
AcDbEntity
  8
0
100
AcDbLine
 10
8.69919999999996
 20
69.0
 30
0.0
 11
10.96819999999999
 21
68.676
 31
0.0
  0
LINE
  5
173
330
1E
100
AcDbEntity
  8
0
100
AcDbLine
 10
8.69919999999996
 20
69.0
 30
0.0
 11
13.4402461538461
 21
69.0
 31
0.0
  0
LINE
  5
174
330
1E
100
AcDbEntity
  8
0
100
AcDbLine
 10
10.96819999999999
 20
68.676
 30
0.0
 11
13.0954
 21
67.812
 31
0.0
  0
LINE
  5
175
330
1E
100
AcDbEntity
  8
0
100
AcDbLine
 10
51.52913
 20
70.24
 30
0.0
 11
52.19594
 21
79.84
 31
0.0
  0
LINE
  5
176
330
1E
100
AcDbEntity
  8
0
100
AcDbLine
 10
62.2142
 20
68.95999999999999
 30
0.0
 11
62.7976
 21
77.36
 31
0.0
  0
LINE
  5
178
330
1E
100
AcDbEntity
  8
0
100
AcDbLine
 10
66.1534
 20
68.95999999999999
 30
0.0
 11
66.7369
 21
77.36
 31
0.0
  0
LINE
  5
179
330
1E
100
AcDbEntity
  8
0
100
AcDbLine
 10
99.413
 20
70.41599999999999
 30
0.0
 11
101.3983999999999
 21
65.37600000000001
 31
0.0
  0
LINE
  5
17B
330
1E
100
AcDbEntity
  8
0
100
AcDbLine
 10
102.886
 20
70.41599999999999
 30
0.0
 11
104.8713
 21
65.37600000000001
 31
0.0
  0
LINE
  5
17C
330
1E
100
AcDbEntity
  8
0
100
AcDbLine
 10
109.805
 20
71.408
 30
0.0
 11
111.9795
 21
65.888
 31
0.0
  0
LINE
  5
17E
330
1E
100
AcDbEntity
  8
0
100
AcDbLine
 10
104.5956
 20
71.408
 30
0.0
 11
106.7701
 21
65.888
 31
0.0
  0
LINE
  5
180
330
1E
100
AcDbEntity
  8
0
100
AcDbLine
 10
127.3692
 20
70.384
 30
0.0
 11
129.9139999999999
 21
71.884
 31
0.0
  0
LINE
  5
181
330
1E
100
AcDbEntity
  8
0
100
AcDbLine
 10
129.9139999999999
 20
71.884
 30
0.0
 11
132.7324999999999
 21
71.884
 31
0.0
  0
LINE
  5
182
330
1E
100
AcDbEntity
  8
0
100
AcDbLine
 10
127.6779173144162
 20
70.5659694952941
 30
0.0
 11
129.5107999999999
 21
65.888
 31
0.0
  0
LINE
  5
183
330
1E
100
AcDbEntity
  8
0
100
AcDbLine
 10
130.496498552593
 20
70.566017380104
 30
0.0
 11
132.3293999999999
 21
65.888
 31
0.0
  0
LINE
  5
184
330
1E
100
AcDbEntity
  8
0
100
AcDbLine
 10
130.496498552593
 20
70.566017380104
 30
0.0
 11
132.7324999999999
 21
71.884
 31
0.0
  0
LINE
  5
185
330
1E
100
AcDbEntity
  8
0
100
AcDbLine
 10
120.9140522518969
 20
70.9086935227066
 30
0.0
 11
122.5775999999999
 21
71.884
 31
0.0
  0
LINE
  5
187
330
1E
100
AcDbEntity
  8
0
100
AcDbLine
 10
57.438
 20
70.24
 30
0.0
 11
58.1048
 21
79.84
 31
0.0
  0
LINE
  5
189
330
1E
100
AcDbEntity
  8
0
100
AcDbLine
 10
296.4861
 20
70.384
 30
0.0
 11
296.4861
 21
72.116
 31
0.0
  0
LINE
  5
18A
330
1E
100
AcDbEntity
  8
0
100
AcDbLine
 10
296.4861
 20
70.384
 30
0.0
 11
296.4861
 21
71.884
 31
0.0
  0
LINE
  5
18B
330
1E
100
AcDbEntity
  8
0
100
AcDbLine
 10
126.3896
 20
72.116
 30
0.0
 11
128.9344
 21
73.616
 31
0.0
  0
LINE
  5
18C
330
1E
100
AcDbEntity
  8
0
100
AcDbLine
 10
126.3896
 20
72.116
 30
0.0
 11
127.3692
 21
70.384
 31
0.0
  0
LINE
  5
18D
330
1E
100
AcDbEntity
  8
0
100
AcDbLine
 10
120.529853397436
 20
71.884
 30
0.0
 11
122.5775999999999
 21
71.884
 31
0.0
  0
LINE
  5
18E
330
1E
100
AcDbEntity
  8
0
100
AcDbLine
 10
86.6134
 20
72.40000000000001
 30
0.0
 11
87.0300999999999
 21
66.4
 31
0.0
  0
LINE
  5
190
330
1E
100
AcDbEntity
  8
0
100
AcDbLine
 10
132.7172999999999
 20
72.896
 30
0.0
 11
135.1621
 21
66.65600000000001
 31
0.0
  0
LINE
  5
191
330
1E
100
AcDbEntity
  8
0
100
AcDbLine
 10
133.1199
 20
72.896
 30
0.0
 11
135.5647999999999
 21
66.65600000000001
 31
0.0
  0
LINE
  5
192
330
1E
100
AcDbEntity
  8
0
100
AcDbLine
 10
131.7529999999999
 20
73.616
 30
0.0
 11
132.7324999999999
 21
71.884
 31
0.0
  0
LINE
  5
193
330
1E
100
AcDbEntity
  8
0
100
AcDbLine
 10
128.9344
 20
73.616
 30
0.0
 11
131.7529999999999
 21
73.616
 31
0.0
  0
LINE
  5
194
330
1E
100
AcDbEntity
  8
0
100
AcDbLine
 10
128.9344
 20
73.616
 30
0.0
 11
129.9139999999999
 21
71.884
 31
0.0
  0
LINE
  5
195
330
1E
100
AcDbEntity
  8
0
100
AcDbLine
 10
121.5927999999999
 20
73.616
 30
0.0
 11
122.5775999999999
 21
71.884
 31
0.0
  0
LINE
  5
196
330
1E
100
AcDbEntity
  8
0
100
AcDbLine
 10
120.1312
 20
72.896
 30
0.0
 11
122.5892999999999
 21
66.65600000000001
 31
0.0
  0
LINE
  5
197
330
1E
100
AcDbEntity
  8
0
100
AcDbLine
 10
119.7839
 20
72.896
 30
0.0
 11
122.242
 21
66.65600000000001
 31
0.0
  0
LINE
  5
198
330
1E
100
AcDbEntity
  8
0
100
AcDbLine
 10
79.077
 20
72.40000000000001
 30
0.0
 11
79.77160000000001
 21
77.7
 31
0.0
  0
LINE
  5
199
330
1E
100
AcDbEntity
  8
0
100
AcDbLine
 10
68.2441
 20
72.40000000000001
 30
0.0
 11
68.93869999999999
 21
77.7
 31
0.0
  0
LINE
  5
19A
330
1E
100
AcDbEntity
  8
0
100
AcDbLine
 10
296.4861
 20
71.884
 30
0.0
 11
310.4861
 21
71.884
 31
0.0
  0
LINE
  5
19B
330
1E
100
AcDbEntity
  8
0
100
AcDbLine
 10
296.4861
 20
71.884
 30
0.0
 11
296.4861
 21
70.384
 31
0.0
  0
LINE
  5
19C
330
1E
100
AcDbEntity
  8
0
100
AcDbLine
 10
296.4861
 20
71.884
 30
0.0
 11
296.4861
 21
73.616
 31
0.0
  0
LINE
  5
19D
330
1E
100
AcDbEntity
  8
0
100
AcDbLine
 10
296.4861
 20
72.116
 30
0.0
 11
296.4861
 21
73.616
 31
0.0
  0
LINE
  5
19E
330
1E
100
AcDbEntity
  8
0
100
AcDbLine
 10
296.4861
 20
72.116
 30
0.0
 11
296.4861
 21
70.384
 31
0.0
  0
LINE
  5
19F
330
1E
100
AcDbEntity
  8
0
100
AcDbLine
 10
296.4861
 20
73.616
 30
0.0
 11
310.4861
 21
73.616
 31
0.0
  0
LINE
  5
1A0
330
1E
100
AcDbEntity
  8
0
100
AcDbLine
 10
296.4861
 20
73.616
 30
0.0
 11
296.4861
 21
71.884
 31
0.0
  0
LINE
  5
1A1
330
1E
100
AcDbEntity
  8
0
100
AcDbLine
 10
296.4861
 20
73.616
 30
0.0
 11
296.4861
 21
72.116
 31
0.0
  0
LINE
  5
1A2
330
1E
100
AcDbEntity
  8
0
100
AcDbLine
 10
310.4861
 20
71.884
 30
0.0
 11
310.4861
 21
73.616
 31
0.0
  0
LINE
  5
1A3
330
1E
100
AcDbEntity
  8
0
100
AcDbLine
 10
310.4861
 20
71.884
 30
0.0
 11
310.4861
 21
70.384
 31
0.0
  0
LINE
  5
1A4
330
1E
100
AcDbEntity
  8
0
100
AcDbLine
 10
310.4861
 20
70.384
 30
0.0
 11
310.4861
 21
65.888
 31
0.0
  0
LINE
  5
1A5
330
1E
100
AcDbEntity
  8
0
100
AcDbLine
 10
310.4861
 20
70.384
 30
0.0
 11
310.4861
 21
71.884
 31
0.0
  0
LINE
  5
1A6
330
1E
100
AcDbEntity
  8
0
100
AcDbLine
 10
296.4861
 20
71.408
 30
0.0
 11
296.4861
 21
76.28399999999999
 31
0.0
  0
LINE
  5
1A7
330
1E
100
AcDbEntity
  8
0
100
AcDbLine
 10
296.4861
 20
71.408
 30
0.0
 11
296.4861
 21
65.888
 31
0.0
  0
LINE
  5
1A8
330
1E
100
AcDbEntity
  8
0
100
AcDbLine
 10
119.596059216255
 20
73.616
 30
0.0
 11
121.5927999999999
 21
73.616
 31
0.0
  0
LINE
  5
1AA
330
1E
100
AcDbEntity
  8
0
100
AcDbLine
 10
96.10410000000001
 20
74.86799999999999
 30
0.0
 11
99.413
 21
70.41599999999999
 31
0.0
  0
LINE
  5
1AC
330
1E
100
AcDbEntity
  8
0
100
AcDbLine
 10
99.57700000000002
 20
74.86799999999999
 30
0.0
 11
102.886
 21
70.41599999999999
 31
0.0
  0
LINE
  5
1AE
330
1E
100
AcDbEntity
  8
0
100
AcDbLine
 10
106.1809999999999
 20
76.28399999999999
 30
0.0
 11
109.805
 21
71.408
 31
0.0
  0
LINE
  5
1AF
330
1E
100
AcDbEntity
  8
0
100
AcDbLine
 10
100.9715
 20
76.28399999999999
 30
0.0
 11
104.5956
 21
71.408
 31
0.0
  0
LINE
  5
1B1
330
1E
100
AcDbEntity
  8
0
100
AcDbLine
 10
123.7433999999999
 20
76.28399999999999
 30
0.0
 11
126.6925848376372
 21
72.29459055975161
 31
0.0
  0
LINE
  5
1B2
330
1E
100
AcDbEntity
  8
0
100
AcDbLine
 10
126.5619
 20
76.28399999999999
 30
0.0
 11
128.655719585582
 21
73.451735373457
 31
0.0
  0
LINE
  5
1B4
330
1E
100
AcDbEntity
  8
0
100
AcDbLine
 10
13.9532
 20
76.2
 30
0.0
 11
14.8388
 21
83.0
 31
0.0
  0
LINE
  5
1B6
330
1E
100
AcDbEntity
  8
0
100
AcDbLine
 10
62.7976
 20
77.36
 30
0.0
 11
63.7701
 21
84.77999999999999
 31
0.0
  0
LINE
  5
1B7
330
1E
100
AcDbEntity
  8
0
100
AcDbLine
 10
85.91880000000001
 20
77.7
 30
0.0
 11
86.6134
 21
72.40000000000001
 31
0.0
  0
LINE
  5
1B8
330
1E
100
AcDbEntity
  8
0
100
AcDbLine
 10
95.1927
 20
78.228
 30
0.0
 11
99.57700000000002
 21
74.86799999999999
 31
0.0
  0
LINE
  5
1B9
330
1E
100
AcDbEntity
  8
0
100
AcDbLine
 10
91.71969999999999
 20
78.228
 30
0.0
 11
96.10410000000001
 21
74.86799999999999
 31
0.0
  0
LINE
  5
1BC
330
1E
100
AcDbEntity
  8
0
100
AcDbLine
 10
128.6424
 20
78.408
 30
0.0
 11
132.7172999999999
 21
72.896
 31
0.0
  0
LINE
  5
1BD
330
1E
100
AcDbEntity
  8
0
100
AcDbLine
 10
129.0451
 20
78.408
 30
0.0
 11
133.1199
 21
72.896
 31
0.0
  0
LINE
  5
1BE
330
1E
100
AcDbEntity
  8
0
100
AcDbLine
 10
116.0344
 20
78.408
 30
0.0
 11
120.1312
 21
72.896
 31
0.0
  0
LINE
  5
1BF
330
1E
100
AcDbEntity
  8
0
100
AcDbLine
 10
115.6870999999999
 20
78.408
 30
0.0
 11
119.7839
 21
72.896
 31
0.0
  0
LINE
  5
1C0
330
1E
100
AcDbEntity
  8
0
100
AcDbLine
 10
79.77160000000001
 20
77.7
 30
0.0
 11
80.692
 21
81.69999999999999
 31
0.0
  0
LINE
  5
1C1
330
1E
100
AcDbEntity
  8
0
100
AcDbLine
 10
68.93869999999999
 20
77.7
 30
0.0
 11
69.8591
 21
81.69999999999999
 31
0.0
  0
LINE
  5
1C2
330
1E
100
AcDbEntity
  8
0
100
AcDbLine
 10
66.7369
 20
77.36
 30
0.0
 11
67.70929999999999
 21
84.77999999999999
 31
0.0
  0
LINE
  5
1C5
330
1E
100
AcDbEntity
  8
0
100
AcDbLine
 10
296.4861
 20
76.28399999999999
 30
0.0
 11
296.4861
 21
79.964
 31
0.0
  0
LINE
  5
1C6
330
1E
100
AcDbEntity
  8
0
100
AcDbLine
 10
296.4861
 20
76.28399999999999
 30
0.0
 11
296.4861
 21
71.408
 31
0.0
  0
LINE
  5
1C7
330
1E
100
AcDbEntity
  8
0
100
AcDbLine
 10
310.4861
 20
73.616
 30
0.0
 11
310.4861
 21
76.28399999999999
 31
0.0
  0
LINE
  5
1C8
330
1E
100
AcDbEntity
  8
0
100
AcDbLine
 10
310.4861
 20
73.616
 30
0.0
 11
310.4861
 21
71.884
 31
0.0
  0
LINE
  5
1C9
330
1E
100
AcDbEntity
  8
0
100
AcDbLine
 10
310.4861
 20
76.28399999999999
 30
0.0
 11
310.4861
 21
79.964
 31
0.0
  0
LINE
  5
1CA
330
1E
100
AcDbEntity
  8
0
100
AcDbLine
 10
310.4861
 20
76.28399999999999
 30
0.0
 11
310.4861
 21
73.616
 31
0.0
  0
LINE
  5
1CB
330
1E
100
AcDbEntity
  8
0
100
AcDbLine
 10
310.4861
 20
66.65600000000001
 30
0.0
 11
310.4861
 21
72.896
 31
0.0
  0
LINE
  5
1CC
330
1E
100
AcDbEntity
  8
0
100
AcDbLine
 10
310.4861
 20
66.65600000000001
 30
0.0
 11
310.4861
 21
60.0
 31
0.0
  0
LINE
  5
1CD
330
1E
100
AcDbEntity
  8
0
100
AcDbLine
 10
310.4861
 20
72.896
 30
0.0
 11
310.4861
 21
78.408
 31
0.0
  0
LINE
  5
1CE
330
1E
100
AcDbEntity
  8
0
100
AcDbLine
 10
310.4861
 20
72.896
 30
0.0
 11
310.4861
 21
66.65600000000001
 31
0.0
  0
LINE
  5
1CF
330
1E
100
AcDbEntity
  8
0
100
AcDbLine
 10
52.19594
 20
79.84
 30
0.0
 11
53.30728
 21
88.31999999999998
 31
0.0
  0
LINE
  5
1D0
330
1E
100
AcDbEntity
  8
0
100
AcDbLine
 10
58.1048
 20
79.84
 30
0.0
 11
59.2161
 21
88.31999999999998
 31
0.0
  0
LINE
  5
1D1
330
1E
100
AcDbEntity
  8
0
100
AcDbLine
 10
101.3789999999999
 20
79.964
 30
0.0
 11
106.1809999999999
 21
76.28399999999999
 31
0.0
  0
LINE
  5
1D2
330
1E
100
AcDbEntity
  8
0
100
AcDbLine
 10
96.1696
 20
79.964
 30
0.0
 11
100.9715
 21
76.28399999999999
 31
0.0
  0
LINE
  5
1D4
330
1E
100
AcDbEntity
  8
0
100
AcDbLine
 10
118.9672
 20
79.964
 30
0.0
 11
123.7433999999999
 21
76.28399999999999
 31
0.0
  0
LINE
  5
1D5
330
1E
100
AcDbEntity
  8
0
100
AcDbLine
 10
126.9860999999999
 20
80.0
 30
0.0
 11
134.4627
 21
80.0
 31
0.0
  0
LINE
  5
1D6
330
1E
100
AcDbEntity
  8
0
100
AcDbLine
 10
134.4627
 20
80.0
 30
0.0
 11
142.4860999999999
 21
80.0
 31
0.0
  0
LINE
  5
1D7
330
1E
100
AcDbEntity
  8
0
100
AcDbLine
 10
85.1670994104537
 20
80.9668430662594
 30
0.0
 11
90.2292
 21
80.24399999999999
 31
0.0
  0
LINE
  5
1D8
330
1E
100
AcDbEntity
  8
0
100
AcDbLine
 10
85.2850866374723
 20
80.4540780640055
 30
0.0
 11
86.75629999999999
 21
80.24399999999999
 31
0.0
  0
LINE
  5
1D9
330
1E
100
AcDbEntity
  8
0
100
AcDbLine
 10
86.75629999999999
 20
80.24399999999999
 30
0.0
 11
91.71969999999999
 21
78.228
 31
0.0
  0
LINE
  5
1DB
330
1E
100
AcDbEntity
  8
0
100
AcDbLine
 10
90.2292
 20
80.24399999999999
 30
0.0
 11
95.1927
 21
78.228
 31
0.0
  0
LINE
  5
1DD
330
1E
100
AcDbEntity
  8
0
100
AcDbLine
 10
142.4860999999999
 20
80.0
 30
0.0
 11
296.4861
 21
80.0
 31
0.0
  0
LINE
  5
1DE
330
1E
100
AcDbEntity
  8
0
100
AcDbLine
 10
121.7857999999999
 20
79.964
 30
0.0
 11
126.5619
 21
76.28399999999999
 31
0.0
  0
LINE
  5
1DF
330
1E
100
AcDbEntity
  8
0
100
AcDbLine
 10
84.9984
 20
81.69999999999999
 30
0.0
 11
85.91880000000001
 21
77.7
 31
0.0
  0
LINE
  5
1E1
330
1E
100
AcDbEntity
  8
0
100
AcDbLine
 10
113.5602
 20
82.17200000000001
 30
0.0
 11
118.9672
 21
79.964
 31
0.0
  0
LINE
  5
1E2
330
1E
100
AcDbEntity
  8
0
100
AcDbLine
 10
116.3788
 20
82.17200000000001
 30
0.0
 11
121.7857999999999
 21
79.964
 31
0.0
  0
LINE
  5
1E3
330
1E
100
AcDbEntity
  8
0
100
AcDbLine
 10
80.692
 20
81.69999999999999
 30
0.0
 11
81.73379999999999
 21
84.1
 31
0.0
  0
LINE
  5
1E4
330
1E
100
AcDbEntity
  8
0
100
AcDbLine
 10
69.8591
 20
81.69999999999999
 30
0.0
 11
70.90100000000001
 21
84.1
 31
0.0
  0
LINE
  5
1E5
330
1E
100
AcDbEntity
  8
0
100
AcDbLine
 10
296.4861
 20
79.964
 30
0.0
 11
296.4861
 21
82.17200000000001
 31
0.0
  0
LINE
  5
1E6
330
1E
100
AcDbEntity
  8
0
100
AcDbLine
 10
296.4861
 20
79.964
 30
0.0
 11
296.4861
 21
76.28399999999999
 31
0.0
  0
LINE
  5
1E7
330
1E
100
AcDbEntity
  8
0
100
AcDbLine
 10
296.4861
 20
80.0
 30
0.0
 11
296.4861
 21
82.17200000000001
 31
0.0
  0
LINE
  5
1E8
330
1E
100
AcDbEntity
  8
0
100
AcDbLine
 10
95.94289999999999
 20
82.17200000000001
 30
0.0
 11
101.3789999999999
 21
79.964
 31
0.0
  0
LINE
  5
1E9
330
1E
100
AcDbEntity
  8
0
100
AcDbLine
 10
90.73339999999999
 20
82.17200000000001
 30
0.0
 11
96.1696
 21
79.964
 31
0.0
  0
LINE
  5
1EB
330
1E
100
AcDbEntity
  8
0
100
AcDbLine
 10
123.2433
 20
82.568
 30
0.0
 11
128.6424
 21
78.408
 31
0.0
  0
LINE
  5
1EC
330
1E
100
AcDbEntity
  8
0
100
AcDbLine
 10
123.646
 20
82.568
 30
0.0
 11
129.0451
 21
78.408
 31
0.0
  0
LINE
  5
1ED
330
1E
100
AcDbEntity
  8
0
100
AcDbLine
 10
110.6060999999999
 20
82.568
 30
0.0
 11
116.0344
 21
78.408
 31
0.0
  0
LINE
  5
1EE
330
1E
100
AcDbEntity
  8
0
100
AcDbLine
 10
84.93489999999999
 20
83.0
 30
0.0
 11
90.1443
 21
83.0
 31
0.0
  0
LINE
  5
1EF
330
1E
100
AcDbEntity
  8
0
100
AcDbLine
 10
84.93489999999999
 20
83.0
 30
0.0
 11
90.73339999999999
 21
82.17200000000001
 31
0.0
  0
LINE
  5
1F1
330
1E
100
AcDbEntity
  8
0
100
AcDbLine
 10
84.46327364124108
 20
82.93265501585691
 30
0.0
 11
84.93489999999999
 21
83.0
 31
0.0
  0
LINE
  5
1F2
330
1E
100
AcDbEntity
  8
0
100
AcDbLine
 10
110.4990685141469
 20
82.6114730502975
 30
0.0
 11
113.5602
 21
82.17200000000001
 31
0.0
  0
LINE
  5
1F3
330
1E
100
AcDbEntity
  8
0
100
AcDbLine
 10
90.1443
 20
83.0
 30
0.0
 11
95.94289999999999
 21
82.17200000000001
 31
0.0
  0
LINE
  5
1F5
330
1E
100
AcDbEntity
  8
0
100
AcDbLine
 10
111.5909
 20
82.85937753580469
 30
0.0
 11
116.3788
 21
82.17200000000001
 31
0.0
  0
LINE
  5
1F6
330
1E
100
AcDbEntity
  8
0
100
AcDbLine
 10
111.5909
 20
82.85937753580469
 30
0.0
 11
111.5909
 21
85.5
 31
0.0
  0
LINE
  5
1F7
330
1E
100
AcDbEntity
  8
0
100
AcDbLine
 10
85.9222923076923
 20
83.0
 30
0.0
 11
91.0038999999999
 21
85.06399999999999
 31
0.0
  0
LINE
  5
1F8
330
1E
100
AcDbEntity
  8
0
100
AcDbLine
 10
110.2589
 20
82.568
 30
0.0
 11
115.6870999999999
 21
78.408
 31
0.0
  0
LINE
  5
1F9
330
1E
100
AcDbEntity
  8
0
100
AcDbLine
 10
14.8388
 20
83.0
 30
0.0
 11
16.0196
 21
88.1
 31
0.0
  0
LINE
  5
1FA
330
1E
100
AcDbEntity
  8
0
100
AcDbLine
 10
63.7701
 20
84.77999999999999
 30
0.0
 11
65.05849999999999
 21
90.38
 31
0.0
  0
LINE
  5
1FB
330
1E
100
AcDbEntity
  8
0
100
AcDbLine
 10
83.95650000000001
 20
84.1
 30
0.0
 11
84.9984
 21
81.69999999999999
 31
0.0
  0
LINE
  5
1FC
330
1E
100
AcDbEntity
  8
0
100
AcDbLine
 10
70.90100000000001
 20
84.1
 30
0.0
 11
72.01229999999999
 21
85.0
 31
0.0
  0
LINE
  5
1FD
330
1E
100
AcDbEntity
  8
0
100
AcDbLine
 10
106.8132999999999
 20
84.1085241163835
 30
0.0
 11
106.8132999999999
 21
85.5
 31
0.0
  0
LINE
  5
1FE
330
1E
100
AcDbEntity
  8
0
100
AcDbLine
 10
82.8452
 20
85.0
 30
0.0
 11
83.95650000000001
 21
84.1
 31
0.0
  0
LINE
  5
1FF
330
1E
100
AcDbEntity
  8
0
100
AcDbLine
 10
72.01229999999999
 20
85.0
 30
0.0
 11
82.8452
 21
85.0
 31
0.0
  0
LINE
  5
200
330
1E
100
AcDbEntity
  8
0
100
AcDbLine
 10
81.73379999999999
 20
84.1
 30
0.0
 11
82.8452
 21
85.0
 31
0.0
  0
LINE
  5
201
330
1E
100
AcDbEntity
  8
0
100
AcDbLine
 10
67.70929999999999
 20
84.77999999999999
 30
0.0
 11
68.99779999999999
 21
90.38
 31
0.0
  0
LINE
  5
203
330
1E
100
AcDbEntity
  8
0
100
AcDbLine
 10
296.4861
 20
82.5
 30
0.0
 11
296.4861
 21
85.5
 31
0.0
  0
LINE
  5
204
330
1E
100
AcDbEntity
  8
0
100
AcDbLine
 10
296.4861
 20
82.17200000000001
 30
0.0
 11
296.4861
 21
80.0
 31
0.0
  0
LINE
  5
205
330
1E
100
AcDbEntity
  8
0
100
AcDbLine
 10
296.4861
 20
82.17200000000001
 30
0.0
 11
296.4861
 21
83.0
 31
0.0
  0
LINE
  5
206
330
1E
100
AcDbEntity
  8
0
100
AcDbLine
 10
296.4861
 20
82.17200000000001
 30
0.0
 11
296.4861
 21
79.964
 31
0.0
  0
LINE
  5
207
330
1E
100
AcDbEntity
  8
0
100
AcDbLine
 10
310.4861
 20
79.964
 30
0.0
 11
310.4861
 21
82.17200000000001
 31
0.0
  0
LINE
  5
208
330
1E
100
AcDbEntity
  8
0
100
AcDbLine
 10
310.4861
 20
79.964
 30
0.0
 11
310.4861
 21
76.28399999999999
 31
0.0
  0
LINE
  5
209
330
1E
100
AcDbEntity
  8
0
100
AcDbLine
 10
310.4861
 20
83.0
 30
0.0
 11
310.4861
 21
82.17200000000001
 31
0.0
  0
LINE
  5
20A
330
1E
100
AcDbEntity
  8
0
100
AcDbLine
 10
310.4861
 20
83.0
 30
0.0
 11
310.4861
 21
85.5
 31
0.0
  0
LINE
  5
20B
330
1E
100
AcDbEntity
  8
0
100
AcDbLine
 10
310.4861
 20
82.17200000000001
 30
0.0
 11
310.4861
 21
83.0
 31
0.0
  0
LINE
  5
20C
330
1E
100
AcDbEntity
  8
0
100
AcDbLine
 10
310.4861
 20
82.17200000000001
 30
0.0
 11
310.4861
 21
79.964
 31
0.0
  0
LINE
  5
20D
330
1E
100
AcDbEntity
  8
0
100
AcDbLine
 10
296.4861
 20
83.0
 30
0.0
 11
296.4861
 21
82.17200000000001
 31
0.0
  0
LINE
  5
20E
330
1E
100
AcDbEntity
  8
0
100
AcDbLine
 10
310.4861
 20
78.408
 30
0.0
 11
310.4861
 21
82.568
 31
0.0
  0
LINE
  5
20F
330
1E
100
AcDbEntity
  8
0
100
AcDbLine
 10
310.4861
 20
78.408
 30
0.0
 11
310.4861
 21
72.896
 31
0.0
  0
LINE
  5
210
330
1E
100
AcDbEntity
  8
0
100
AcDbLine
 10
310.4861
 20
82.568
 30
0.0
 11
310.4861
 21
85.06399999999999
 31
0.0
  0
LINE
  5
211
330
1E
100
AcDbEntity
  8
0
100
AcDbLine
 10
310.4861
 20
82.568
 30
0.0
 11
310.4861
 21
78.408
 31
0.0
  0
LINE
  5
212
330
1E
100
AcDbEntity
  8
0
100
AcDbLine
 10
91.0038999999999
 20
85.06399999999999
 30
0.0
 11
97.55880000000001
 21
86.0
 31
0.0
  0
LINE
  5
213
330
1E
100
AcDbEntity
  8
0
100
AcDbLine
 10
117.1310999999999
 20
85.06399999999999
 30
0.0
 11
123.2433
 21
82.568
 31
0.0
  0
LINE
  5
214
330
1E
100
AcDbEntity
  8
0
100
AcDbLine
 10
117.5337
 20
85.06399999999999
 30
0.0
 11
123.646
 21
82.568
 31
0.0
  0
LINE
  5
215
330
1E
100
AcDbEntity
  8
0
100
AcDbLine
 10
104.4608999999999
 20
85.06399999999999
 30
0.0
 11
110.6060999999999
 21
82.568
 31
0.0
  0
LINE
  5
216
330
1E
100
AcDbEntity
  8
0
100
AcDbLine
 10
106.8132999999999
 20
85.5
 30
0.0
 11
108.7722999999999
 21
85.5
 31
0.0
  0
LINE
  5
217
330
1E
100
AcDbEntity
  8
0
100
AcDbLine
 10
106.8132999999999
 20
85.5
 30
0.0
 11
106.8132999999999
 21
84.1085241163835
 31
0.0
  0
LINE
  5
218
330
1E
100
AcDbEntity
  8
0
100
AcDbLine
 10
108.7722999999999
 20
85.5
 30
0.0
 11
111.5909
 21
85.5
 31
0.0
  0
LINE
  5
21A
330
1E
100
AcDbEntity
  8
0
100
AcDbLine
 10
111.5909
 20
85.5
 30
0.0
 11
111.5909
 21
82.85937753580469
 31
0.0
  0
LINE
  5
21B
330
1E
100
AcDbEntity
  8
0
100
AcDbLine
 10
107.128600854701
 20
85.5
 30
0.0
 11
110.6114
 21
86.0
 31
0.0
  0
LINE
  5
21C
330
1E
100
AcDbEntity
  8
0
100
AcDbLine
 10
104.275755701895
 20
85.09043788720109
 30
0.0
 11
106.8132999999999
 21
85.45473456240991
 31
0.0
  0
LINE
  5
21D
330
1E
100
AcDbEntity
  8
0
100
AcDbLine
 10
104.1136
 20
85.06399999999999
 30
0.0
 11
110.2589
 21
82.568
 31
0.0
  0
LINE
  5
21E
330
1E
100
AcDbEntity
  8
0
100
AcDbLine
 10
296.4861
 20
85.5
 30
0.0
 11
310.4861
 21
85.5
 31
0.0
  0
LINE
  5
21F
330
1E
100
AcDbEntity
  8
0
100
AcDbLine
 10
296.4861
 20
85.5
 30
0.0
 11
296.4861
 21
82.5
 31
0.0
  0
LINE
  5
220
330
1E
100
AcDbEntity
  8
0
100
AcDbLine
 10
310.4861
 20
85.06399999999999
 30
0.0
 11
310.4861
 21
86.0
 31
0.0
  0
LINE
  5
221
330
1E
100
AcDbEntity
  8
0
100
AcDbLine
 10
310.4861
 20
85.06399999999999
 30
0.0
 11
310.4861
 21
82.568
 31
0.0
  0
LINE
  5
222
330
1E
100
AcDbEntity
  8
0
100
AcDbLine
 10
310.4861
 20
85.5
 30
0.0
 11
310.4861
 21
86.0
 31
0.0
  0
LINE
  5
223
330
1E
100
AcDbEntity
  8
0
100
AcDbLine
 10
310.4861
 20
85.5
 30
0.0
 11
310.4861
 21
83.0
 31
0.0
  0
LINE
  5
224
330
1E
100
AcDbEntity
  8
0
100
AcDbLine
 10
16.0196
 20
88.1
 30
0.0
 11
17.374
 21
91.3
 31
0.0
  0
LINE
  5
225
330
1E
100
AcDbEntity
  8
0
100
AcDbLine
 10
17.374
 20
91.3
 30
0.0
 11
18.0969
 21
92.3
 31
0.0
  0
LINE
  5
227
330
1E
100
AcDbEntity
  8
0
100
AcDbLine
 10
19.59019999999999
 20
93.49999999999999
 30
0.0
 11
21.1053
 21
94.0
 31
0.0
  0
LINE
  5
228
330
1E
100
AcDbEntity
  8
0
100
AcDbLine
 10
18.0969
 20
92.3
 30
0.0
 11
19.59019999999999
 21
93.49999999999999
 31
0.0
  0
LINE
  5
229
330
1E
100
AcDbEntity
  8
0
100
AcDbLine
 10
110.6114
 20
86.0
 30
0.0
 11
117.1310999999999
 21
85.06399999999999
 31
0.0
  0
LINE
  5
22A
330
1E
100
AcDbEntity
  8
0
100
AcDbLine
 10
110.6114
 20
86.0
 30
0.0
 11
111.0139999999999
 21
86.0
 31
0.0
  0
LINE
  5
22B
330
1E
100
AcDbEntity
  8
0
100
AcDbLine
 10
111.0139999999999
 20
86.0
 30
0.0
 11
117.5337
 21
85.06399999999999
 31
0.0
  0
LINE
  5
22C
330
1E
100
AcDbEntity
  8
0
100
AcDbLine
 10
97.9061
 20
86.0
 30
0.0
 11
104.4608999999999
 21
85.06399999999999
 31
0.0
  0
LINE
  5
22D
330
1E
100
AcDbEntity
  8
0
100
AcDbLine
 10
97.55880000000001
 20
86.0
 30
0.0
 11
104.1136
 21
85.06399999999999
 31
0.0
  0
LINE
  5
22E
330
1E
100
AcDbEntity
  8
0
100
AcDbLine
 10
97.55880000000001
 20
86.0
 30
0.0
 11
97.9061
 21
86.0
 31
0.0
  0
LINE
  5
22F
330
1E
100
AcDbEntity
  8
0
100
AcDbLine
 10
53.30728
 20
88.31999999999998
 30
0.0
 11
54.7798
 21
94.71999999999999
 31
0.0
  0
LINE
  5
230
330
1E
100
AcDbEntity
  8
0
100
AcDbLine
 10
58.225
 20
100.0
 30
0.0
 11
64.1338
 21
100.0
 31
0.0
  0
LINE
  5
231
330
1E
100
AcDbEntity
  8
0
100
AcDbLine
 10
56.44680000000001
 20
98.56000000000001
 30
0.0
 11
58.225
 21
100.0
 31
0.0
  0
LINE
  5
232
330
1E
100
AcDbEntity
  8
0
100
AcDbLine
 10
54.7798
 20
94.71999999999999
 30
0.0
 11
56.44680000000001
 21
98.56000000000001
 31
0.0
  0
LINE
  5
233
330
1E
100
AcDbEntity
  8
0
100
AcDbLine
 10
66.5172
 20
93.74
 30
0.0
 11
68.0731
 21
95.0
 31
0.0
  0
LINE
  5
234
330
1E
100
AcDbEntity
  8
0
100
AcDbLine
 10
65.05849999999999
 20
90.38
 30
0.0
 11
66.5172
 21
93.74
 31
0.0
  0
LINE
  5
235
330
1E
100
AcDbEntity
  8
0
100
AcDbLine
 10
65.91199999999999
 20
98.56000000000001
 30
0.0
 11
67.57899999999999
 21
94.71999999999999
 31
0.0
  0
LINE
  5
236
330
1E
100
AcDbEntity
  8
0
100
AcDbLine
 10
75.02679999999999
 20
90.38
 30
0.0
 11
76.26468035714281
 21
85.0
 31
0.0
  0
LINE
  5
237
330
1E
100
AcDbEntity
  8
0
100
AcDbLine
 10
68.0731
 20
95.0
 30
0.0
 11
72.01229999999999
 21
95.0
 31
0.0
  0
LINE
  5
238
330
1E
100
AcDbEntity
  8
0
100
AcDbLine
 10
72.01229999999999
 20
95.0
 30
0.0
 11
73.56819999999991
 21
93.74
 31
0.0
  0
LINE
  5
239
330
1E
100
AcDbEntity
  8
0
100
AcDbLine
 10
73.56819999999991
 20
93.74
 30
0.0
 11
75.02679999999999
 21
90.38
 31
0.0
  0
LINE
  5
23A
330
1E
100
AcDbEntity
  8
0
100
AcDbLine
 10
70.4564
 20
93.74
 30
0.0
 11
72.01229999999999
 21
95.0
 31
0.0
  0
LINE
  5
23B
330
1E
100
AcDbEntity
  8
0
100
AcDbLine
 10
68.99779999999999
 20
90.38
 30
0.0
 11
70.4564
 21
93.74
 31
0.0
  0
LINE
  5
23C
330
1E
100
AcDbEntity
  8
0
100
AcDbLine
 10
67.57899999999999
 20
94.71999999999999
 30
0.0
 11
67.6023000979917
 21
94.618736502005
 31
0.0
  0
LINE
  5
23D
330
1E
100
AcDbEntity
  8
0
100
AcDbLine
 10
64.1338
 20
100.0
 30
0.0
 11
65.91199999999999
 21
98.56000000000001
 31
0.0
  0
LINE
  5
23E
330
1E
100
AcDbEntity
  8
0
100
AcDbLine
 10
62.3557
 20
98.56000000000001
 30
0.0
 11
64.1338
 21
100.0
 31
0.0
  0
LINE
  5
23F
330
1E
100
AcDbEntity
  8
0
100
AcDbLine
 10
60.6887
 20
94.71999999999999
 30
0.0
 11
62.3557
 21
98.56000000000001
 31
0.0
  0
LINE
  5
240
330
1E
100
AcDbEntity
  8
0
100
AcDbLine
 10
59.2161
 20
88.31999999999998
 30
0.0
 11
60.6887
 21
94.71999999999999
 31
0.0
  0
LINE
  5
241
330
1E
100
AcDbEntity
  8
0
100
AcDbLine
 10
21.1053
 20
94.0
 30
0.0
 11
54.6141415
 21
94.0
 31
0.0
  0
LINE
  5
242
330
1E
100
AcDbEntity
  8
0
100
AcDbLine
 10
310.4861
 20
86.0
 30
0.0
 11
310.4861
 21
85.5
 31
0.0
  0
LINE
  5
243
330
1E
100
AcDbEntity
  8
0
100
AcDbLine
 10
310.4861
 20
86.0
 30
0.0
 11
312.4861
 21
86.0
 31
0.0
  0
LINE
  5
244
330
1E
100
AcDbEntity
  8
0
100
AcDbLine
 10
310.4861
 20
86.0
 30
0.0
 11
310.4861
 21
85.06399999999999
 31
0.0
  0
LINE
  5
245
330
1E
100
AcDbEntity
  8
0
100
AcDbLine
 10
312.4861
 20
40.0
 30
0.0
 11
332.4861
 21
40.0
 31
0.0
  0
LINE
  5
246
330
1E
100
AcDbEntity
  8
0
100
AcDbLine
 10
312.4861
 20
53.34399999999999
 30
0.0
 11
312.4861
 21
60.0
 31
0.0
  0
LINE
  5
247
330
1E
100
AcDbEntity
  8
0
100
AcDbLine
 10
312.4861
 20
53.34399999999999
 30
0.0
 11
312.4861
 21
47.10399999999999
 31
0.0
  0
LINE
  5
248
330
1E
100
AcDbEntity
  8
0
100
AcDbLine
 10
312.4861
 20
47.10399999999999
 30
0.0
 11
312.4861
 21
53.34399999999999
 31
0.0
  0
LINE
  5
249
330
1E
100
AcDbEntity
  8
0
100
AcDbLine
 10
312.4861
 20
47.10399999999999
 30
0.0
 11
312.4861
 21
41.592
 31
0.0
  0
LINE
  5
24A
330
1E
100
AcDbEntity
  8
0
100
AcDbLine
 10
312.4861
 20
41.592
 30
0.0
 11
312.4861
 21
47.10399999999999
 31
0.0
  0
LINE
  5
24B
330
1E
100
AcDbEntity
  8
0
100
AcDbLine
 10
312.4861
 20
41.592
 30
0.0
 11
312.4861
 21
37.43199999999999
 31
0.0
  0
LINE
  5
24C
330
1E
100
AcDbEntity
  8
0
100
AcDbLine
 10
312.4861
 20
37.43199999999999
 30
0.0
 11
312.4861
 21
41.592
 31
0.0
  0
LINE
  5
24D
330
1E
100
AcDbEntity
  8
0
100
AcDbLine
 10
312.4861
 20
37.43199999999999
 30
0.0
 11
312.4861
 21
34.936
 31
0.0
  0
LINE
  5
24E
330
1E
100
AcDbEntity
  8
0
100
AcDbLine
 10
312.4861
 20
34.936
 30
0.0
 11
312.4861
 21
37.43199999999999
 31
0.0
  0
LINE
  5
24F
330
1E
100
AcDbEntity
  8
0
100
AcDbLine
 10
312.4861
 20
34.936
 30
0.0
 11
312.4861
 21
34.0
 31
0.0
  0
LINE
  5
250
330
1E
100
AcDbEntity
  8
0
100
AcDbLine
 10
312.4861
 20
60.0
 30
0.0
 11
312.4861
 21
66.65600000000001
 31
0.0
  0
LINE
  5
251
330
1E
100
AcDbEntity
  8
0
100
AcDbLine
 10
312.4861
 20
60.0
 30
0.0
 11
312.4861
 21
53.34399999999999
 31
0.0
  0
LINE
  5
252
330
1E
100
AcDbEntity
  8
0
100
AcDbLine
 10
312.4861
 20
66.65600000000001
 30
0.0
 11
312.4861
 21
72.896
 31
0.0
  0
LINE
  5
253
330
1E
100
AcDbEntity
  8
0
100
AcDbLine
 10
312.4861
 20
66.65600000000001
 30
0.0
 11
312.4861
 21
60.0
 31
0.0
  0
LINE
  5
254
330
1E
100
AcDbEntity
  8
0
100
AcDbLine
 10
312.4861
 20
72.896
 30
0.0
 11
312.4861
 21
78.408
 31
0.0
  0
LINE
  5
255
330
1E
100
AcDbEntity
  8
0
100
AcDbLine
 10
312.4861
 20
72.896
 30
0.0
 11
312.4861
 21
66.65600000000001
 31
0.0
  0
LINE
  5
256
330
1E
100
AcDbEntity
  8
0
100
AcDbLine
 10
312.4861
 20
80.0
 30
0.0
 11
349.371533962264
 21
80.0
 31
0.0
  0
LINE
  5
257
330
1E
100
AcDbEntity
  8
0
100
AcDbLine
 10
312.4861
 20
78.408
 30
0.0
 11
312.4861
 21
82.568
 31
0.0
  0
LINE
  5
258
330
1E
100
AcDbEntity
  8
0
100
AcDbLine
 10
312.4861
 20
78.408
 30
0.0
 11
312.4861
 21
72.896
 31
0.0
  0
LINE
  5
259
330
1E
100
AcDbEntity
  8
0
100
AcDbLine
 10
344.8541
 20
50.272
 30
0.0
 11
348.5020999999999
 21
41.152
 31
0.0
  0
LINE
  5
25A
330
1E
100
AcDbEntity
  8
0
100
AcDbLine
 10
344.8541
 20
69.72800000000001
 30
0.0
 11
348.5020999999999
 21
78.848
 31
0.0
  0
LINE
  5
25B
330
1E
100
AcDbEntity
  8
0
100
AcDbLine
 10
343.4861
 20
60.0
 30
0.0
 11
344.8541
 21
50.272
 31
0.0
  0
LINE
  5
25C
330
1E
100
AcDbEntity
  8
0
100
AcDbLine
 10
343.4861
 20
60.0
 30
0.0
 11
344.8541
 21
69.72800000000001
 31
0.0
  0
LINE
  5
25D
330
1E
100
AcDbEntity
  8
0
100
AcDbLine
 10
332.4861
 20
60.0
 30
0.0
 11
332.4861
 21
23.0
 31
0.0
  0
LINE
  5
25E
330
1E
100
AcDbEntity
  8
0
100
AcDbLine
 10
332.4861
 20
60.0
 30
0.0
 11
343.4861
 21
60.0
 31
0.0
  0
LINE
  5
25F
330
1E
100
AcDbEntity
  8
0
100
AcDbLine
 10
332.4861
 20
40.0
 30
0.0
 11
332.4861
 21
23.0
 31
0.0
  0
LINE
  5
260
330
1E
100
AcDbEntity
  8
0
100
AcDbLine
 10
312.4861
 20
82.568
 30
0.0
 11
312.4861
 21
85.06399999999999
 31
0.0
  0
LINE
  5
261
330
1E
100
AcDbEntity
  8
0
100
AcDbLine
 10
312.4861
 20
82.568
 30
0.0
 11
312.4861
 21
78.408
 31
0.0
  0
LINE
  5
262
330
1E
100
AcDbEntity
  8
0
100
AcDbLine
 10
312.4861
 20
86.0
 30
0.0
 11
312.4861
 21
85.06399999999999
 31
0.0
  0
LINE
  5
263
330
1E
100
AcDbEntity
  8
0
100
AcDbLine
 10
312.4861
 20
85.06399999999999
 30
0.0
 11
312.4861
 21
86.0
 31
0.0
  0
LINE
  5
264
330
1E
100
AcDbEntity
  8
0
100
AcDbLine
 10
312.4861
 20
85.06399999999999
 30
0.0
 11
312.4861
 21
82.568
 31
0.0
  0
LINE
  5
265
330
1E
100
AcDbEntity
  8
0
100
AcDbLine
 10
310.4861
 20
34.5
 30
0.0
 11
310.4861
 21
34.0
 31
0.0
  0
LINE
  5
266
330
1E
100
AcDbEntity
  8
0
100
AcDbLine
 10
310.4861
 20
34.5
 30
0.0
 11
310.4861
 21
37.0
 31
0.0
  0
LINE
  5
267
330
1E
100
AcDbEntity
  8
0
100
AcDbLine
 10
310.4861
 20
34.0
 30
0.0
 11
312.4861
 21
34.0
 31
0.0
  0
LINE
  5
268
330
1E
100
AcDbEntity
  8
0
100
AcDbLine
 10
310.4861
 20
34.0
 30
0.0
 11
310.4861
 21
34.5
 31
0.0
  0
LINE
  5
269
330
1E
100
AcDbEntity
  8
0
100
AcDbLine
 10
310.4861
 20
34.0
 30
0.0
 11
310.4861
 21
34.936
 31
0.0
  0
LINE
  5
26A
330
1E
100
AcDbEntity
  8
0
100
AcDbLine
 10
348.5020999999999
 20
41.152
 30
0.0
 11
354.5821
 21
33.09599999999999
 31
0.0
  0
LINE
  5
26B
330
1E
100
AcDbEntity
  8
0
100
AcDbLine
 10
354.5821
 20
33.09599999999999
 30
0.0
 11
362.6381
 21
27.016
 31
0.0
  0
LINE
  5
26C
330
1E
100
AcDbEntity
  8
0
100
AcDbLine
 10
362.6381
 20
27.016
 30
0.0
 11
371.7581
 21
23.368
 31
0.0
  0
LINE
  5
26D
330
1E
100
AcDbEntity
  8
0
100
AcDbLine
 10
362.4861
 20
27.1307169811321
 30
0.0
 11
362.4861
 21
23.0
 31
0.0
  0
LINE
  5
26E
330
1E
100
AcDbEntity
  8
0
100
AcDbLine
 10
362.4861
 20
23.0
 30
0.0
 11
362.4861
 21
27.1307169811321
 31
0.0
  0
LINE
  5
26F
330
1E
100
AcDbEntity
  8
0
100
AcDbLine
 10
381.4861
 20
22.0
 30
0.0
 11
391.2140999999999
 21
23.368
 31
0.0
  0
LINE
  5
270
330
1E
100
AcDbEntity
  8
0
100
AcDbLine
 10
381.4861
 20
22.0
 30
0.0
 11
391.2140999999999
 21
23.368
 31
0.0
  0
LINE
  5
271
330
1E
100
AcDbEntity
  8
0
100
AcDbLine
 10
371.7581
 20
23.368
 30
0.0
 11
381.4861
 21
22.0
 31
0.0
  0
LINE
  5
272
330
1E
100
AcDbEntity
  8
0
100
AcDbLine
 10
371.7581
 20
23.368
 30
0.0
 11
381.4861
 21
22.0
 31
0.0
  0
LINE
  5
273
330
1E
100
AcDbEntity
  8
0
100
AcDbLine
 10
381.4861
 20
25.0
 30
0.0
 11
390.4460999999999
 21
26.26
 31
0.0
  0
LINE
  5
274
330
1E
100
AcDbEntity
  8
0
100
AcDbLine
 10
391.2140999999999
 20
23.368
 30
0.0
 11
400.3340999999999
 21
27.016
 31
0.0
  0
LINE
  5
275
330
1E
100
AcDbEntity
  8
0
100
AcDbLine
 10
390.4460999999999
 20
26.26
 30
0.0
 11
398.8461
 21
29.62
 31
0.0
  0
LINE
  5
276
330
1E
100
AcDbEntity
  8
0
100
AcDbLine
 10
400.3340999999999
 20
27.016
 30
0.0
 11
408.3901
 21
33.09599999999999
 31
0.0
  0
LINE
  5
277
330
1E
100
AcDbEntity
  8
0
100
AcDbLine
 10
408.2628999999999
 20
33.0
 30
0.0
 11
454.4861
 21
33.0
 31
0.0
  0
LINE
  5
278
330
1E
100
AcDbEntity
  8
0
100
AcDbLine
 10
408.3901
 20
33.09599999999999
 30
0.0
 11
414.4701
 21
41.152
 31
0.0
  0
LINE
  5
279
330
1E
100
AcDbEntity
  8
0
100
AcDbLine
 10
408.8067037735849
 20
33.648
 30
0.0
 11
454.4861
 21
33.648
 31
0.0
  0
LINE
  5
27A
330
1E
100
AcDbEntity
  8
0
100
AcDbLine
 10
454.4861
 20
33.648
 30
0.0
 11
459.200241732283
 21
34.3214488188976
 31
0.0
  0
LINE
  5
27B
330
1E
100
AcDbEntity
  8
0
100
AcDbLine
 10
454.4861
 20
33.0
 30
0.0
 11
461.3980999999999
 21
33.972
 31
0.0
  0
LINE
  5
27C
330
1E
100
AcDbEntity
  8
0
100
AcDbLine
 10
461.3980999999999
 20
33.972
 30
0.0
 11
461.472782080925
 21
34.0018728323699
 31
0.0
  0
LINE
  5
27D
330
1E
100
AcDbEntity
  8
0
100
AcDbLine
 10
454.8301
 20
34.936
 30
0.0
 11
461.4861
 21
34.0
 31
0.0
  0
LINE
  5
27E
330
1E
100
AcDbEntity
  8
0
100
AcDbLine
 10
468.1421
 20
34.936
 30
0.0
 11
474.3820999999999
 21
37.43199999999999
 31
0.0
  0
LINE
  5
27F
330
1E
100
AcDbEntity
  8
0
100
AcDbLine
 10
461.4861
 20
34.0
 30
0.0
 11
468.1421
 21
34.936
 31
0.0
  0
LINE
  5
280
330
1E
100
AcDbEntity
  8
0
100
AcDbLine
 10
508.4861
 20
34.5
 30
0.0
 11
522.4860999999999
 21
34.5
 31
0.0
  0
LINE
  5
281
330
1E
100
AcDbEntity
  8
0
100
AcDbLine
 10
522.4860999999999
 20
34.5
 30
0.0
 11
522.4860999999999
 21
37.0
 31
0.0
  0
LINE
  5
282
330
1E
100
AcDbEntity
  8
0
100
AcDbLine
 10
508.4861
 20
34.936
 30
0.0
 11
508.4861
 21
37.43199999999999
 31
0.0
  0
LINE
  5
283
330
1E
100
AcDbEntity
  8
0
100
AcDbLine
 10
508.4861
 20
34.936
 30
0.0
 11
508.4861
 21
34.0
 31
0.0
  0
LINE
  5
284
330
1E
100
AcDbEntity
  8
0
100
AcDbLine
 10
508.4861
 20
34.0
 30
0.0
 11
508.4861
 21
34.936
 31
0.0
  0
LINE
  5
285
330
1E
100
AcDbEntity
  8
0
100
AcDbLine
 10
506.4861
 20
34.0
 30
0.0
 11
506.4861
 21
34.936
 31
0.0
  0
LINE
  5
286
330
1E
100
AcDbEntity
  8
0
100
AcDbLine
 10
506.4861
 20
34.0
 30
0.0
 11
508.4861
 21
34.0
 31
0.0
  0
LINE
  5
287
330
1E
100
AcDbEntity
  8
0
100
AcDbLine
 10
506.4861
 20
34.936
 30
0.0
 11
506.4861
 21
34.0
 31
0.0
  0
LINE
  5
288
330
1E
100
AcDbEntity
  8
0
100
AcDbLine
 10
506.4861
 20
34.936
 30
0.0
 11
506.4861
 21
37.43199999999999
 31
0.0
  0
LINE
  5
289
330
1E
100
AcDbEntity
  8
0
100
AcDbLine
 10
620.8370999999999
 20
34.936
 30
0.0
 11
625.2491
 21
37.43199999999999
 31
0.0
  0
LINE
  5
28A
330
1E
100
AcDbEntity
  8
0
100
AcDbLine
 10
616.8381000000001
 20
34.0
 30
0.0
 11
621.5440999999999
 21
34.936
 31
0.0
  0
LINE
  5
28B
330
1E
100
AcDbEntity
  8
0
100
AcDbLine
 10
621.5440999999999
 20
34.936
 30
0.0
 11
625.9571
 21
37.43199999999999
 31
0.0
  0
LINE
  5
28C
330
1E
100
AcDbEntity
  8
0
100
AcDbLine
 10
616.1310999999999
 20
34.0
 30
0.0
 11
616.8381000000001
 21
34.0
 31
0.0
  0
LINE
  5
28D
330
1E
100
AcDbEntity
  8
0
100
AcDbLine
 10
616.1310999999999
 20
34.0
 30
0.0
 11
620.8370999999999
 21
34.936
 31
0.0
  0
LINE
  5
28E
330
1E
100
AcDbEntity
  8
0
100
AcDbLine
 10
651.4860999999999
 20
35.0
 30
0.0
 11
656.0121
 21
35.89999999999999
 31
0.0
  0
LINE
  5
28F
330
1E
100
AcDbEntity
  8
0
100
AcDbLine
 10
621.657253846154
 20
35.0
 30
0.0
 11
651.4860999999999
 21
35.0
 31
0.0
  0
LINE
  5
290
330
1E
100
AcDbEntity
  8
0
100
AcDbLine
 10
611.4240999999999
 20
34.936
 30
0.0
 11
616.1310999999999
 21
34.0
 31
0.0
  0
LINE
  5
291
330
1E
100
AcDbEntity
  8
0
100
AcDbLine
 10
398.8461
 20
29.62
 30
0.0
 11
406.2661
 21
35.22
 31
0.0
  0
LINE
  5
292
330
1E
100
AcDbEntity
  8
0
100
AcDbLine
 10
406.2661
 20
35.22
 30
0.0
 11
411.8661
 21
42.64
 31
0.0
  0
LINE
  5
293
330
1E
100
AcDbEntity
  8
0
100
AcDbLine
 10
381.4861
 20
35.0
 30
0.0
 11
387.8861
 21
35.89999999999999
 31
0.0
  0
LINE
  5
294
330
1E
100
AcDbEntity
  8
0
100
AcDbLine
 10
372.5260999999999
 20
26.26
 30
0.0
 11
381.4861
 21
25.0
 31
0.0
  0
LINE
  5
295
330
1E
100
AcDbEntity
  8
0
100
AcDbLine
 10
364.1261
 20
29.62
 30
0.0
 11
372.5260999999999
 21
26.26
 31
0.0
  0
LINE
  5
296
330
1E
100
AcDbEntity
  8
0
100
AcDbLine
 10
656.0121
 20
35.89999999999999
 30
0.0
 11
660.2541
 21
38.3
 31
0.0
  0
LINE
  5
297
330
1E
100
AcDbEntity
  8
0
100
AcDbLine
 10
387.8861
 20
35.89999999999999
 30
0.0
 11
393.8861
 21
38.3
 31
0.0
  0
LINE
  5
298
330
1E
100
AcDbEntity
  8
0
100
AcDbLine
 10
393.8861
 20
38.3
 30
0.0
 11
399.1861
 21
42.29999999999999
 31
0.0
  0
LINE
  5
299
330
1E
100
AcDbEntity
  8
0
100
AcDbLine
 10
448.5901
 20
37.43199999999999
 30
0.0
 11
454.8301
 21
34.936
 31
0.0
  0
LINE
  5
29A
330
1E
100
AcDbEntity
  8
0
100
AcDbLine
 10
474.3820999999999
 20
37.43199999999999
 30
0.0
 11
477.7847
 21
40.0
 31
0.0
  0
LINE
  5
29B
330
1E
100
AcDbEntity
  8
0
100
AcDbLine
 10
522.4860999999999
 20
37.0
 30
0.0
 11
522.4860999999999
 21
37.828
 31
0.0
  0
LINE
  5
29C
330
1E
100
AcDbEntity
  8
0
100
AcDbLine
 10
522.4860999999999
 20
37.0
 30
0.0
 11
522.4860999999999
 21
34.5
 31
0.0
  0
LINE
  5
29D
330
1E
100
AcDbEntity
  8
0
100
AcDbLine
 10
508.4861
 20
37.43199999999999
 30
0.0
 11
508.4861
 21
41.592
 31
0.0
  0
LINE
  5
29E
330
1E
100
AcDbEntity
  8
0
100
AcDbLine
 10
508.4861
 20
37.43199999999999
 30
0.0
 11
508.4861
 21
34.936
 31
0.0
  0
LINE
  5
29F
330
1E
100
AcDbEntity
  8
0
100
AcDbLine
 10
465.6391
 20
40.0
 30
0.0
 11
470.5661
 21
40.0
 31
0.0
  0
LINE
  5
2A0
330
1E
100
AcDbEntity
  8
0
100
AcDbLine
 10
462.5421
 20
40.0
 30
0.0
 11
465.6391
 21
40.0
 31
0.0
  0
LINE
  5
2A1
330
1E
100
AcDbEntity
  8
0
100
AcDbLine
 10
470.5661
 20
40.0
 30
0.0
 11
476.9861
 21
40.0
 31
0.0
  0
LINE
  5
2A2
330
1E
100
AcDbEntity
  8
0
100
AcDbLine
 10
484.4630999999999
 20
40.0
 30
0.0
 11
492.4860999999999
 21
40.0
 31
0.0
  0
LINE
  5
2A3
330
1E
100
AcDbEntity
  8
0
100
AcDbLine
 10
476.9861
 20
40.0
 30
0.0
 11
484.4630999999999
 21
40.0
 31
0.0
  0
LINE
  5
2A4
330
1E
100
AcDbEntity
  8
0
100
AcDbLine
 10
492.4860999999999
 20
40.0
 30
0.0
 11
506.4861
 21
40.0
 31
0.0
  0
LINE
  5
2A5
330
1E
100
AcDbEntity
  8
0
100
AcDbLine
 10
522.4860999999999
 20
40.0
 30
0.0
 11
544.4860999999999
 21
40.0
 31
0.0
  0
LINE
  5
2A6
330
1E
100
AcDbEntity
  8
0
100
AcDbLine
 10
544.4860999999999
 20
40.0
 30
0.0
 11
552.5090999999999
 21
40.0
 31
0.0
  0
LINE
  5
2A7
330
1E
100
AcDbEntity
  8
0
100
AcDbLine
 10
566.4061
 20
40.0
 30
0.0
 11
612.5661
 21
40.0
 31
0.0
  0
LINE
  5
2A8
330
1E
100
AcDbEntity
  8
0
100
AcDbLine
 10
559.9860999999999
 20
40.0
 30
0.0
 11
566.4061
 21
40.0
 31
0.0
  0
LINE
  5
2A9
330
1E
100
AcDbEntity
  8
0
100
AcDbLine
 10
552.5090999999999
 20
40.0
 30
0.0
 11
559.9860999999999
 21
40.0
 31
0.0
  0
LINE
  5
2AA
330
1E
100
AcDbEntity
  8
0
100
AcDbLine
 10
522.4860999999999
 20
37.828
 30
0.0
 11
522.4860999999999
 21
40.036
 31
0.0
  0
LINE
  5
2AB
330
1E
100
AcDbEntity
  8
0
100
AcDbLine
 10
522.4860999999999
 20
37.828
 30
0.0
 11
522.4860999999999
 21
37.0
 31
0.0
  0
LINE
  5
2AC
330
1E
100
AcDbEntity
  8
0
100
AcDbLine
 10
506.4861
 20
40.0
 30
0.0
 11
506.4861
 21
37.43199999999999
 31
0.0
  0
LINE
  5
2AD
330
1E
100
AcDbEntity
  8
0
100
AcDbLine
 10
506.4861
 20
37.43199999999999
 30
0.0
 11
506.4861
 21
34.936
 31
0.0
  0
LINE
  5
2AE
330
1E
100
AcDbEntity
  8
0
100
AcDbLine
 10
506.4861
 20
37.43199999999999
 30
0.0
 11
506.4861
 21
40.0
 31
0.0
  0
LINE
  5
2AF
330
1E
100
AcDbEntity
  8
0
100
AcDbLine
 10
506.4861
 20
37.43199999999999
 30
0.0
 11
506.4861
 21
41.592
 31
0.0
  0
LINE
  5
2B0
330
1E
100
AcDbEntity
  8
0
100
AcDbLine
 10
625.2491
 20
37.43199999999999
 30
0.0
 11
629.1471
 21
41.592
 31
0.0
  0
LINE
  5
2B1
330
1E
100
AcDbEntity
  8
0
100
AcDbLine
 10
612.5661
 20
40.0
 30
0.0
 11
616.1011
 21
40.0
 31
0.0
  0
LINE
  5
2B2
330
1E
100
AcDbEntity
  8
0
100
AcDbLine
 10
660.2541
 20
38.3
 30
0.0
 11
664.0021
 21
42.29999999999999
 31
0.0
  0
LINE
  5
2B3
330
1E
100
AcDbEntity
  8
0
100
AcDbLine
 10
625.9571
 20
37.43199999999999
 30
0.0
 11
629.8541
 21
41.592
 31
0.0
  0
LINE
  5
2B4
330
1E
100
AcDbEntity
  8
0
100
AcDbLine
 10
607.0121
 20
37.43199999999999
 30
0.0
 11
611.4240999999999
 21
34.936
 31
0.0
  0
LINE
  5
2B5
330
1E
100
AcDbEntity
  8
0
100
AcDbLine
 10
414.4701
 20
41.152
 30
0.0
 11
418.1181
 21
50.272
 31
0.0
  0
LINE
  5
2B6
330
1E
100
AcDbEntity
  8
0
100
AcDbLine
 10
443.0781
 20
41.592
 30
0.0
 11
448.5901
 21
37.43199999999999
 31
0.0
  0
LINE
  5
2B7
330
1E
100
AcDbEntity
  8
0
100
AcDbLine
 10
522.4860999999999
 20
40.036
 30
0.0
 11
522.4860999999999
 21
43.71599999999999
 31
0.0
  0
LINE
  5
2B8
330
1E
100
AcDbEntity
  8
0
100
AcDbLine
 10
522.4860999999999
 20
40.036
 30
0.0
 11
522.4860999999999
 21
37.828
 31
0.0
  0
LINE
  5
2B9
330
1E
100
AcDbEntity
  8
0
100
AcDbLine
 10
508.4861
 20
41.592
 30
0.0
 11
508.4861
 21
47.10399999999999
 31
0.0
  0
LINE
  5
2BA
330
1E
100
AcDbEntity
  8
0
100
AcDbLine
 10
508.4861
 20
41.592
 30
0.0
 11
508.4861
 21
37.43199999999999
 31
0.0
  0
LINE
  5
2BB
330
1E
100
AcDbEntity
  8
0
100
AcDbLine
 10
506.4861
 20
41.592
 30
0.0
 11
506.4861
 21
47.10399999999999
 31
0.0
  0
LINE
  5
2BC
330
1E
100
AcDbEntity
  8
0
100
AcDbLine
 10
506.4861
 20
41.592
 30
0.0
 11
506.4861
 21
37.43199999999999
 31
0.0
  0
LINE
  5
2BD
330
1E
100
AcDbEntity
  8
0
100
AcDbLine
 10
629.1471
 20
41.592
 30
0.0
 11
632.0891
 21
47.10399999999999
 31
0.0
  0
LINE
  5
2BE
330
1E
100
AcDbEntity
  8
0
100
AcDbLine
 10
664.0021
 20
42.29999999999999
 30
0.0
 11
666.8301
 21
47.6
 31
0.0
  0
LINE
  5
2BF
330
1E
100
AcDbEntity
  8
0
100
AcDbLine
 10
629.8541
 20
41.592
 30
0.0
 11
632.7961
 21
47.10399999999999
 31
0.0
  0
LINE
  5
2C0
330
1E
100
AcDbEntity
  8
0
100
AcDbLine
 10
604.6058346153849
 20
40.0
 30
0.0
 11
607.0121
 21
37.43199999999999
 31
0.0
  0
LINE
  5
2C1
330
1E
100
AcDbEntity
  8
0
100
AcDbLine
 10
399.1861
 20
42.29999999999999
 30
0.0
 11
403.1861
 21
47.6
 31
0.0
  0
LINE
  5
2C2
330
1E
100
AcDbEntity
  8
0
100
AcDbLine
 10
375.0861
 20
35.89999999999999
 30
0.0
 11
381.4861
 21
35.0
 31
0.0
  0
LINE
  5
2C3
330
1E
100
AcDbEntity
  8
0
100
AcDbLine
 10
369.0860999999999
 20
38.3
 30
0.0
 11
375.0861
 21
35.89999999999999
 31
0.0
  0
LINE
  5
2C4
330
1E
100
AcDbEntity
  8
0
100
AcDbLine
 10
403.1861
 20
47.6
 30
0.0
 11
405.5861
 21
53.6
 31
0.0
  0
LINE
  5
2C5
330
1E
100
AcDbEntity
  8
0
100
AcDbLine
 10
411.8661
 20
42.64
 30
0.0
 11
415.2261
 21
51.04
 31
0.0
  0
LINE
  5
2C6
330
1E
100
AcDbEntity
  8
0
100
AcDbLine
 10
438.9180999999999
 20
47.10399999999999
 30
0.0
 11
443.0781
 21
41.592
 31
0.0
  0
LINE
  5
2C7
330
1E
100
AcDbEntity
  8
0
100
AcDbLine
 10
508.4861
 20
46.38399999999999
 30
0.0
 11
522.4860999999999
 21
46.38399999999999
 31
0.0
  0
LINE
  5
2C8
330
1E
100
AcDbEntity
  8
0
100
AcDbLine
 10
522.4860999999999
 20
46.38399999999999
 30
0.0
 11
522.4860999999999
 21
43.71599999999999
 31
0.0
  0
LINE
  5
2C9
330
1E
100
AcDbEntity
  8
0
100
AcDbLine
 10
522.4860999999999
 20
46.38399999999999
 30
0.0
 11
522.4860999999999
 21
48.11600000000001
 31
0.0
  0
LINE
  5
2CA
330
1E
100
AcDbEntity
  8
0
100
AcDbLine
 10
522.4860999999999
 20
43.71599999999999
 30
0.0
 11
522.4860999999999
 21
46.38399999999999
 31
0.0
  0
LINE
  5
2CB
330
1E
100
AcDbEntity
  8
0
100
AcDbLine
 10
522.4860999999999
 20
43.71599999999999
 30
0.0
 11
522.4860999999999
 21
40.036
 31
0.0
  0
LINE
  5
2CC
330
1E
100
AcDbEntity
  8
0
100
AcDbLine
 10
508.4861
 20
47.10399999999999
 30
0.0
 11
508.4861
 21
53.34399999999999
 31
0.0
  0
LINE
  5
2CD
330
1E
100
AcDbEntity
  8
0
100
AcDbLine
 10
508.4861
 20
47.10399999999999
 30
0.0
 11
508.4861
 21
41.592
 31
0.0
  0
LINE
  5
2CE
330
1E
100
AcDbEntity
  8
0
100
AcDbLine
 10
506.4861
 20
47.10399999999999
 30
0.0
 11
506.4861
 21
53.34399999999999
 31
0.0
  0
LINE
  5
2CF
330
1E
100
AcDbEntity
  8
0
100
AcDbLine
 10
506.4861
 20
47.10399999999999
 30
0.0
 11
506.4861
 21
41.592
 31
0.0
  0
LINE
  5
2D0
330
1E
100
AcDbEntity
  8
0
100
AcDbLine
 10
632.0891
 20
47.10399999999999
 30
0.0
 11
633.8541
 21
53.34399999999999
 31
0.0
  0
LINE
  5
2D1
330
1E
100
AcDbEntity
  8
0
100
AcDbLine
 10
522.4860999999999
 20
48.11600000000001
 30
0.0
 11
522.4860999999999
 21
46.38399999999999
 31
0.0
  0
LINE
  5
2D2
330
1E
100
AcDbEntity
  8
0
100
AcDbLine
 10
522.4860999999999
 20
48.11600000000001
 30
0.0
 11
522.4860999999999
 21
49.616
 31
0.0
  0
LINE
  5
2D3
330
1E
100
AcDbEntity
  8
0
100
AcDbLine
 10
508.4861
 20
48.11600000000001
 30
0.0
 11
522.4860999999999
 21
48.11600000000001
 31
0.0
  0
LINE
  5
2D4
330
1E
100
AcDbEntity
  8
0
100
AcDbLine
 10
418.1181
 20
50.272
 30
0.0
 11
419.4861
 21
60.0
 31
0.0
  0
LINE
  5
2D5
330
1E
100
AcDbEntity
  8
0
100
AcDbLine
 10
522.4860999999999
 20
49.616
 30
0.0
 11
522.4860999999999
 21
54.112
 31
0.0
  0
LINE
  5
2D6
330
1E
100
AcDbEntity
  8
0
100
AcDbLine
 10
522.4860999999999
 20
49.616
 30
0.0
 11
522.4860999999999
 21
48.11600000000001
 31
0.0
  0
LINE
  5
2D7
330
1E
100
AcDbEntity
  8
0
100
AcDbLine
 10
666.8301
 20
47.6
 30
0.0
 11
668.5271
 21
53.6
 31
0.0
  0
LINE
  5
2D8
330
1E
100
AcDbEntity
  8
0
100
AcDbLine
 10
632.7961
 20
47.10399999999999
 30
0.0
 11
634.5610999999999
 21
53.34399999999999
 31
0.0
  0
LINE
  5
2D9
330
1E
100
AcDbEntity
  8
0
100
AcDbLine
 10
415.2261
 20
51.04
 30
0.0
 11
416.4861
 21
60.0
 31
0.0
  0
LINE
  5
2DA
330
1E
100
AcDbEntity
  8
0
100
AcDbLine
 10
363.7861
 20
42.29999999999999
 30
0.0
 11
369.0860999999999
 21
38.3
 31
0.0
  0
LINE
  5
2DB
330
1E
100
AcDbEntity
  8
0
100
AcDbLine
 10
359.7860999999999
 20
47.6
 30
0.0
 11
363.7861
 21
42.29999999999999
 31
0.0
  0
LINE
  5
2DC
330
1E
100
AcDbEntity
  8
0
100
AcDbLine
 10
356.7060999999999
 20
35.22
 30
0.0
 11
364.1261
 21
29.62
 31
0.0
  0
LINE
  5
2DD
330
1E
100
AcDbEntity
  8
0
100
AcDbLine
 10
351.1061
 20
42.64
 30
0.0
 11
356.7060999999999
 21
35.22
 31
0.0
  0
LINE
  5
2DE
330
1E
100
AcDbEntity
  8
0
100
AcDbLine
 10
348.5020999999999
 20
78.848
 30
0.0
 11
354.5821
 21
86.904
 31
0.0
  0
LINE
  5
2DF
330
1E
100
AcDbEntity
  8
0
100
AcDbLine
 10
354.5821
 20
86.904
 30
0.0
 11
362.6381
 21
92.98399999999999
 31
0.0
  0
LINE
  5
2E0
330
1E
100
AcDbEntity
  8
0
100
AcDbLine
 10
351.1061
 20
77.36
 30
0.0
 11
356.7060999999999
 21
84.77999999999999
 31
0.0
  0
LINE
  5
2E1
330
1E
100
AcDbEntity
  8
0
100
AcDbLine
 10
347.7461
 20
68.95999999999999
 30
0.0
 11
351.1061
 21
77.36
 31
0.0
  0
LINE
  5
2E2
330
1E
100
AcDbEntity
  8
0
100
AcDbLine
 10
436.4220999999999
 20
53.34399999999999
 30
0.0
 11
438.9180999999999
 21
47.10399999999999
 31
0.0
  0
LINE
  5
2E3
330
1E
100
AcDbEntity
  8
0
100
AcDbLine
 10
633.8541
 20
53.34399999999999
 30
0.0
 11
634.5150999999999
 21
60.0
 31
0.0
  0
LINE
  5
2E4
330
1E
100
AcDbEntity
  8
0
100
AcDbLine
 10
508.4861
 20
53.34399999999999
 30
0.0
 11
508.4861
 21
60.0
 31
0.0
  0
LINE
  5
2E5
330
1E
100
AcDbEntity
  8
0
100
AcDbLine
 10
508.4861
 20
53.34399999999999
 30
0.0
 11
508.4861
 21
47.10399999999999
 31
0.0
  0
LINE
  5
2E6
330
1E
100
AcDbEntity
  8
0
100
AcDbLine
 10
506.4861
 20
53.34399999999999
 30
0.0
 11
506.4861
 21
60.0
 31
0.0
  0
LINE
  5
2E7
330
1E
100
AcDbEntity
  8
0
100
AcDbLine
 10
506.4861
 20
53.34399999999999
 30
0.0
 11
506.4861
 21
47.10399999999999
 31
0.0
  0
LINE
  5
2E8
330
1E
100
AcDbEntity
  8
0
100
AcDbLine
 10
668.5271
 20
53.6
 30
0.0
 11
669.1640999999999
 21
60.0
 31
0.0
  0
LINE
  5
2E9
330
1E
100
AcDbEntity
  8
0
100
AcDbLine
 10
634.5610999999999
 20
53.34399999999999
 30
0.0
 11
635.2231
 21
60.0
 31
0.0
  0
LINE
  5
2EA
330
1E
100
AcDbEntity
  8
0
100
AcDbLine
 10
405.5861
 20
53.6
 30
0.0
 11
406.4861
 21
60.0
 31
0.0
  0
LINE
  5
2EB
330
1E
100
AcDbEntity
  8
0
100
AcDbLine
 10
357.3860999999999
 20
66.4
 30
0.0
 11
359.7860999999999
 21
72.40000000000001
 31
0.0
  0
LINE
  5
2EC
330
1E
100
AcDbEntity
  8
0
100
AcDbLine
 10
362.6381
 20
92.98399999999999
 30
0.0
 11
371.7581
 21
96.63200000000001
 31
0.0
  0
LINE
  5
2ED
330
1E
100
AcDbEntity
  8
0
100
AcDbLine
 10
356.7060999999999
 20
84.77999999999999
 30
0.0
 11
364.1261
 21
90.38
 31
0.0
  0
LINE
  5
2EE
330
1E
100
AcDbEntity
  8
0
100
AcDbLine
 10
359.7860999999999
 20
72.40000000000001
 30
0.0
 11
363.7861
 21
77.7
 31
0.0
  0
LINE
  5
2EF
330
1E
100
AcDbEntity
  8
0
100
AcDbLine
 10
375.0861
 20
84.1
 30
0.0
 11
381.4861
 21
85.0
 31
0.0
  0
LINE
  5
2F0
330
1E
100
AcDbEntity
  8
0
100
AcDbLine
 10
369.0860999999999
 20
81.69999999999999
 30
0.0
 11
375.0861
 21
84.1
 31
0.0
  0
LINE
  5
2F1
330
1E
100
AcDbEntity
  8
0
100
AcDbLine
 10
372.5260999999999
 20
93.74
 30
0.0
 11
381.4861
 21
95.0
 31
0.0
  0
LINE
  5
2F2
330
1E
100
AcDbEntity
  8
0
100
AcDbLine
 10
364.1261
 20
90.38
 30
0.0
 11
372.5260999999999
 21
93.74
 31
0.0
  0
LINE
  5
2F3
330
1E
100
AcDbEntity
  8
0
100
AcDbLine
 10
363.7861
 20
77.7
 30
0.0
 11
369.0860999999999
 21
81.69999999999999
 31
0.0
  0
LINE
  5
2F4
330
1E
100
AcDbEntity
  8
0
100
AcDbLine
 10
371.7581
 20
96.63200000000001
 30
0.0
 11
381.4861
 21
98.0
 31
0.0
  0
LINE
  5
2F5
330
1E
100
AcDbEntity
  8
0
100
AcDbLine
 10
381.4861
 20
98.0
 30
0.0
 11
391.2140999999999
 21
96.63200000000001
 31
0.0
  0
LINE
  5
2F6
330
1E
100
AcDbEntity
  8
0
100
AcDbLine
 10
381.4861
 20
95.0
 30
0.0
 11
390.4460999999999
 21
93.74
 31
0.0
  0
LINE
  5
2F7
330
1E
100
AcDbEntity
  8
0
100
AcDbLine
 10
403.1861
 20
72.40000000000001
 30
0.0
 11
405.5861
 21
66.4
 31
0.0
  0
LINE
  5
2F8
330
1E
100
AcDbEntity
  8
0
100
AcDbLine
 10
435.4861
 20
60.0
 30
0.0
 11
436.4220999999999
 21
66.65600000000001
 31
0.0
  0
LINE
  5
2F9
330
1E
100
AcDbEntity
  8
0
100
AcDbLine
 10
435.4861
 20
60.0
 30
0.0
 11
436.4220999999999
 21
53.34399999999999
 31
0.0
  0
LINE
  5
2FA
330
1E
100
AcDbEntity
  8
0
100
AcDbLine
 10
436.4220999999999
 20
66.65600000000001
 30
0.0
 11
438.9180999999999
 21
72.896
 31
0.0
  0
LINE
  5
2FB
330
1E
100
AcDbEntity
  8
0
100
AcDbLine
 10
506.4861
 20
60.0
 30
0.0
 11
506.4861
 21
66.65600000000001
 31
0.0
  0
LINE
  5
2FC
330
1E
100
AcDbEntity
  8
0
100
AcDbLine
 10
506.4861
 20
60.0
 30
0.0
 11
506.4861
 21
53.34399999999999
 31
0.0
  0
LINE
  5
2FD
330
1E
100
AcDbEntity
  8
0
100
AcDbLine
 10
522.4860999999999
 20
54.112
 30
0.0
 11
522.4860999999999
 21
60.0
 31
0.0
  0
LINE
  5
2FE
330
1E
100
AcDbEntity
  8
0
100
AcDbLine
 10
522.4860999999999
 20
54.112
 30
0.0
 11
522.4860999999999
 21
49.616
 31
0.0
  0
LINE
  5
2FF
330
1E
100
AcDbEntity
  8
0
100
AcDbLine
 10
522.4860999999999
 20
60.0
 30
0.0
 11
522.4860999999999
 21
65.888
 31
0.0
  0
LINE
  5
300
330
1E
100
AcDbEntity
  8
0
100
AcDbLine
 10
522.4860999999999
 20
60.0
 30
0.0
 11
522.4860999999999
 21
54.112
 31
0.0
  0
LINE
  5
301
330
1E
100
AcDbEntity
  8
0
100
AcDbLine
 10
522.4860999999999
 20
65.888
 30
0.0
 11
522.4860999999999
 21
70.384
 31
0.0
  0
LINE
  5
302
330
1E
100
AcDbEntity
  8
0
100
AcDbLine
 10
522.4860999999999
 20
65.888
 30
0.0
 11
522.4860999999999
 21
60.0
 31
0.0
  0
LINE
  5
303
330
1E
100
AcDbEntity
  8
0
100
AcDbLine
 10
508.4861
 20
60.0
 30
0.0
 11
508.4861
 21
66.65600000000001
 31
0.0
  0
LINE
  5
304
330
1E
100
AcDbEntity
  8
0
100
AcDbLine
 10
508.4861
 20
60.0
 30
0.0
 11
508.4861
 21
53.34399999999999
 31
0.0
  0
LINE
  5
305
330
1E
100
AcDbEntity
  8
0
100
AcDbLine
 10
508.4861
 20
66.65600000000001
 30
0.0
 11
508.4861
 21
72.896
 31
0.0
  0
LINE
  5
306
330
1E
100
AcDbEntity
  8
0
100
AcDbLine
 10
508.4861
 20
66.65600000000001
 30
0.0
 11
508.4861
 21
60.0
 31
0.0
  0
LINE
  5
307
330
1E
100
AcDbEntity
  8
0
100
AcDbLine
 10
506.4861
 20
66.65600000000001
 30
0.0
 11
506.4861
 21
72.896
 31
0.0
  0
LINE
  5
308
330
1E
100
AcDbEntity
  8
0
100
AcDbLine
 10
506.4861
 20
66.65600000000001
 30
0.0
 11
506.4861
 21
60.0
 31
0.0
  0
LINE
  5
309
330
1E
100
AcDbEntity
  8
0
100
AcDbLine
 10
633.8541
 20
66.65600000000001
 30
0.0
 11
634.5150999999999
 21
60.0
 31
0.0
  0
LINE
  5
30A
330
1E
100
AcDbEntity
  8
0
100
AcDbLine
 10
668.5271
 20
66.4
 30
0.0
 11
669.1640999999999
 21
60.0
 31
0.0
  0
LINE
  5
30B
330
1E
100
AcDbEntity
  8
0
100
AcDbLine
 10
634.5610999999999
 20
66.65600000000001
 30
0.0
 11
635.2231
 21
60.0
 31
0.0
  0
LINE
  5
30C
330
1E
100
AcDbEntity
  8
0
100
AcDbLine
 10
418.1181
 20
69.72800000000001
 30
0.0
 11
419.4861
 21
60.0
 31
0.0
  0
LINE
  5
30D
330
1E
100
AcDbEntity
  8
0
100
AcDbLine
 10
438.9180999999999
 20
72.896
 30
0.0
 11
443.0781
 21
78.408
 31
0.0
  0
LINE
  5
30E
330
1E
100
AcDbEntity
  8
0
100
AcDbLine
 10
508.4861
 20
71.884
 30
0.0
 11
522.4860999999999
 21
71.884
 31
0.0
  0
LINE
  5
30F
330
1E
100
AcDbEntity
  8
0
100
AcDbLine
 10
522.4860999999999
 20
71.884
 30
0.0
 11
522.4860999999999
 21
70.384
 31
0.0
  0
LINE
  5
310
330
1E
100
AcDbEntity
  8
0
100
AcDbLine
 10
522.4860999999999
 20
71.884
 30
0.0
 11
522.4860999999999
 21
73.616
 31
0.0
  0
LINE
  5
311
330
1E
100
AcDbEntity
  8
0
100
AcDbLine
 10
522.4860999999999
 20
70.384
 30
0.0
 11
522.4860999999999
 21
65.888
 31
0.0
  0
LINE
  5
312
330
1E
100
AcDbEntity
  8
0
100
AcDbLine
 10
522.4860999999999
 20
70.384
 30
0.0
 11
522.4860999999999
 21
71.884
 31
0.0
  0
LINE
  5
313
330
1E
100
AcDbEntity
  8
0
100
AcDbLine
 10
508.4861
 20
72.896
 30
0.0
 11
508.4861
 21
78.408
 31
0.0
  0
LINE
  5
314
330
1E
100
AcDbEntity
  8
0
100
AcDbLine
 10
508.4861
 20
72.896
 30
0.0
 11
508.4861
 21
66.65600000000001
 31
0.0
  0
LINE
  5
315
330
1E
100
AcDbEntity
  8
0
100
AcDbLine
 10
506.4861
 20
72.896
 30
0.0
 11
506.4861
 21
78.408
 31
0.0
  0
LINE
  5
316
330
1E
100
AcDbEntity
  8
0
100
AcDbLine
 10
506.4861
 20
72.896
 30
0.0
 11
506.4861
 21
66.65600000000001
 31
0.0
  0
LINE
  5
317
330
1E
100
AcDbEntity
  8
0
100
AcDbLine
 10
666.8301
 20
72.40000000000001
 30
0.0
 11
668.5271
 21
66.4
 31
0.0
  0
LINE
  5
318
330
1E
100
AcDbEntity
  8
0
100
AcDbLine
 10
632.0891
 20
72.896
 30
0.0
 11
633.8541
 21
66.65600000000001
 31
0.0
  0
LINE
  5
319
330
1E
100
AcDbEntity
  8
0
100
AcDbLine
 10
508.4861
 20
73.616
 30
0.0
 11
522.4860999999999
 21
73.616
 31
0.0
  0
LINE
  5
31A
330
1E
100
AcDbEntity
  8
0
100
AcDbLine
 10
522.4860999999999
 20
73.616
 30
0.0
 11
522.4860999999999
 21
76.28399999999999
 31
0.0
  0
LINE
  5
31B
330
1E
100
AcDbEntity
  8
0
100
AcDbLine
 10
522.4860999999999
 20
73.616
 30
0.0
 11
522.4860999999999
 21
71.884
 31
0.0
  0
LINE
  5
31C
330
1E
100
AcDbEntity
  8
0
100
AcDbLine
 10
522.4860999999999
 20
76.28399999999999
 30
0.0
 11
522.4860999999999
 21
79.964
 31
0.0
  0
LINE
  5
31D
330
1E
100
AcDbEntity
  8
0
100
AcDbLine
 10
522.4860999999999
 20
76.28399999999999
 30
0.0
 11
522.4860999999999
 21
73.616
 31
0.0
  0
LINE
  5
31E
330
1E
100
AcDbEntity
  8
0
100
AcDbLine
 10
664.0021
 20
77.7
 30
0.0
 11
666.8301
 21
72.40000000000001
 31
0.0
  0
LINE
  5
31F
330
1E
100
AcDbEntity
  8
0
100
AcDbLine
 10
632.7961
 20
72.896
 30
0.0
 11
634.5610999999999
 21
66.65600000000001
 31
0.0
  0
LINE
  5
320
330
1E
100
AcDbEntity
  8
0
100
AcDbLine
 10
411.8661
 20
77.36
 30
0.0
 11
415.2261
 21
68.95999999999999
 31
0.0
  0
LINE
  5
321
330
1E
100
AcDbEntity
  8
0
100
AcDbLine
 10
415.2261
 20
68.95999999999999
 30
0.0
 11
416.4861
 21
60.0
 31
0.0
  0
LINE
  5
322
330
1E
100
AcDbEntity
  8
0
100
AcDbLine
 10
405.5861
 20
66.4
 30
0.0
 11
406.4861
 21
60.0
 31
0.0
  0
LINE
  5
323
330
1E
100
AcDbEntity
  8
0
100
AcDbLine
 10
391.2140999999999
 20
96.63200000000001
 30
0.0
 11
400.3340999999999
 21
92.98399999999999
 31
0.0
  0
LINE
  5
324
330
1E
100
AcDbEntity
  8
0
100
AcDbLine
 10
390.4460999999999
 20
93.74
 30
0.0
 11
398.8461
 21
90.38
 31
0.0
  0
LINE
  5
325
330
1E
100
AcDbEntity
  8
0
100
AcDbLine
 10
387.8861
 20
84.1
 30
0.0
 11
393.8861
 21
81.69999999999999
 31
0.0
  0
LINE
  5
326
330
1E
100
AcDbEntity
  8
0
100
AcDbLine
 10
400.3340999999999
 20
92.98399999999999
 30
0.0
 11
408.3901
 21
86.904
 31
0.0
  0
LINE
  5
327
330
1E
100
AcDbEntity
  8
0
100
AcDbLine
 10
398.8461
 20
90.38
 30
0.0
 11
406.2661
 21
84.77999999999999
 31
0.0
  0
LINE
  5
328
330
1E
100
AcDbEntity
  8
0
100
AcDbLine
 10
393.8861
 20
81.69999999999999
 30
0.0
 11
399.1861
 21
77.7
 31
0.0
  0
LINE
  5
329
330
1E
100
AcDbEntity
  8
0
100
AcDbLine
 10
443.0781
 20
78.408
 30
0.0
 11
448.5901
 21
82.568
 31
0.0
  0
LINE
  5
32A
330
1E
100
AcDbEntity
  8
0
100
AcDbLine
 10
629.1471
 20
78.408
 30
0.0
 11
632.0891
 21
72.896
 31
0.0
  0
LINE
  5
32B
330
1E
100
AcDbEntity
  8
0
100
AcDbLine
 10
414.4701
 20
78.848
 30
0.0
 11
418.1181
 21
69.72800000000001
 31
0.0
  0
LINE
  5
32C
330
1E
100
AcDbEntity
  8
0
100
AcDbLine
 10
492.4860999999999
 20
80.0
 30
0.0
 11
506.4861
 21
80.0
 31
0.0
  0
LINE
  5
32D
330
1E
100
AcDbEntity
  8
0
100
AcDbLine
 10
484.4630999999999
 20
80.0
 30
0.0
 11
492.4860999999999
 21
80.0
 31
0.0
  0
LINE
  5
32E
330
1E
100
AcDbEntity
  8
0
100
AcDbLine
 10
470.5661
 20
80.0
 30
0.0
 11
476.9861
 21
80.0
 31
0.0
  0
LINE
  5
32F
330
1E
100
AcDbEntity
  8
0
100
AcDbLine
 10
476.9861
 20
80.0
 30
0.0
 11
484.4630999999999
 21
80.0
 31
0.0
  0
LINE
  5
330
330
1E
100
AcDbEntity
  8
0
100
AcDbLine
 10
465.6391
 20
80.0
 30
0.0
 11
470.5661
 21
80.0
 31
0.0
  0
LINE
  5
331
330
1E
100
AcDbEntity
  8
0
100
AcDbLine
 10
462.5421
 20
80.0
 30
0.0
 11
465.6391
 21
80.0
 31
0.0
  0
LINE
  5
332
330
1E
100
AcDbEntity
  8
0
100
AcDbLine
 10
506.4861
 20
78.408
 30
0.0
 11
506.4861
 21
82.568
 31
0.0
  0
LINE
  5
333
330
1E
100
AcDbEntity
  8
0
100
AcDbLine
 10
506.4861
 20
78.408
 30
0.0
 11
506.4861
 21
72.896
 31
0.0
  0
LINE
  5
334
330
1E
100
AcDbEntity
  8
0
100
AcDbLine
 10
448.5901
 20
82.568
 30
0.0
 11
454.8301
 21
85.06399999999999
 31
0.0
  0
LINE
  5
335
330
1E
100
AcDbEntity
  8
0
100
AcDbLine
 10
454.8301
 20
85.06399999999999
 30
0.0
 11
461.4861
 21
86.0
 31
0.0
  0
LINE
  5
336
330
1E
100
AcDbEntity
  8
0
100
AcDbLine
 10
474.3820999999999
 20
82.568
 30
0.0
 11
477.7847
 21
80.0
 31
0.0
  0
LINE
  5
337
330
1E
100
AcDbEntity
  8
0
100
AcDbLine
 10
468.1421
 20
85.06399999999999
 30
0.0
 11
474.3820999999999
 21
82.568
 31
0.0
  0
LINE
  5
338
330
1E
100
AcDbEntity
  8
0
100
AcDbLine
 10
506.4861
 20
80.0
 30
0.0
 11
506.4861
 21
82.568
 31
0.0
  0
LINE
  5
339
330
1E
100
AcDbEntity
  8
0
100
AcDbLine
 10
508.4861
 20
78.408
 30
0.0
 11
508.4861
 21
82.568
 31
0.0
  0
LINE
  5
33A
330
1E
100
AcDbEntity
  8
0
100
AcDbLine
 10
508.4861
 20
78.408
 30
0.0
 11
508.4861
 21
72.896
 31
0.0
  0
LINE
  5
33B
330
1E
100
AcDbEntity
  8
0
100
AcDbLine
 10
522.4860999999999
 20
80.0
 30
0.0
 11
544.4860999999999
 21
80.0
 31
0.0
  0
LINE
  5
33C
330
1E
100
AcDbEntity
  8
0
100
AcDbLine
 10
544.4860999999999
 20
80.0
 30
0.0
 11
552.5090999999999
 21
80.0
 31
0.0
  0
LINE
  5
33D
330
1E
100
AcDbEntity
  8
0
100
AcDbLine
 10
559.9860999999999
 20
80.0
 30
0.0
 11
566.4061
 21
80.0
 31
0.0
  0
LINE
  5
33E
330
1E
100
AcDbEntity
  8
0
100
AcDbLine
 10
552.5090999999999
 20
80.0
 30
0.0
 11
559.9860999999999
 21
80.0
 31
0.0
  0
LINE
  5
33F
330
1E
100
AcDbEntity
  8
0
100
AcDbLine
 10
566.4061
 20
80.0
 30
0.0
 11
612.5661
 21
80.0
 31
0.0
  0
LINE
  5
340
330
1E
100
AcDbEntity
  8
0
100
AcDbLine
 10
522.4860999999999
 20
79.964
 30
0.0
 11
522.4860999999999
 21
82.17200000000001
 31
0.0
  0
LINE
  5
341
330
1E
100
AcDbEntity
  8
0
100
AcDbLine
 10
522.4860999999999
 20
79.964
 30
0.0
 11
522.4860999999999
 21
76.28399999999999
 31
0.0
  0
LINE
  5
342
330
1E
100
AcDbEntity
  8
0
100
AcDbLine
 10
522.4860999999999
 20
83.0
 30
0.0
 11
522.4860999999999
 21
82.17200000000001
 31
0.0
  0
LINE
  5
343
330
1E
100
AcDbEntity
  8
0
100
AcDbLine
 10
522.4860999999999
 20
83.0
 30
0.0
 11
522.4860999999999
 21
85.5
 31
0.0
  0
LINE
  5
344
330
1E
100
AcDbEntity
  8
0
100
AcDbLine
 10
522.4860999999999
 20
82.17200000000001
 30
0.0
 11
522.4860999999999
 21
83.0
 31
0.0
  0
LINE
  5
345
330
1E
100
AcDbEntity
  8
0
100
AcDbLine
 10
522.4860999999999
 20
82.17200000000001
 30
0.0
 11
522.4860999999999
 21
79.964
 31
0.0
  0
LINE
  5
346
330
1E
100
AcDbEntity
  8
0
100
AcDbLine
 10
508.4861
 20
82.568
 30
0.0
 11
508.4861
 21
85.06399999999999
 31
0.0
  0
LINE
  5
347
330
1E
100
AcDbEntity
  8
0
100
AcDbLine
 10
508.4861
 20
82.568
 30
0.0
 11
508.4861
 21
78.408
 31
0.0
  0
LINE
  5
348
330
1E
100
AcDbEntity
  8
0
100
AcDbLine
 10
508.4861
 20
85.06399999999999
 30
0.0
 11
508.4861
 21
86.0
 31
0.0
  0
LINE
  5
349
330
1E
100
AcDbEntity
  8
0
100
AcDbLine
 10
508.4861
 20
85.06399999999999
 30
0.0
 11
508.4861
 21
82.568
 31
0.0
  0
LINE
  5
34A
330
1E
100
AcDbEntity
  8
0
100
AcDbLine
 10
506.4861
 20
82.568
 30
0.0
 11
506.4861
 21
80.0
 31
0.0
  0
LINE
  5
34B
330
1E
100
AcDbEntity
  8
0
100
AcDbLine
 10
506.4861
 20
82.568
 30
0.0
 11
506.4861
 21
85.06399999999999
 31
0.0
  0
LINE
  5
34C
330
1E
100
AcDbEntity
  8
0
100
AcDbLine
 10
506.4861
 20
82.568
 30
0.0
 11
506.4861
 21
78.408
 31
0.0
  0
LINE
  5
34D
330
1E
100
AcDbEntity
  8
0
100
AcDbLine
 10
506.4861
 20
85.06399999999999
 30
0.0
 11
506.4861
 21
82.568
 31
0.0
  0
LINE
  5
34E
330
1E
100
AcDbEntity
  8
0
100
AcDbLine
 10
506.4861
 20
85.06399999999999
 30
0.0
 11
506.4861
 21
86.0
 31
0.0
  0
LINE
  5
34F
330
1E
100
AcDbEntity
  8
0
100
AcDbLine
 10
612.5661
 20
80.0
 30
0.0
 11
616.1011
 21
80.0
 31
0.0
  0
LINE
  5
350
330
1E
100
AcDbEntity
  8
0
100
AcDbLine
 10
621.657253846154
 20
85.0
 30
0.0
 11
651.4860999999999
 21
85.0
 31
0.0
  0
LINE
  5
351
330
1E
100
AcDbEntity
  8
0
100
AcDbLine
 10
611.4240999999999
 20
85.06399999999999
 30
0.0
 11
616.1310999999999
 21
86.0
 31
0.0
  0
LINE
  5
352
330
1E
100
AcDbEntity
  8
0
100
AcDbLine
 10
607.0121
 20
82.568
 30
0.0
 11
611.4240999999999
 21
85.06399999999999
 31
0.0
  0
LINE
  5
353
330
1E
100
AcDbEntity
  8
0
100
AcDbLine
 10
604.6058346153849
 20
80.0
 30
0.0
 11
607.0121
 21
82.568
 31
0.0
  0
LINE
  5
354
330
1E
100
AcDbEntity
  8
0
100
AcDbLine
 10
620.8370999999999
 20
85.06399999999999
 30
0.0
 11
625.2491
 21
82.568
 31
0.0
  0
LINE
  5
355
330
1E
100
AcDbEntity
  8
0
100
AcDbLine
 10
625.2491
 20
82.568
 30
0.0
 11
629.1471
 21
78.408
 31
0.0
  0
LINE
  5
356
330
1E
100
AcDbEntity
  8
0
100
AcDbLine
 10
461.4861
 20
86.0
 30
0.0
 11
468.1421
 21
85.06399999999999
 31
0.0
  0
LINE
  5
357
330
1E
100
AcDbEntity
  8
0
100
AcDbLine
 10
522.4860999999999
 20
85.5
 30
0.0
 11
522.4860999999999
 21
83.0
 31
0.0
  0
LINE
  5
358
330
1E
100
AcDbEntity
  8
0
100
AcDbLine
 10
508.4861
 20
85.5
 30
0.0
 11
522.4860999999999
 21
85.5
 31
0.0
  0
LINE
  5
359
330
1E
100
AcDbEntity
  8
0
100
AcDbLine
 10
508.4861
 20
86.0
 30
0.0
 11
508.4861
 21
85.06399999999999
 31
0.0
  0
LINE
  5
35A
330
1E
100
AcDbEntity
  8
0
100
AcDbLine
 10
506.4861
 20
86.0
 30
0.0
 11
506.4861
 21
85.06399999999999
 31
0.0
  0
LINE
  5
35B
330
1E
100
AcDbEntity
  8
0
100
AcDbLine
 10
506.4861
 20
86.0
 30
0.0
 11
508.4861
 21
86.0
 31
0.0
  0
LINE
  5
35C
330
1E
100
AcDbEntity
  8
0
100
AcDbLine
 10
408.8067037735849
 20
86.35200000000001
 30
0.0
 11
454.4861
 21
86.35200000000001
 31
0.0
  0
LINE
  5
35D
330
1E
100
AcDbEntity
  8
0
100
AcDbLine
 10
408.3901
 20
86.904
 30
0.0
 11
414.4701
 21
78.848
 31
0.0
  0
LINE
  5
35E
330
1E
100
AcDbEntity
  8
0
100
AcDbLine
 10
408.2628999999999
 20
87.0
 30
0.0
 11
454.4861
 21
87.0
 31
0.0
  0
LINE
  5
35F
330
1E
100
AcDbEntity
  8
0
100
AcDbLine
 10
454.4861
 20
86.35200000000001
 30
0.0
 11
459.200241732283
 21
85.67855118110228
 31
0.0
  0
LINE
  5
360
330
1E
100
AcDbEntity
  8
0
100
AcDbLine
 10
461.3980999999999
 20
86.028
 30
0.0
 11
461.472782080925
 21
85.99812716763
 31
0.0
  0
LINE
  5
361
330
1E
100
AcDbEntity
  8
0
100
AcDbLine
 10
616.1310999999999
 20
86.0
 30
0.0
 11
620.8370999999999
 21
85.06399999999999
 31
0.0
  0
LINE
  5
362
330
1E
100
AcDbEntity
  8
0
100
AcDbLine
 10
616.1310999999999
 20
86.0
 30
0.0
 11
616.8381000000001
 21
86.0
 31
0.0
  0
LINE
  5
363
330
1E
100
AcDbEntity
  8
0
100
AcDbLine
 10
616.8381000000001
 20
86.0
 30
0.0
 11
621.5440999999999
 21
85.06399999999999
 31
0.0
  0
LINE
  5
364
330
1E
100
AcDbEntity
  8
0
100
AcDbLine
 10
621.5440999999999
 20
85.06399999999999
 30
0.0
 11
625.9571
 21
82.568
 31
0.0
  0
LINE
  5
365
330
1E
100
AcDbEntity
  8
0
100
AcDbLine
 10
651.4860999999999
 20
85.0
 30
0.0
 11
656.0121
 21
84.1
 31
0.0
  0
LINE
  5
366
330
1E
100
AcDbEntity
  8
0
100
AcDbLine
 10
656.0121
 20
84.1
 30
0.0
 11
660.2541
 21
81.69999999999999
 31
0.0
  0
LINE
  5
367
330
1E
100
AcDbEntity
  8
0
100
AcDbLine
 10
660.2541
 20
81.69999999999999
 30
0.0
 11
664.0021
 21
77.7
 31
0.0
  0
LINE
  5
368
330
1E
100
AcDbEntity
  8
0
100
AcDbLine
 10
625.9571
 20
82.568
 30
0.0
 11
629.8541
 21
78.408
 31
0.0
  0
LINE
  5
369
330
1E
100
AcDbEntity
  8
0
100
AcDbLine
 10
629.8541
 20
78.408
 30
0.0
 11
632.7961
 21
72.896
 31
0.0
  0
LINE
  5
36A
330
1E
100
AcDbEntity
  8
0
100
AcDbLine
 10
406.2661
 20
84.77999999999999
 30
0.0
 11
411.8661
 21
77.36
 31
0.0
  0
LINE
  5
36B
330
1E
100
AcDbEntity
  8
0
100
AcDbLine
 10
399.1861
 20
77.7
 30
0.0
 11
403.1861
 21
72.40000000000001
 31
0.0
  0
LINE
  5
36C
330
1E
100
AcDbEntity
  8
0
100
AcDbLine
 10
381.4861
 20
85.0
 30
0.0
 11
387.8861
 21
84.1
 31
0.0
  0
LINE
  5
36D
330
1E
100
AcDbEntity
  8
0
100
AcDbLine
 10
357.3860999999999
 20
53.6
 30
0.0
 11
359.7860999999999
 21
47.6
 31
0.0
  0
LINE
  5
36E
330
1E
100
AcDbEntity
  8
0
100
AcDbLine
 10
356.4861
 20
60.0
 30
0.0
 11
357.3860999999999
 21
53.6
 31
0.0
  0
LINE
  5
36F
330
1E
100
AcDbEntity
  8
0
100
AcDbLine
 10
356.4861
 20
60.0
 30
0.0
 11
357.3860999999999
 21
66.4
 31
0.0
  0
LINE
  5
370
330
1E
100
AcDbEntity
  8
0
100
AcDbLine
 10
347.7461
 20
51.04
 30
0.0
 11
351.1061
 21
42.64
 31
0.0
  0
LINE
  5
371
330
1E
100
AcDbEntity
  8
0
100
AcDbLine
 10
346.4861
 20
60.0
 30
0.0
 11
347.7461
 21
51.04
 31
0.0
  0
LINE
  5
372
330
1E
100
AcDbEntity
  8
0
100
AcDbLine
 10
346.4861
 20
60.0
 30
0.0
 11
347.7461
 21
68.95999999999999
 31
0.0
  0
LINE
  5
377
330
1E
100
AcDbEntity
  8
0
100
AcDbLine
 10
454.4861
 20
87.0
 30
0.0
 11
461.3980999999999
 21
86.028
 31
0.0
  0
ENDSEC
  0
SECTION
  2
OBJECTS
  0
DICTIONARY
  5
C
330
0
100
AcDbDictionary
281
     1
  3
ACAD_GROUP
350
D
  3
ACAD_LAYOUT
350
19
  3
ACAD_MLINESTYLE
350
16
  3
ACAD_PLOTSETTINGS
350
18
  3
ACAD_PLOTSTYLENAME
350
E
  3
AcDbVariableDictionary
350
378
  0
DICTIONARY
  5
D
102
{ACAD_REACTORS
330
C
102
}
330
C
100
AcDbDictionary
281
     1
  0
DICTIONARY
  5
19
102
{ACAD_REACTORS
330
C
102
}
330
C
100
AcDbDictionary
281
     1
  3
Layout1
350
1D
  3
Model
350
21
  0
DICTIONARY
  5
16
102
{ACAD_REACTORS
330
C
102
}
330
C
100
AcDbDictionary
281
     1
  3
Standard
350
17
  0
DICTIONARY
  5
18
102
{ACAD_REACTORS
330
C
102
}
330
C
100
AcDbDictionary
281
     1
  0
ACDBDICTIONARYWDFLT
  5
E
102
{ACAD_REACTORS
330
C
102
}
330
C
100
AcDbDictionary
281
     1
  3
Normal
350
F
100
AcDbDictionaryWithDefault
340
F
  0
DICTIONARY
  5
378
102
{ACAD_REACTORS
330
C
102
}
330
C
100
AcDbDictionary
281
     1
  3
DIMASSOC
350
379
  0
LAYOUT
  5
1D
102
{ACAD_REACTORS
330
19
102
}
330
19
100
AcDbPlotSettings
  1

  2
hp deskjet 980c series
  4

  6

 40
0.0
 41
0.0
 42
0.0
 43
0.0
 44
0.0
 45
0.0
 46
0.0
 47
0.0
 48
0.0
 49
0.0
140
0.0
141
0.0
142
1.0
143
1.0
 70
   688
 72
     0
 73
     0
 74
     5
  7

 75
    16
147
1.0
148
0.0
149
0.0
100
AcDbLayout
  1
Layout1
 70
     1
 71
     1
 10
0.0
 20
0.0
 11
12.0
 21
9.0
 12
0.0
 22
0.0
 32
0.0
 14
1.000000000000000E+20
 24
1.000000000000000E+20
 34
1.000000000000000E+20
 15
-1.000000000000000E+20
 25
-1.000000000000000E+20
 35
-1.000000000000000E+20
146
0.0
 13
0.0
 23
0.0
 33
0.0
 16
1.0
 26
0.0
 36
0.0
 17
0.0
 27
1.0
 37
0.0
 76
     0
330
1A
  0
LAYOUT
  5
21
102
{ACAD_REACTORS
330
19
102
}
330
19
100
AcDbPlotSettings
  1

  2
hp deskjet 980c series
  4

  6

 40
0.0
 41
0.0
 42
0.0
 43
0.0
 44
0.0
 45
0.0
 46
0.0
 47
0.0
 48
0.0
 49
0.0
140
0.0
141
0.0
142
1.0
143
1.0
 70
  1712
 72
     0
 73
     0
 74
     0
  7

 75
     0
147
1.0
148
0.0
149
0.0
100
AcDbLayout
  1
Model
 70
     1
 71
     0
 10
0.0
 20
0.0
 11
12.0
 21
9.0
 12
0.0
 22
0.0
 32
0.0
 14
0.0
 24
0.0
 34
0.0
 15
0.0
 25
0.0
 35
0.0
146
0.0
 13
0.0
 23
0.0
 33
0.0
 16
1.0
 26
0.0
 36
0.0
 17
0.0
 27
1.0
 37
0.0
 76
     0
330
1E
  0
MLINESTYLE
  5
17
102
{ACAD_REACTORS
330
16
102
}
330
16
100
AcDbMlineStyle
  2
STANDARD
 70
     0
  3

 62
   256
 51
90.0
 52
90.0
 71
     2
 49
0.5
 62
   256
  6
BYLAYER
 49
-0.5
 62
   256
  6
BYLAYER
  0
ACDBPLACEHOLDER
  5
F
102
{ACAD_REACTORS
330
E
102
}
330
E
  0
DICTIONARYVAR
  5
379
102
{ACAD_REACTORS
330
378
102
}
330
378
100
DictionaryVariables
280
     0
  1
1
  0
ENDSEC
  0
EOF
