  0
SECTION
  2
HEADER
  9
$ACADVER
  1
AC1014
  9
$ACADMAINTVER
 70
     9
  9
$DWGCODEPAGE
  3
ANSI_1252
  9
$INSBASE
 10
0.0
 20
0.0
 30
0.0
  9
$EXTMIN
 10
0.180900000000006
 20
-0.0000000000000101
 30
0.0
  9
$EXTMAX
 10
175.8191
 20
201.0
 30
0.0
  9
$LIMMIN
 10
0.0
 20
0.0
  9
$LIMMAX
 10
12.0
 20
9.0
  9
$ORTHOMODE
 70
     0
  9
$REGENMODE
 70
     1
  9
$FILLMODE
 70
     1
  9
$QTEXTMODE
 70
     0
  9
$MIRRTEXT
 70
     1
  9
$DRAGMODE
 70
     2
  9
$LTSCALE
 40
1.0
  9
$OSMODE
 70
    37
  9
$ATTMODE
 70
     1
  9
$TEXTSIZE
 40
0.2
  9
$TRACEWID
 40
0.05
  9
$TEXTSTYLE
  7
STANDARD
  9
$CLAYER
  8
0
  9
$CELTYPE
  6
CONTINUOUS
  9
$CECOLOR
 62
   256
  9
$CELTSCALE
 40
1.0
  9
$DELOBJ
 70
     1
  9
$DISPSILH
 70
     0
  9
$DIMSCALE
 40
1.0
  9
$DIMASZ
 40
0.18
  9
$DIMEXO
 40
0.0625
  9
$DIMDLI
 40
0.38
  9
$DIMRND
 40
0.0
  9
$DIMDLE
 40
0.0
  9
$DIMEXE
 40
0.18
  9
$DIMTP
 40
0.0
  9
$DIMTM
 40
0.0
  9
$DIMTXT
 40
0.18
  9
$DIMCEN
 40
0.09
  9
$DIMTSZ
 40
0.0
  9
$DIMTOL
 70
     0
  9
$DIMLIM
 70
     0
  9
$DIMTIH
 70
     1
  9
$DIMTOH
 70
     1
  9
$DIMSE1
 70
     0
  9
$DIMSE2
 70
     0
  9
$DIMTAD
 70
     0
  9
$DIMZIN
 70
     0
  9
$DIMBLK
  1

  9
$DIMASO
 70
     1
  9
$DIMSHO
 70
     1
  9
$DIMPOST
  1

  9
$DIMAPOST
  1

  9
$DIMALT
 70
     0
  9
$DIMALTD
 70
     2
  9
$DIMALTF
 40
25.4
  9
$DIMLFAC
 40
1.0
  9
$DIMTOFL
 70
     0
  9
$DIMTVP
 40
0.0
  9
$DIMTIX
 70
     0
  9
$DIMSOXD
 70
     0
  9
$DIMSAH
 70
     0
  9
$DIMBLK1
  1

  9
$DIMBLK2
  1

  9
$DIMSTYLE
  2
STANDARD
  9
$DIMCLRD
 70
     0
  9
$DIMCLRE
 70
     0
  9
$DIMCLRT
 70
     0
  9
$DIMTFAC
 40
1.0
  9
$DIMGAP
 40
0.09
  9
$DIMJUST
 70
     0
  9
$DIMSD1
 70
     0
  9
$DIMSD2
 70
     0
  9
$DIMTOLJ
 70
     1
  9
$DIMTZIN
 70
     0
  9
$DIMALTZ
 70
     0
  9
$DIMALTTZ
 70
     0
  9
$DIMFIT
 70
     3
  9
$DIMUPT
 70
     0
  9
$DIMUNIT
 70
     2
  9
$DIMDEC
 70
     4
  9
$DIMTDEC
 70
     4
  9
$DIMALTU
 70
     2
  9
$DIMALTTD
 70
     2
  9
$DIMTXSTY
  7
STANDARD
  9
$DIMAUNIT
 70
     0
  9
$LUNITS
 70
     2
  9
$LUPREC
 70
     4
  9
$SKETCHINC
 40
0.1
  9
$FILLETRAD
 40
0.0
  9
$AUNITS
 70
     0
  9
$AUPREC
 70
     0
  9
$MENU
  1
.
  9
$ELEVATION
 40
0.0
  9
$PELEVATION
 40
0.0
  9
$THICKNESS
 40
0.0
  9
$LIMCHECK
 70
     0
  9
$BLIPMODE
 70
     0
  9
$CHAMFERA
 40
0.0
  9
$CHAMFERB
 40
0.0
  9
$CHAMFERC
 40
0.0
  9
$CHAMFERD
 40
0.0
  9
$SKPOLY
 70
     0
  9
$TDCREATE
 40
2455235.508097870
  9
$TDUPDATE
 40
2455235.509112048
  9
$TDINDWG
 40
0.0010141782
  9
$TDUSRTIMER
 40
0.0010141782
  9
$USRTIMER
 70
     1
  9
$ANGBASE
 50
0.0
  9
$ANGDIR
 70
     0
  9
$PDMODE
 70
     0
  9
$PDSIZE
 40
0.0
  9
$PLINEWID
 40
0.0
  9
$COORDS
 70
     1
  9
$SPLFRAME
 70
     0
  9
$SPLINETYPE
 70
     6
  9
$SPLINESEGS
 70
     8
  9
$ATTDIA
 70
     0
  9
$ATTREQ
 70
     1
  9
$HANDLING
 70
 22529
  9
$HANDSEED
  5
133
  9
$SURFTAB1
 70
     6
  9
$SURFTAB2
 70
     6
  9
$SURFTYPE
 70
     6
  9
$SURFU
 70
     6
  9
$SURFV
 70
     6
  9
$UCSNAME
  2

  9
$UCSORG
 10
0.0
 20
0.0
 30
0.0
  9
$UCSXDIR
 10
1.0
 20
0.0
 30
0.0
  9
$UCSYDIR
 10
0.0
 20
1.0
 30
0.0
  9
$PUCSNAME
  2

  9
$PUCSORG
 10
0.0
 20
0.0
 30
0.0
  9
$PUCSXDIR
 10
1.0
 20
0.0
 30
0.0
  9
$PUCSYDIR
 10
0.0
 20
1.0
 30
0.0
  9
$USERI1
 70
     0
  9
$USERI2
 70
     0
  9
$USERI3
 70
     0
  9
$USERI4
 70
     0
  9
$USERI5
 70
     0
  9
$USERR1
 40
0.0
  9
$USERR2
 40
0.0
  9
$USERR3
 40
0.0
  9
$USERR4
 40
0.0
  9
$USERR5
 40
0.0
  9
$WORLDVIEW
 70
     1
  9
$SHADEDGE
 70
     3
  9
$SHADEDIF
 70
    70
  9
$TILEMODE
 70
     1
  9
$MAXACTVP
 70
    64
  9
$PINSBASE
 10
0.0
 20
0.0
 30
0.0
  9
$PLIMCHECK
 70
     0
  9
$PEXTMIN
 10
1.000000000000000E+20
 20
1.000000000000000E+20
 30
1.000000000000000E+20
  9
$PEXTMAX
 10
-1.000000000000000E+20
 20
-1.000000000000000E+20
 30
-1.000000000000000E+20
  9
$PLIMMIN
 10
0.0
 20
0.0
  9
$PLIMMAX
 10
12.0
 20
9.0
  9
$UNITMODE
 70
     0
  9
$VISRETAIN
 70
     1
  9
$PLINEGEN
 70
     0
  9
$PSLTSCALE
 70
     1
  9
$TREEDEPTH
 70
  3020
  9
$PICKSTYLE
 70
     1
  9
$CMLSTYLE
  2
STANDARD
  9
$CMLJUST
 70
     0
  9
$CMLSCALE
 40
1.0
  9
$PROXYGRAPHICS
 70
     1
  9
$MEASUREMENT
 70
     0
  0
ENDSEC
  0
SECTION
  2
CLASSES
  0
CLASS
  1
ACDBDICTIONARYWDFLT
  2
AcDbDictionaryWithDefault
  3
AutoCAD 2000
 90
        0
280
     0
281
     0
  0
CLASS
  1
ACDBPLACEHOLDER
  2
AcDbPlaceHolder
  3
AutoCAD 2000
 90
        0
280
     0
281
     0
  0
CLASS
  1
LAYOUT
  2
AcDbLayout
  3
AutoCAD 2000
 90
        0
280
     0
281
     0
  0
CLASS
  1
DICTIONARYVAR
  2
AcDbDictionaryVar
  3
AutoCAD 2000
 90
        0
280
     0
281
     0
  0
CLASS
  1
LONG_TRANSACTION
  2
AcDbLongTransaction
  3
AutoCAD 2000
 90
        0
280
     0
281
     0
  0
CLASS
  1
LWPOLYLINE
  2
AcDbPolyline
  3
AutoCAD 2000
 90
        0
280
     0
281
     1
  0
CLASS
  1
HATCH
  2
AcDbHatch
  3
AutoCAD 2000
 90
        0
280
     0
281
     1
  0
CLASS
  1
XRECORD
  2
AcDbXrecord
  3
AutoCAD 2000
 90
        0
280
     0
281
     0
  0
ENDSEC
  0
SECTION
  2
TABLES
  0
TABLE
  2
VPORT
  5
8
330
0
100
AcDbSymbolTable
 70
     3
  0
VPORT
  5
10E
330
8
100
AcDbSymbolTableRecord
100
AcDbViewportTableRecord
  2
*ACTIVE
 70
     0
 10
0.0
 20
0.0
 11
1.0
 21
1.0
 12
88.0
 22
100.4999999999999
 13
0.0
 23
0.0
 14
1.0
 24
1.0
 15
0.0
 25
0.0
 16
0.0
 26
0.0
 36
1.0
 17
0.0
 27
0.0
 37
0.0
 40
202.3194748358862
 41
2.041621029572836
 42
50.0
 43
0.0
 44
0.0
 50
0.0
 51
0.0
 71
     0
 72
   100
 73
     1
 74
     3
 75
     0
 76
     0
 77
     0
 78
     0
  0
ENDTAB
  0
TABLE
  2
LTYPE
  5
5
330
0
100
AcDbSymbolTable
 70
     1
  0
LTYPE
  5
13
330
5
100
AcDbSymbolTableRecord
100
AcDbLinetypeTableRecord
  2
BYBLOCK
 70
     0
  3

 72
    65
 73
     0
 40
0.0
  0
LTYPE
  5
14
330
5
100
AcDbSymbolTableRecord
100
AcDbLinetypeTableRecord
  2
BYLAYER
 70
     0
  3

 72
    65
 73
     0
 40
0.0
  0
LTYPE
  5
15
330
5
100
AcDbSymbolTableRecord
100
AcDbLinetypeTableRecord
  2
CONTINUOUS
 70
     0
  3
Solid line
 72
    65
 73
     0
 40
0.0
  0
ENDTAB
  0
TABLE
  2
LAYER
  5
2
330
0
100
AcDbSymbolTable
 70
     1
  0
LAYER
  5
10
330
2
100
AcDbSymbolTableRecord
100
AcDbLayerTableRecord
  2
0
 70
     0
 62
     7
  6
CONTINUOUS
  0
ENDTAB
  0
TABLE
  2
STYLE
  5
3
330
0
100
AcDbSymbolTable
 70
     1
  0
STYLE
  5
11
330
3
100
AcDbSymbolTableRecord
100
AcDbTextStyleTableRecord
  2
STANDARD
 70
     0
 40
0.0
 41
1.0
 50
0.0
 71
     0
 42
0.2
  3
txt
  4

  0
ENDTAB
  0
TABLE
  2
VIEW
  5
6
330
0
100
AcDbSymbolTable
 70
     0
  0
ENDTAB
  0
TABLE
  2
UCS
  5
7
330
0
100
AcDbSymbolTable
 70
     0
  0
ENDTAB
  0
TABLE
  2
APPID
  5
9
330
0
100
AcDbSymbolTable
 70
     1
  0
APPID
  5
12
330
9
100
AcDbSymbolTableRecord
100
AcDbRegAppTableRecord
  2
ACAD
 70
     0
  0
ENDTAB
  0
TABLE
  2
DIMSTYLE
  5
A
330
0
100
AcDbSymbolTable
 70
     1
  0
DIMSTYLE
105
101
330
A
100
AcDbSymbolTableRecord
100
AcDbDimStyleTableRecord
  2
STANDARD
 70
     0
  3

  4

  5

  6

  7

 40
1.0
 41
0.18
 42
0.0625
 43
0.38
 44
0.18
 45
0.0
 46
0.0
 47
0.0
 48
0.0
140
0.18
141
0.09
142
0.0
143
25.4
144
1.0
145
0.0
146
1.0
147
0.09
 71
     0
 72
     0
 73
     1
 74
     1
 75
     0
 76
     0
 77
     0
 78
     0
170
     0
171
     2
172
     0
173
     0
174
     0
175
     0
176
     0
177
     0
178
     0
270
     2
271
     4
272
     4
273
     2
274
     2
340
11
275
     0
280
     0
281
     0
282
     0
283
     1
284
     0
285
     0
286
     0
287
     3
288
     0
  0
ENDTAB
  0
TABLE
  2
BLOCK_RECORD
  5
1
330
0
100
AcDbSymbolTable
 70
     0
  0
BLOCK_RECORD
  5
1E
102
{ACAD_XDICTIONARY
360
131
102
}
330
1
100
AcDbSymbolTableRecord
100
AcDbBlockTableRecord
  2
*MODEL_SPACE
  0
BLOCK_RECORD
  5
1A
102
{ACAD_XDICTIONARY
360
12F
102
}
330
1
100
AcDbSymbolTableRecord
100
AcDbBlockTableRecord
  2
*PAPER_SPACE
  0
ENDTAB
  0
ENDSEC
  0
SECTION
  2
BLOCKS
  0
BLOCK
  5
1F
330
1E
100
AcDbEntity
  8
0
100
AcDbBlockBegin
  2
*MODEL_SPACE
 70
     0
 10
0.0
 20
0.0
 30
0.0
  3
*MODEL_SPACE
  1

  0
ENDBLK
  5
20
330
1E
100
AcDbEntity
  8
0
100
AcDbBlockEnd
  0
BLOCK
  5
1B
330
1A
100
AcDbEntity
 67
     1
  8
0
100
AcDbBlockBegin
  2
*PAPER_SPACE
 70
     0
 10
0.0
 20
0.0
 30
0.0
  3
*PAPER_SPACE
  1

  0
ENDBLK
  5
1C
330
1A
100
AcDbEntity
 67
     1
  8
0
100
AcDbBlockEnd
  0
ENDSEC
  0
SECTION
  2
ENTITIES
  0
LINE
  5
22
330
1E
100
AcDbEntity
  8
0
100
AcDbLine
 10
130.6131
 20
-0.0000000000000073
 30
0.0
 11
136.1470999999999
 21
-0.0000000000000076
 31
0.0
  0
LINE
  5
23
330
1E
100
AcDbEntity
  8
0
100
AcDbLine
 10
136.1470999999999
 20
-0.0000000000000076
 30
0.0
 11
142.5380999999999
 21
-0.000000000000008
 31
0.0
  0
LINE
  5
24
330
1E
100
AcDbEntity
  8
0
100
AcDbLine
 10
126.4040999999999
 20
-0.000000000000007
 30
0.0
 11
130.6131
 21
-0.0000000000000073
 31
0.0
  0
LINE
  5
25
330
1E
100
AcDbEntity
  8
0
100
AcDbLine
 10
123.7541
 20
-0.0000000000000069
 30
0.0
 11
126.4040999999999
 21
-0.000000000000007
 31
0.0
  0
LINE
  5
2A
330
1E
100
AcDbEntity
  8
0
100
AcDbLine
 10
124.9230999999999
 20
4.99999999999999
 30
0.0
 11
127.4181
 21
4.99999999999999
 31
0.0
  0
LINE
  5
2B
330
1E
100
AcDbEntity
  8
0
100
AcDbLine
 10
123.9881
 20
4.99999999999999
 30
0.0
 11
124.9230999999999
 21
4.99999999999999
 31
0.0
  0
LINE
  5
2C
330
1E
100
AcDbEntity
  8
0
100
AcDbLine
 10
131.3930999999999
 20
4.99999999999999
 30
0.0
 11
136.6921
 21
4.99999999999999
 31
0.0
  0
LINE
  5
2D
330
1E
100
AcDbEntity
  8
0
100
AcDbLine
 10
135.3191
 20
4.99999999999999
 30
0.0
 11
135.3191
 21
54.7172
 31
0.0
  0
LINE
  5
2E
330
1E
100
AcDbEntity
  8
0
100
AcDbLine
 10
137.2130999999999
 20
4.99999999999999
 30
0.0
 11
139.4370999999999
 21
4.99999999999999
 31
0.0
  0
LINE
  5
31
330
1E
100
AcDbEntity
  8
0
100
AcDbLine
 10
136.4310999999999
 20
55.0
 30
0.0
 11
137.7480999999999
 21
55.0
 31
0.0
  0
LINE
  5
32
330
1E
100
AcDbEntity
  8
0
100
AcDbLine
 10
135.9370999999999
 20
55.0
 30
0.0
 11
136.4310999999999
 21
55.0
 31
0.0
  0
LINE
  5
33
330
1E
100
AcDbEntity
  8
0
100
AcDbLine
 10
135.5251
 20
54.9057
 30
0.0
 11
135.9370999999999
 21
55.0
 31
0.0
  0
LINE
  5
34
330
1E
100
AcDbEntity
  8
0
100
AcDbLine
 10
135.3191
 20
54.7172
 30
0.0
 11
135.5251
 21
54.9057
 31
0.0
  0
LINE
  5
35
330
1E
100
AcDbEntity
  8
0
100
AcDbLine
 10
135.3191
 20
54.7172
 30
0.0
 11
135.3191
 21
4.99999999999999
 31
0.0
  0
LINE
  5
37
330
1E
100
AcDbEntity
  8
0
100
AcDbLine
 10
136.6921
 20
4.99999999999999
 30
0.0
 11
137.2130999999999
 21
4.99999999999999
 31
0.0
  0
LINE
  5
38
330
1E
100
AcDbEntity
  8
0
100
AcDbLine
 10
136.6921
 20
4.99999999999999
 30
0.0
 11
142.7721
 21
4.99999999999999
 31
0.0
  0
LINE
  5
39
330
1E
100
AcDbEntity
  8
0
100
AcDbLine
 10
127.4181
 20
4.99999999999999
 30
0.0
 11
131.3930999999999
 21
4.99999999999999
 31
0.0
  0
LINE
  5
3A
330
1E
100
AcDbEntity
  8
0
100
AcDbLine
 10
123.2091
 20
4.90384999999999
 30
0.0
 11
123.9881
 21
4.99999999999999
 31
0.0
  0
LINE
  5
3B
330
1E
100
AcDbEntity
  8
0
100
AcDbLine
 10
122.8191
 20
4.71153999999999
 30
0.0
 11
123.2091
 21
4.90384999999999
 31
0.0
  0
LINE
  5
3C
330
1E
100
AcDbEntity
  8
0
100
AcDbLine
 10
122.8191
 20
4.71153999999999
 30
0.0
 11
122.8191
 21
-0.000000000000007
 31
0.0
  0
LINE
  5
3E
330
1E
100
AcDbEntity
  8
0
100
AcDbLine
 10
122.8191
 20
-0.0000000000000068
 30
0.0
 11
123.7541
 21
-0.0000000000000069
 31
0.0
  0
LINE
  5
3F
330
1E
100
AcDbEntity
  8
0
100
AcDbLine
 10
122.8191
 20
-0.0000000000000068
 30
0.0
 11
122.8191
 21
4.71153999999999
 31
0.0
  0
LINE
  5
41
330
1E
100
AcDbEntity
  8
0
100
AcDbLine
 10
142.7721
 20
4.99999999999999
 30
0.0
 11
149.3190999999999
 21
4.99999999999999
 31
0.0
  0
LINE
  5
43
330
1E
100
AcDbEntity
  8
0
100
AcDbLine
 10
142.5380999999999
 20
-0.000000000000008
 30
0.0
 11
149.3190999999999
 21
-0.0000000000000085
 31
0.0
  0
LINE
  5
44
330
1E
100
AcDbEntity
  8
0
100
AcDbLine
 10
149.3190999999999
 20
-0.0000000000000085
 30
0.0
 11
156.1001
 21
-0.0000000000000089
 31
0.0
  0
LINE
  5
45
330
1E
100
AcDbEntity
  8
0
100
AcDbLine
 10
138.9421
 20
4.99999999999999
 30
0.0
 11
139.4370999999999
 21
4.99999999999999
 31
0.0
  0
LINE
  5
46
330
1E
100
AcDbEntity
  8
0
100
AcDbLine
 10
139.8480999999999
 20
55.0
 30
0.0
 11
142.6481
 21
55.0
 31
0.0
  0
LINE
  5
48
330
1E
100
AcDbEntity
  8
0
100
AcDbLine
 10
142.6481
 20
55.0
 30
0.0
 11
144.3190999999999
 21
55.0
 31
0.0
  0
LINE
  5
4A
330
1E
100
AcDbEntity
  8
0
100
AcDbLine
 10
137.7480999999999
 20
55.0
 30
0.0
 11
139.8480999999999
 21
55.0
 31
0.0
  0
LINE
  5
4B
330
1E
100
AcDbEntity
  8
0
100
AcDbLine
 10
144.3190999999999
 20
55.0
 30
0.0
 11
144.3190999999999
 21
73.6006
 31
0.0
  0
LINE
  5
4C
330
1E
100
AcDbEntity
  8
0
100
AcDbLine
 10
137.7431
 20
4.99999999999999
 30
0.0
 11
138.9421
 21
4.99999999999999
 31
0.0
  0
LINE
  5
4D
330
1E
100
AcDbEntity
  8
0
100
AcDbLine
 10
137.3191
 20
4.99999999999999
 30
0.0
 11
137.7431
 21
4.99999999999999
 31
0.0
  0
LINE
  5
4E
330
1E
100
AcDbEntity
  8
0
100
AcDbLine
 10
18.14952
 20
136.495
 30
0.0
 11
19.69055
 21
136.252
 31
0.0
  0
LINE
  5
4F
330
1E
100
AcDbEntity
  8
0
100
AcDbLine
 10
19.69055
 20
136.252
 30
0.0
 11
20.63887
 21
136.1029999999999
 31
0.0
  0
LINE
  5
50
330
1E
100
AcDbEntity
  8
0
100
AcDbLine
 10
20.63887
 20
136.1029999999999
 30
0.0
 11
20.9945
 21
136.047
 31
0.0
  0
LINE
  5
52
330
1E
100
AcDbEntity
  8
0
100
AcDbLine
 10
13.84254
 20
137.172
 30
0.0
 11
16.13432999999999
 21
136.812
 31
0.0
  0
LINE
  5
53
330
1E
100
AcDbEntity
  8
0
100
AcDbLine
 10
16.13432999999999
 20
136.812
 30
0.0
 11
18.14952
 21
136.495
 31
0.0
  0
LINE
  5
54
330
1E
100
AcDbEntity
  8
0
100
AcDbLine
 10
20.9945
 20
136.047
 30
0.0
 11
21.29138
 21
136.389
 31
0.0
  0
LINE
  5
55
330
1E
100
AcDbEntity
  8
0
100
AcDbLine
 10
8.863839999999999
 20
137.956
 30
0.0
 11
11.353191
 21
137.5639999999999
 31
0.0
  0
LINE
  5
56
330
1E
100
AcDbEntity
  8
0
100
AcDbLine
 10
6.572049999999999
 20
138.317
 30
0.0
 11
8.863839999999999
 21
137.956
 31
0.0
  0
LINE
  5
57
330
1E
100
AcDbEntity
  8
0
100
AcDbLine
 10
4.556859999999999
 20
138.6339999999999
 30
0.0
 11
6.572049999999999
 21
138.317
 31
0.0
  0
LINE
  5
58
330
1E
100
AcDbEntity
  8
0
100
AcDbLine
 10
3.015829999999999
 20
138.877
 30
0.0
 11
4.556859999999999
 21
138.6339999999999
 31
0.0
  0
LINE
  5
5B
330
1E
100
AcDbEntity
  8
0
100
AcDbLine
 10
2.067509999999999
 20
139.026
 30
0.0
 11
3.015829999999999
 21
138.877
 31
0.0
  0
LINE
  5
5C
330
1E
100
AcDbEntity
  8
0
100
AcDbLine
 10
1.71189
 20
139.0819999999999
 30
0.0
 11
2.067509999999999
 21
139.026
 31
0.0
  0
LINE
  5
5D
330
1E
100
AcDbEntity
  8
0
100
AcDbLine
 10
1.534609999999999
 20
139.4989999999999
 30
0.0
 11
2.09674
 21
143.0699999999999
 31
0.0
  0
LINE
  5
5E
330
1E
100
AcDbEntity
  8
0
100
AcDbLine
 10
1.534609999999999
 20
139.4989999999999
 30
0.0
 11
1.71189
 21
139.0819999999999
 31
0.0
  0
LINE
  5
5F
330
1E
100
AcDbEntity
  8
0
100
AcDbLine
 10
11.353191
 20
137.5639999999999
 30
0.0
 11
13.84254
 21
137.172
 31
0.0
  0
LINE
  5
61
330
1E
100
AcDbEntity
  8
0
100
AcDbLine
 10
23.11789999999999
 20
139.762
 30
0.0
 11
23.5447
 21
139.6949999999999
 31
0.0
  0
LINE
  5
62
330
1E
100
AcDbEntity
  8
0
100
AcDbLine
 10
21.29138
 20
136.389
 30
0.0
 11
21.853485542602
 21
139.9609081302469
 31
0.0
  0
LINE
  5
63
330
1E
100
AcDbEntity
  8
0
100
AcDbLine
 10
21.853485542602
 20
139.9609081302469
 30
0.0
 11
21.97999999999999
 21
139.941
 31
0.0
  0
LINE
  5
64
330
1E
100
AcDbEntity
  8
0
100
AcDbLine
 10
21.97999999999999
 20
139.941
 30
0.0
 11
23.11789999999999
 21
139.762
 31
0.0
  0
LINE
  5
65
330
1E
100
AcDbEntity
  8
0
100
AcDbLine
 10
23.5447
 20
139.6949999999999
 30
0.0
 11
23.889
 21
140.03
 31
0.0
  0
LINE
  5
67
330
1E
100
AcDbEntity
  8
0
100
AcDbLine
 10
0.8323000000000011
 20
143.269
 30
0.0
 11
21.853485542602
 21
139.9609081302469
 31
0.0
  0
LINE
  5
68
330
1E
100
AcDbEntity
  8
0
100
AcDbLine
 10
0.4056000000000011
 20
143.337
 30
0.0
 11
0.8323000000000011
 21
143.269
 31
0.0
  0
LINE
  5
7F
330
1E
100
AcDbEntity
  8
0
100
AcDbLine
 10
3.522809999999999
 20
163.9409999999999
 30
0.0
 11
5.625120000000009
 21
170.134
 31
0.0
  0
LINE
  5
80
330
1E
100
AcDbEntity
  8
0
100
AcDbLine
 10
5.625120000000009
 20
170.134
 30
0.0
 11
8.517830000000008
 21
176.0
 31
0.0
  0
LINE
  5
81
330
1E
100
AcDbEntity
  8
0
100
AcDbLine
 10
12.151433
 20
181.4379999999999
 30
0.0
 11
16.46376
 21
186.355
 31
0.0
  0
LINE
  5
82
330
1E
100
AcDbEntity
  8
0
100
AcDbLine
 10
8.517830000000008
 20
176.0
 30
0.0
 11
12.151433
 21
181.4379999999999
 31
0.0
  0
LINE
  5
83
330
1E
100
AcDbEntity
  8
0
100
AcDbLine
 10
2.246859999999999
 20
157.526
 30
0.0
 11
3.522809999999999
 21
163.9409999999999
 31
0.0
  0
LINE
  5
84
330
1E
100
AcDbEntity
  8
0
100
AcDbLine
 10
0.180900000000006
 20
143.761
 30
0.0
 11
2.246859999999999
 21
157.526
 31
0.0
  0
LINE
  5
85
330
1E
100
AcDbEntity
  8
0
100
AcDbLine
 10
0.180900000000006
 20
143.761
 30
0.0
 11
0.4056000000000011
 21
143.337
 31
0.0
  0
LINE
  5
8A
330
1E
100
AcDbEntity
  8
0
100
AcDbLine
 10
16.46376
 20
186.355
 30
0.0
 11
21.381
 21
190.668
 31
0.0
  0
LINE
  5
92
330
1E
100
AcDbEntity
  8
0
100
AcDbLine
 10
26.705
 20
157.7289999999999
 30
0.0
 11
27.7982
 21
160.9499999999999
 31
0.0
  0
LINE
  5
93
330
1E
100
AcDbEntity
  8
0
100
AcDbLine
 10
27.7982
 20
160.9499999999999
 30
0.0
 11
29.30239999999999
 21
164.0
 31
0.0
  0
LINE
  5
94
330
1E
100
AcDbEntity
  8
0
100
AcDbLine
 10
31.1919
 20
166.828
 30
0.0
 11
33.4343
 21
169.3849999999999
 31
0.0
  0
LINE
  5
95
330
1E
100
AcDbEntity
  8
0
100
AcDbLine
 10
29.30239999999999
 20
164.0
 30
0.0
 11
31.1919
 21
166.828
 31
0.0
  0
LINE
  5
96
330
1E
100
AcDbEntity
  8
0
100
AcDbLine
 10
33.4343
 20
169.3849999999999
 30
0.0
 11
35.9913
 21
171.627
 31
0.0
  0
LINE
  5
97
330
1E
100
AcDbEntity
  8
0
100
AcDbLine
 10
26.0415
 20
154.394
 30
0.0
 11
26.705
 21
157.7289999999999
 31
0.0
  0
LINE
  5
98
330
1E
100
AcDbEntity
  8
0
100
AcDbLine
 10
137.3191
 20
151.0
 30
0.0
 11
137.3191
 21
55.0
 31
0.0
  0
LINE
  5
99
330
1E
100
AcDbEntity
  8
0
100
AcDbLine
 10
135.3401
 20
160.9499999999999
 30
0.0
 11
136.4330999999999
 21
157.7289999999999
 31
0.0
  0
LINE
  5
9A
330
1E
100
AcDbEntity
  8
0
100
AcDbLine
 10
133.8360999999999
 20
164.0
 30
0.0
 11
135.3401
 21
160.9499999999999
 31
0.0
  0
LINE
  5
9B
330
1E
100
AcDbEntity
  8
0
100
AcDbLine
 10
136.4330999999999
 20
157.7289999999999
 30
0.0
 11
137.0971
 21
154.394
 31
0.0
  0
LINE
  5
9C
330
1E
100
AcDbEntity
  8
0
100
AcDbLine
 10
137.0971
 20
154.394
 30
0.0
 11
137.3191
 21
151.0
 31
0.0
  0
LINE
  5
9D
330
1E
100
AcDbEntity
  8
0
100
AcDbLine
 10
131.9460999999999
 20
166.828
 30
0.0
 11
133.8360999999999
 21
164.0
 31
0.0
  0
LINE
  5
9E
330
1E
100
AcDbEntity
  8
0
100
AcDbLine
 10
35.9913
 20
171.627
 30
0.0
 11
38.81909999999999
 21
173.517
 31
0.0
  0
LINE
  5
9F
330
1E
100
AcDbEntity
  8
0
100
AcDbLine
 10
38.81909999999999
 20
173.517
 30
0.0
 11
41.8693
 21
175.0209999999999
 31
0.0
  0
LINE
  5
A0
330
1E
100
AcDbEntity
  8
0
100
AcDbLine
 10
51.8191
 20
177.0
 30
0.0
 11
111.3191
 21
177.0
 31
0.0
  0
LINE
  5
A1
330
1E
100
AcDbEntity
  8
0
100
AcDbLine
 10
48.4254
 20
176.7779999999999
 30
0.0
 11
51.8191
 21
177.0
 31
0.0
  0
LINE
  5
A2
330
1E
100
AcDbEntity
  8
0
100
AcDbLine
 10
45.0898
 20
176.114
 30
0.0
 11
48.4254
 21
176.7779999999999
 31
0.0
  0
LINE
  5
A3
330
1E
100
AcDbEntity
  8
0
100
AcDbLine
 10
41.8693
 20
175.0209999999999
 30
0.0
 11
45.0898
 21
176.114
 31
0.0
  0
LINE
  5
A4
330
1E
100
AcDbEntity
  8
0
100
AcDbLine
 10
21.381
 20
190.668
 30
0.0
 11
26.8191
 21
194.3009999999999
 31
0.0
  0
LINE
  5
A5
330
1E
100
AcDbEntity
  8
0
100
AcDbLine
 10
26.8191
 20
194.3009999999999
 30
0.0
 11
32.68489999999999
 21
197.194
 31
0.0
  0
LINE
  5
A6
330
1E
100
AcDbEntity
  8
0
100
AcDbLine
 10
51.8191
 20
201.0
 30
0.0
 11
111.3191
 21
201.0
 31
0.0
  0
LINE
  5
A7
330
1E
100
AcDbEntity
  8
0
100
AcDbLine
 10
45.29279999999999
 20
200.572
 30
0.0
 11
51.8191
 21
201.0
 31
0.0
  0
LINE
  5
A8
330
1E
100
AcDbEntity
  8
0
100
AcDbLine
 10
38.8781
 20
199.296
 30
0.0
 11
45.29279999999999
 21
200.572
 31
0.0
  0
LINE
  5
A9
330
1E
100
AcDbEntity
  8
0
100
AcDbLine
 10
32.68489999999999
 20
197.194
 30
0.0
 11
38.8781
 21
199.296
 31
0.0
  0
LINE
  5
AA
330
1E
100
AcDbEntity
  8
0
100
AcDbLine
 10
111.3191
 20
177.0
 30
0.0
 11
114.7130999999999
 21
176.7779999999999
 31
0.0
  0
LINE
  5
AB
330
1E
100
AcDbEntity
  8
0
100
AcDbLine
 10
118.0481
 20
176.114
 30
0.0
 11
121.2690999999999
 21
175.0209999999999
 31
0.0
  0
LINE
  5
AC
330
1E
100
AcDbEntity
  8
0
100
AcDbLine
 10
121.2690999999999
 20
175.0209999999999
 30
0.0
 11
124.3191
 21
173.517
 31
0.0
  0
LINE
  5
AD
330
1E
100
AcDbEntity
  8
0
100
AcDbLine
 10
127.1471
 20
171.627
 30
0.0
 11
129.7041
 21
169.3849999999999
 31
0.0
  0
LINE
  5
AE
330
1E
100
AcDbEntity
  8
0
100
AcDbLine
 10
141.7571
 20
190.668
 30
0.0
 11
146.6741
 21
186.355
 31
0.0
  0
LINE
  5
AF
330
1E
100
AcDbEntity
  8
0
100
AcDbLine
 10
124.3191
 20
173.517
 30
0.0
 11
127.1471
 21
171.627
 31
0.0
  0
LINE
  5
B0
330
1E
100
AcDbEntity
  8
0
100
AcDbLine
 10
124.2601
 20
199.296
 30
0.0
 11
130.4531
 21
197.194
 31
0.0
  0
LINE
  5
B1
330
1E
100
AcDbEntity
  8
0
100
AcDbLine
 10
130.4531
 20
197.194
 30
0.0
 11
136.3191
 21
194.3009999999999
 31
0.0
  0
LINE
  5
B2
330
1E
100
AcDbEntity
  8
0
100
AcDbLine
 10
136.3191
 20
194.3009999999999
 30
0.0
 11
141.7571
 21
190.668
 31
0.0
  0
LINE
  5
B3
330
1E
100
AcDbEntity
  8
0
100
AcDbLine
 10
114.7130999999999
 20
176.7779999999999
 30
0.0
 11
118.0481
 21
176.114
 31
0.0
  0
LINE
  5
B4
330
1E
100
AcDbEntity
  8
0
100
AcDbLine
 10
117.8451
 20
200.572
 30
0.0
 11
124.2601
 21
199.296
 31
0.0
  0
LINE
  5
B5
330
1E
100
AcDbEntity
  8
0
100
AcDbLine
 10
111.3191
 20
201.0
 30
0.0
 11
117.8451
 21
200.572
 31
0.0
  0
LINE
  5
B6
330
1E
100
AcDbEntity
  8
0
100
AcDbLine
 10
129.7041
 20
169.3849999999999
 30
0.0
 11
131.9460999999999
 21
166.828
 31
0.0
  0
LINE
  5
BA
330
1E
100
AcDbEntity
  8
0
100
AcDbLine
 10
23.889
 20
140.03
 30
0.0
 11
26.0415
 21
154.394
 31
0.0
  0
LINE
  5
BB
330
1E
100
AcDbEntity
  8
0
100
AcDbLine
 10
144.9790999999999
 20
71.6703
 30
0.0
 11
145.7791
 21
70.7018
 31
0.0
  0
LINE
  5
BC
330
1E
100
AcDbEntity
  8
0
100
AcDbLine
 10
146.6741
 20
186.355
 30
0.0
 11
150.9870999999999
 21
181.4379999999999
 31
0.0
  0
LINE
  5
BD
330
1E
100
AcDbEntity
  8
0
100
AcDbLine
 10
149.3190999999999
 20
76.77509999999999
 30
0.0
 11
150.5990999999999
 21
76.7126
 31
0.0
  0
LINE
  5
BE
330
1E
100
AcDbEntity
  8
0
100
AcDbLine
 10
148.0391
 20
76.7126
 30
0.0
 11
149.3190999999999
 21
76.77509999999999
 31
0.0
  0
LINE
  5
BF
330
1E
100
AcDbEntity
  8
0
100
AcDbLine
 10
146.8391
 20
76.3439
 30
0.0
 11
148.0391
 21
76.7126
 31
0.0
  0
LINE
  5
C0
330
1E
100
AcDbEntity
  8
0
100
AcDbLine
 10
145.7791
 20
75.93600000000001
 30
0.0
 11
146.8391
 21
76.3439
 31
0.0
  0
LINE
  5
C1
330
1E
100
AcDbEntity
  8
0
100
AcDbLine
 10
144.9790999999999
 20
75.3644
 30
0.0
 11
145.7791
 21
75.93600000000001
 31
0.0
  0
LINE
  5
C2
330
1E
100
AcDbEntity
  8
0
100
AcDbLine
 10
144.4990999999999
 20
74.5235
 30
0.0
 11
144.9790999999999
 21
75.3644
 31
0.0
  0
LINE
  5
C3
330
1E
100
AcDbEntity
  8
0
100
AcDbLine
 10
144.4990999999999
 20
72.6804
 30
0.0
 11
144.9790999999999
 21
71.6703
 31
0.0
  0
LINE
  5
C4
330
1E
100
AcDbEntity
  8
0
100
AcDbLine
 10
144.3190999999999
 20
73.6006
 30
0.0
 11
144.4990999999999
 21
72.6804
 31
0.0
  0
LINE
  5
C5
330
1E
100
AcDbEntity
  8
0
100
AcDbLine
 10
144.3190999999999
 20
73.6006
 30
0.0
 11
144.3190999999999
 21
55.0
 31
0.0
  0
LINE
  5
C6
330
1E
100
AcDbEntity
  8
0
100
AcDbLine
 10
144.3190999999999
 20
73.6006
 30
0.0
 11
144.4990999999999
 21
74.5235
 31
0.0
  0
LINE
  5
C7
330
1E
100
AcDbEntity
  8
0
100
AcDbLine
 10
137.3191
 20
55.0
 30
0.0
 11
137.3191
 21
151.0
 31
0.0
  0
LINE
  5
C8
330
1E
100
AcDbEntity
  8
0
100
AcDbLine
 10
152.3900999999999
 20
4.99999999999999
 30
0.0
 11
155.2840999999999
 21
4.99999999999999
 31
0.0
  0
LINE
  5
C9
330
1E
100
AcDbEntity
  8
0
100
AcDbLine
 10
154.3191
 20
55.0
 30
0.0
 11
155.9901
 21
55.0
 31
0.0
  0
LINE
  5
CA
330
1E
100
AcDbEntity
  8
0
100
AcDbLine
 10
152.9011
 20
4.99999999999999
 30
0.0
 11
156.2781
 21
4.99999999999999
 31
0.0
  0
LINE
  5
CB
330
1E
100
AcDbEntity
  8
0
100
AcDbLine
 10
154.3191
 20
55.0
 30
0.0
 11
154.3191
 21
73.6006
 31
0.0
  0
LINE
  5
CD
330
1E
100
AcDbEntity
  8
0
100
AcDbLine
 10
150.5990999999999
 20
76.7126
 30
0.0
 11
151.7991
 21
76.3439
 31
0.0
  0
LINE
  5
CE
330
1E
100
AcDbEntity
  8
0
100
AcDbLine
 10
151.7991
 20
76.3439
 30
0.0
 11
152.8591
 21
75.93600000000001
 31
0.0
  0
LINE
  5
CF
330
1E
100
AcDbEntity
  8
0
100
AcDbLine
 10
152.8591
 20
75.93600000000001
 30
0.0
 11
153.6591
 21
75.3644
 31
0.0
  0
LINE
  5
D0
330
1E
100
AcDbEntity
  8
0
100
AcDbLine
 10
153.6591
 20
75.3644
 30
0.0
 11
154.1391
 21
74.5235
 31
0.0
  0
LINE
  5
D1
330
1E
100
AcDbEntity
  8
0
100
AcDbLine
 10
154.3191
 20
73.6006
 30
0.0
 11
154.3191
 21
55.0
 31
0.0
  0
LINE
  5
D2
330
1E
100
AcDbEntity
  8
0
100
AcDbLine
 10
154.1391
 20
74.5235
 30
0.0
 11
154.3191
 21
73.6006
 31
0.0
  0
LINE
  5
D3
330
1E
100
AcDbEntity
  8
0
100
AcDbLine
 10
154.1391
 20
72.6804
 30
0.0
 11
154.3191
 21
73.6006
 31
0.0
  0
LINE
  5
D4
330
1E
100
AcDbEntity
  8
0
100
AcDbLine
 10
153.6591
 20
71.6703
 30
0.0
 11
154.1391
 21
72.6804
 31
0.0
  0
LINE
  5
D5
330
1E
100
AcDbEntity
  8
0
100
AcDbLine
 10
152.8591
 20
70.7018
 30
0.0
 11
153.6591
 21
71.6703
 31
0.0
  0
LINE
  5
D6
330
1E
100
AcDbEntity
  8
0
100
AcDbLine
 10
155.9901
 20
55.0
 30
0.0
 11
158.7901
 21
55.0
 31
0.0
  0
LINE
  5
D7
330
1E
100
AcDbEntity
  8
0
100
AcDbLine
 10
155.8660999999999
 20
4.99999999999999
 30
0.0
 11
161.9450999999999
 21
4.99999999999999
 31
0.0
  0
LINE
  5
D9
330
1E
100
AcDbEntity
  8
0
100
AcDbLine
 10
168.0251
 20
-0.0000000000000096
 30
0.0
 11
172.2341
 21
-0.0000000000000099
 31
0.0
  0
LINE
  5
DA
330
1E
100
AcDbEntity
  8
0
100
AcDbLine
 10
172.2341
 20
-0.0000000000000099
 30
0.0
 11
174.8840999999999
 21
-0.00000000000001
 31
0.0
  0
LINE
  5
DB
330
1E
100
AcDbEntity
  8
0
100
AcDbLine
 10
175.8191
 20
-0.0000000000000101
 30
0.0
 11
175.8191
 21
4.71153999999999
 31
0.0
  0
LINE
  5
DC
330
1E
100
AcDbEntity
  8
0
100
AcDbLine
 10
174.8840999999999
 20
-0.00000000000001
 30
0.0
 11
175.8191
 21
-0.0000000000000101
 31
0.0
  0
LINE
  5
E0
330
1E
100
AcDbEntity
  8
0
100
AcDbLine
 10
158.7901
 20
55.0
 30
0.0
 11
160.8900999999999
 21
55.0
 31
0.0
  0
LINE
  5
E1
330
1E
100
AcDbEntity
  8
0
100
AcDbLine
 10
161.3191
 20
55.0
 30
0.0
 11
161.3191
 21
151.0
 31
0.0
  0
LINE
  5
E2
330
1E
100
AcDbEntity
  8
0
100
AcDbLine
 10
160.8900999999999
 20
55.0
 30
0.0
 11
162.2071
 21
55.0
 31
0.0
  0
LINE
  5
E3
330
1E
100
AcDbEntity
  8
0
100
AcDbLine
 10
162.2071
 20
55.0
 30
0.0
 11
162.7010999999999
 21
55.0
 31
0.0
  0
LINE
  5
E6
330
1E
100
AcDbEntity
  8
0
100
AcDbLine
 10
162.7010999999999
 20
55.0
 30
0.0
 11
163.1131
 21
54.9057
 31
0.0
  0
LINE
  5
E7
330
1E
100
AcDbEntity
  8
0
100
AcDbLine
 10
161.9450999999999
 20
4.99999999999999
 30
0.0
 11
162.8250999999999
 21
4.99999999999999
 31
0.0
  0
LINE
  5
E8
330
1E
100
AcDbEntity
  8
0
100
AcDbLine
 10
161.9450999999999
 20
4.99999999999999
 30
0.0
 11
167.2451
 21
4.99999999999999
 31
0.0
  0
LINE
  5
EA
330
1E
100
AcDbEntity
  8
0
100
AcDbLine
 10
175.8191
 20
4.71153999999999
 30
0.0
 11
175.8191
 21
-0.0000000000000098
 31
0.0
  0
LINE
  5
EC
330
1E
100
AcDbEntity
  8
0
100
AcDbLine
 10
167.2451
 20
4.99999999999999
 30
0.0
 11
171.2201
 21
4.99999999999999
 31
0.0
  0
LINE
  5
ED
330
1E
100
AcDbEntity
  8
0
100
AcDbLine
 10
171.2201
 20
4.99999999999999
 30
0.0
 11
173.7151
 21
4.99999999999999
 31
0.0
  0
LINE
  5
EE
330
1E
100
AcDbEntity
  8
0
100
AcDbLine
 10
174.6501
 20
4.99999999999999
 30
0.0
 11
175.4291
 21
4.90384999999999
 31
0.0
  0
LINE
  5
EF
330
1E
100
AcDbEntity
  8
0
100
AcDbLine
 10
163.3191
 20
54.7172
 30
0.0
 11
163.3191
 21
4.99999999999999
 31
0.0
  0
LINE
  5
F0
330
1E
100
AcDbEntity
  8
0
100
AcDbLine
 10
163.1131
 20
54.9057
 30
0.0
 11
163.3191
 21
54.7172
 31
0.0
  0
LINE
  5
F1
330
1E
100
AcDbEntity
  8
0
100
AcDbLine
 10
163.3191
 20
4.99999999999999
 30
0.0
 11
163.3191
 21
54.7172
 31
0.0
  0
LINE
  5
F2
330
1E
100
AcDbEntity
  8
0
100
AcDbLine
 10
173.7151
 20
4.99999999999999
 30
0.0
 11
174.6501
 21
4.99999999999999
 31
0.0
  0
LINE
  5
F3
330
1E
100
AcDbEntity
  8
0
100
AcDbLine
 10
175.4291
 20
4.90384999999999
 30
0.0
 11
175.8191
 21
4.71153999999999
 31
0.0
  0
LINE
  5
F5
330
1E
100
AcDbEntity
  8
0
100
AcDbLine
 10
162.8250999999999
 20
4.99999999999999
 30
0.0
 11
163.3191
 21
4.99999999999999
 31
0.0
  0
LINE
  5
F6
330
1E
100
AcDbEntity
  8
0
100
AcDbLine
 10
162.4910999999999
 20
-0.0000000000000093
 30
0.0
 11
168.0251
 21
-0.0000000000000096
 31
0.0
  0
LINE
  5
F7
330
1E
100
AcDbEntity
  8
0
100
AcDbLine
 10
156.1001
 20
-0.0000000000000089
 30
0.0
 11
162.4910999999999
 21
-0.0000000000000093
 31
0.0
  0
LINE
  5
F8
330
1E
100
AcDbEntity
  8
0
100
AcDbLine
 10
157.5131
 20
170.134
 30
0.0
 11
159.6151
 21
163.9409999999999
 31
0.0
  0
LINE
  5
F9
330
1E
100
AcDbEntity
  8
0
100
AcDbLine
 10
154.6201
 20
176.0
 30
0.0
 11
157.5131
 21
170.134
 31
0.0
  0
LINE
  5
FA
330
1E
100
AcDbEntity
  8
0
100
AcDbLine
 10
159.6151
 20
163.9409999999999
 30
0.0
 11
160.8910999999999
 21
157.526
 31
0.0
  0
LINE
  5
FB
330
1E
100
AcDbEntity
  8
0
100
AcDbLine
 10
160.8910999999999
 20
157.526
 30
0.0
 11
161.3191
 21
151.0
 31
0.0
  0
LINE
  5
FC
330
1E
100
AcDbEntity
  8
0
100
AcDbLine
 10
150.9870999999999
 20
181.4379999999999
 30
0.0
 11
154.6201
 21
176.0
 31
0.0
  0
LINE
  5
FD
330
1E
100
AcDbEntity
  8
0
100
AcDbLine
 10
161.3191
 20
151.0
 30
0.0
 11
161.3191
 21
55.0
 31
0.0
  0
LINE
  5
FE
330
1E
100
AcDbEntity
  8
0
100
AcDbLine
 10
149.3190999999999
 20
4.99999999999999
 30
0.0
 11
152.3900999999999
 21
4.99999999999999
 31
0.0
  0
LINE
  5
FF
330
1E
100
AcDbEntity
  8
0
100
AcDbLine
 10
149.3190999999999
 20
4.99999999999999
 30
0.0
 11
155.8660999999999
 21
4.99999999999999
 31
0.0
  0
LINE
  5
100
330
1E
100
AcDbEntity
  8
0
100
AcDbLine
 10
149.3190999999999
 20
4.99999999999999
 30
0.0
 11
152.9011
 21
4.99999999999999
 31
0.0
  0
LINE
  5
105
330
1E
100
AcDbEntity
  8
0
100
AcDbLine
 10
145.7791
 20
70.7018
 30
0.0
 11
146.8966968186061
 21
70.01422909593208
 31
0.0
  0
LINE
  5
106
330
1E
100
AcDbEntity
  8
0
100
AcDbLine
 10
146.8966968186061
 20
70.01422909593208
 30
0.0
 11
148.5545954550705
 21
69.6435906561714
 31
0.0
  0
LINE
  5
107
330
1E
100
AcDbEntity
  8
0
100
AcDbLine
 10
148.5545954550705
 20
69.6435906561714
 30
0.0
 11
150.2779369019726
 21
69.53457896242628
 31
0.0
  0
LINE
  5
108
330
1E
100
AcDbEntity
  8
0
100
AcDbLine
 10
150.2779369019726
 20
69.53457896242628
 30
0.0
 11
151.630433512357
 21
69.81800880088957
 31
0.0
  0
LINE
  5
109
330
1E
100
AcDbEntity
  8
0
100
AcDbLine
 10
151.630433512357
 20
69.81800880088957
 30
0.0
 11
152.8591
 21
70.7018
 31
0.0
  0
LINE
  5
10A
330
1E
100
AcDbEntity
  8
0
100
AcDbLine
 10
144.3190999999999
 20
55.0
 30
0.0
 11
154.3191
 21
55.0
 31
0.0
  0
ENDSEC
  0
SECTION
  2
OBJECTS
  0
DICTIONARY
  5
C
330
0
100
AcDbDictionary
  3
ACAD_GROUP
350
D
  3
ACAD_LAYOUT
350
19
  3
ACAD_MLINESTYLE
350
16
  3
ACAD_PLOTSETTINGS
350
18
  3
ACAD_PLOTSTYLENAME
350
E
  3
ACDBHEADERROUNDTRIPXREC
350
10F
  3
ACDBVARIABLEDICTIONARY
350
10C
  0
DICTIONARY
  5
131
330
1E
100
AcDbDictionary
280
     1
  3
ACAD_LAYOUTSELFREF
360
132
  0
DICTIONARY
  5
12F
330
1A
100
AcDbDictionary
280
     1
  3
ACAD_LAYOUTSELFREF
360
130
  0
DICTIONARY
  5
D
102
{ACAD_REACTORS
330
C
102
}
330
C
100
AcDbDictionary
  0
DICTIONARY
  5
19
102
{ACAD_REACTORS
330
C
102
}
330
C
100
AcDbDictionary
  0
DICTIONARY
  5
16
102
{ACAD_REACTORS
330
C
102
}
330
C
100
AcDbDictionary
  3
STANDARD
350
17
  0
DICTIONARY
  5
18
102
{ACAD_REACTORS
330
C
102
}
330
C
100
AcDbDictionary
  0
ACDBDICTIONARYWDFLT
  5
E
102
{ACAD_REACTORS
330
C
102
}
330
C
100
AcDbDictionary
281
     1
  3
Normal
350
F
100
AcDbDictionaryWithDefault
340
F
  0
DICTIONARY
  5
10F
102
{ACAD_REACTORS
330
C
102
}
330
C
100
AcDbDictionary
  3
CEPSNTYPE
350
119
  3
FINGERPRINTGUID
350
11A
  3
HYPERLINKBASE
350
112
  3
INSUNITS
350
118
  3
LAYOUTDICT
350
114
  3
LWETCUNION
350
117
  3
PLOTSETDICT
350
115
  3
PLOTSTYLNAMDICT
350
116
  3
PSVPSCALE
350
11C
  3
PUCSBASE
350
11F
  3
PUCSORGBACK
350
125
  3
PUCSORGBOTTOM
350
121
  3
PUCSORGFRONT
350
124
  3
PUCSORGLEFT
350
122
  3
PUCSORGRIGHT
350
123
  3
PUCSORGTOP
350
120
  3
PUCSORTHOREF
350
11D
  3
PUCSORTHOVIEW
350
11E
  3
STYLESHEET
350
113
  3
TSTACKALIGN
350
110
  3
TSTACKSIZE
350
111
  3
UCSBASE
350
128
  3
UCSORGBACK
350
12E
  3
UCSORGBOTTOM
350
12A
  3
UCSORGFRONT
350
12D
  3
UCSORGLEFT
350
12B
  3
UCSORGRIGHT
350
12C
  3
UCSORGTOP
350
129
  3
UCSORTHOREF
350
126
  3
UCSORTHOVIEW
350
127
  3
VERSIONGUID
350
11B
  0
DICTIONARY
  5
10C
102
{ACAD_REACTORS
330
C
102
}
330
C
100
AcDbDictionary
  3
DIMASSOC
350
10D
  0
XRECORD
  5
132
102
{ACAD_REACTORS
330
131
102
}
330
131
100
AcDbXrecord
340
1E
  0
XRECORD
  5
130
102
{ACAD_REACTORS
330
12F
102
}
330
12F
100
AcDbXrecord
340
1A
  0
MLINESTYLE
  5
17
102
{ACAD_REACTORS
330
16
102
}
330
16
100
AcDbMlineStyle
  2
STANDARD
 70
     0
  3

 62
   256
 51
90.0
 52
90.0
 71
     2
 49
0.5
 62
   256
  6
BYLAYER
 49
-0.5
 62
   256
  6
BYLAYER
  0
ACDBPLACEHOLDER
  5
F
102
{ACAD_REACTORS
330
E
102
}
330
E
100
AcDbPlaceHolder
280
     0
  0
XRECORD
  5
119
102
{ACAD_REACTORS
330
10F
102
}
330
10F
100
AcDbXrecord
 90
        0
  0
XRECORD
  5
11A
102
{ACAD_REACTORS
330
10F
102
}
330
10F
100
AcDbXrecord
  1
{2147D380-8791-4748-8D83-FB403391ADD4}
  0
XRECORD
  5
112
102
{ACAD_REACTORS
330
10F
102
}
330
10F
100
AcDbXrecord
  1

  0
XRECORD
  5
118
102
{ACAD_REACTORS
330
10F
102
}
330
10F
100
AcDbXrecord
 90
        0
  0
XRECORD
  5
114
102
{ACAD_REACTORS
330
10F
102
}
330
10F
100
AcDbXrecord
340
19
  0
XRECORD
  5
117
102
{ACAD_REACTORS
330
10F
102
}
330
10F
100
AcDbXrecord
 90
    10781
  0
XRECORD
  5
115
102
{ACAD_REACTORS
330
10F
102
}
330
10F
100
AcDbXrecord
340
18
  0
XRECORD
  5
116
102
{ACAD_REACTORS
330
10F
102
}
330
10F
100
AcDbXrecord
340
E
  0
XRECORD
  5
11C
102
{ACAD_REACTORS
330
10F
102
}
330
10F
100
AcDbXrecord
 40
0.0
  0
XRECORD
  5
11F
102
{ACAD_REACTORS
330
10F
102
}
330
10F
100
AcDbXrecord
340
0
  0
XRECORD
  5
125
102
{ACAD_REACTORS
330
10F
102
}
330
10F
100
AcDbXrecord
 10
0.0
 20
0.0
 30
0.0
  0
XRECORD
  5
121
102
{ACAD_REACTORS
330
10F
102
}
330
10F
100
AcDbXrecord
 10
0.0
 20
0.0
 30
0.0
  0
XRECORD
  5
124
102
{ACAD_REACTORS
330
10F
102
}
330
10F
100
AcDbXrecord
 10
0.0
 20
0.0
 30
0.0
  0
XRECORD
  5
122
102
{ACAD_REACTORS
330
10F
102
}
330
10F
100
AcDbXrecord
 10
0.0
 20
0.0
 30
0.0
  0
XRECORD
  5
123
102
{ACAD_REACTORS
330
10F
102
}
330
10F
100
AcDbXrecord
 10
0.0
 20
0.0
 30
0.0
  0
XRECORD
  5
120
102
{ACAD_REACTORS
330
10F
102
}
330
10F
100
AcDbXrecord
 10
0.0
 20
0.0
 30
0.0
  0
XRECORD
  5
11D
102
{ACAD_REACTORS
330
10F
102
}
330
10F
100
AcDbXrecord
340
0
  0
XRECORD
  5
11E
102
{ACAD_REACTORS
330
10F
102
}
330
10F
100
AcDbXrecord
 70
     0
  0
XRECORD
  5
113
102
{ACAD_REACTORS
330
10F
102
}
330
10F
100
AcDbXrecord
  1

  0
XRECORD
  5
110
102
{ACAD_REACTORS
330
10F
102
}
330
10F
100
AcDbXrecord
 90
        1
  0
XRECORD
  5
111
102
{ACAD_REACTORS
330
10F
102
}
330
10F
100
AcDbXrecord
 90
       70
  0
XRECORD
  5
128
102
{ACAD_REACTORS
330
10F
102
}
330
10F
100
AcDbXrecord
340
0
  0
XRECORD
  5
12E
102
{ACAD_REACTORS
330
10F
102
}
330
10F
100
AcDbXrecord
 10
0.0
 20
0.0
 30
0.0
  0
XRECORD
  5
12A
102
{ACAD_REACTORS
330
10F
102
}
330
10F
100
AcDbXrecord
 10
0.0
 20
0.0
 30
0.0
  0
XRECORD
  5
12D
102
{ACAD_REACTORS
330
10F
102
}
330
10F
100
AcDbXrecord
 10
0.0
 20
0.0
 30
0.0
  0
XRECORD
  5
12B
102
{ACAD_REACTORS
330
10F
102
}
330
10F
100
AcDbXrecord
 10
0.0
 20
0.0
 30
0.0
  0
XRECORD
  5
12C
102
{ACAD_REACTORS
330
10F
102
}
330
10F
100
AcDbXrecord
 10
0.0
 20
0.0
 30
0.0
  0
XRECORD
  5
129
102
{ACAD_REACTORS
330
10F
102
}
330
10F
100
AcDbXrecord
 10
0.0
 20
0.0
 30
0.0
  0
XRECORD
  5
126
102
{ACAD_REACTORS
330
10F
102
}
330
10F
100
AcDbXrecord
340
0
  0
XRECORD
  5
127
102
{ACAD_REACTORS
330
10F
102
}
330
10F
100
AcDbXrecord
 70
     1
  0
XRECORD
  5
11B
102
{ACAD_REACTORS
330
10F
102
}
330
10F
100
AcDbXrecord
  1
{F9E48D20-DA3E-4522-9601-45454088F3AA}
  0
DICTIONARYVAR
  5
10D
102
{ACAD_REACTORS
330
10C
102
}
330
10C
100
DictionaryVariables
280
     0
  1
1
  0
ENDSEC
  0
EOF
