  0
SECTION
  2
HEADER
  9
$ACADVER
  1
AC1014
  9
$ACADMAINTVER
 70
     9
  9
$DWGCODEPAGE
  3
ANSI_1252
  9
$INSBASE
 10
0.0
 20
0.0
 30
0.0
  9
$EXTMIN
 10
-0.0500000000000066
 20
-0.0000000000000007
 30
0.0
  9
$EXTMAX
 10
185.05
 20
189.0
 30
0.0
  9
$LIMMIN
 10
0.0
 20
0.0
  9
$LIMMAX
 10
12.0
 20
9.0
  9
$ORTHOMODE
 70
     0
  9
$REGENMODE
 70
     1
  9
$FILLMODE
 70
     1
  9
$QTEXTMODE
 70
     0
  9
$MIRRTEXT
 70
     1
  9
$DRAGMODE
 70
     2
  9
$LTSCALE
 40
1.0
  9
$OSMODE
 70
    37
  9
$ATTMODE
 70
     1
  9
$TEXTSIZE
 40
0.2
  9
$TRACEWID
 40
0.05
  9
$TEXTSTYLE
  7
STANDARD
  9
$CLAYER
  8
0
  9
$CELTYPE
  6
CONTINUOUS
  9
$CECOLOR
 62
   256
  9
$CELTSCALE
 40
1.0
  9
$DELOBJ
 70
     1
  9
$DISPSILH
 70
     0
  9
$DIMSCALE
 40
1.0
  9
$DIMASZ
 40
0.18
  9
$DIMEXO
 40
0.0625
  9
$DIMDLI
 40
0.38
  9
$DIMRND
 40
0.0
  9
$DIMDLE
 40
0.0
  9
$DIMEXE
 40
0.18
  9
$DIMTP
 40
0.0
  9
$DIMTM
 40
0.0
  9
$DIMTXT
 40
0.18
  9
$DIMCEN
 40
0.09
  9
$DIMTSZ
 40
0.0
  9
$DIMTOL
 70
     0
  9
$DIMLIM
 70
     0
  9
$DIMTIH
 70
     1
  9
$DIMTOH
 70
     1
  9
$DIMSE1
 70
     0
  9
$DIMSE2
 70
     0
  9
$DIMTAD
 70
     0
  9
$DIMZIN
 70
     0
  9
$DIMBLK
  1

  9
$DIMASO
 70
     1
  9
$DIMSHO
 70
     1
  9
$DIMPOST
  1

  9
$DIMAPOST
  1

  9
$DIMALT
 70
     0
  9
$DIMALTD
 70
     2
  9
$DIMALTF
 40
25.4
  9
$DIMLFAC
 40
1.0
  9
$DIMTOFL
 70
     0
  9
$DIMTVP
 40
0.0
  9
$DIMTIX
 70
     0
  9
$DIMSOXD
 70
     0
  9
$DIMSAH
 70
     0
  9
$DIMBLK1
  1

  9
$DIMBLK2
  1

  9
$DIMSTYLE
  2
STANDARD
  9
$DIMCLRD
 70
     0
  9
$DIMCLRE
 70
     0
  9
$DIMCLRT
 70
     0
  9
$DIMTFAC
 40
1.0
  9
$DIMGAP
 40
0.09
  9
$DIMJUST
 70
     0
  9
$DIMSD1
 70
     0
  9
$DIMSD2
 70
     0
  9
$DIMTOLJ
 70
     1
  9
$DIMTZIN
 70
     0
  9
$DIMALTZ
 70
     0
  9
$DIMALTTZ
 70
     0
  9
$DIMFIT
 70
     3
  9
$DIMUPT
 70
     0
  9
$DIMUNIT
 70
     2
  9
$DIMDEC
 70
     4
  9
$DIMTDEC
 70
     4
  9
$DIMALTU
 70
     2
  9
$DIMALTTD
 70
     2
  9
$DIMTXSTY
  7
STANDARD
  9
$DIMAUNIT
 70
     0
  9
$LUNITS
 70
     2
  9
$LUPREC
 70
     4
  9
$SKETCHINC
 40
0.1
  9
$FILLETRAD
 40
0.0
  9
$AUNITS
 70
     0
  9
$AUPREC
 70
     0
  9
$MENU
  1
.
  9
$ELEVATION
 40
0.0
  9
$PELEVATION
 40
0.0
  9
$THICKNESS
 40
0.0
  9
$LIMCHECK
 70
     0
  9
$BLIPMODE
 70
     0
  9
$CHAMFERA
 40
0.0
  9
$CHAMFERB
 40
0.0
  9
$CHAMFERC
 40
0.0
  9
$CHAMFERD
 40
0.0
  9
$SKPOLY
 70
     0
  9
$TDCREATE
 40
2454699.493531898
  9
$TDUPDATE
 40
2454699.494627997
  9
$TDINDWG
 40
0.0010960995
  9
$TDUSRTIMER
 40
0.0010960995
  9
$USRTIMER
 70
     1
  9
$ANGBASE
 50
0.0
  9
$ANGDIR
 70
     0
  9
$PDMODE
 70
     0
  9
$PDSIZE
 40
0.0
  9
$PLINEWID
 40
0.0
  9
$COORDS
 70
     1
  9
$SPLFRAME
 70
     0
  9
$SPLINETYPE
 70
     6
  9
$SPLINESEGS
 70
     8
  9
$ATTDIA
 70
     0
  9
$ATTREQ
 70
     1
  9
$HANDLING
 70
 22529
  9
$HANDSEED
  5
252
  9
$SURFTAB1
 70
     6
  9
$SURFTAB2
 70
     6
  9
$SURFTYPE
 70
     6
  9
$SURFU
 70
     6
  9
$SURFV
 70
     6
  9
$UCSNAME
  2

  9
$UCSORG
 10
0.0
 20
0.0
 30
0.0
  9
$UCSXDIR
 10
1.0
 20
0.0
 30
0.0
  9
$UCSYDIR
 10
0.0
 20
1.0
 30
0.0
  9
$PUCSNAME
  2

  9
$PUCSORG
 10
0.0
 20
0.0
 30
0.0
  9
$PUCSXDIR
 10
1.0
 20
0.0
 30
0.0
  9
$PUCSYDIR
 10
0.0
 20
1.0
 30
0.0
  9
$USERI1
 70
     0
  9
$USERI2
 70
     0
  9
$USERI3
 70
     0
  9
$USERI4
 70
     0
  9
$USERI5
 70
     0
  9
$USERR1
 40
0.0
  9
$USERR2
 40
0.0
  9
$USERR3
 40
0.0
  9
$USERR4
 40
0.0
  9
$USERR5
 40
0.0
  9
$WORLDVIEW
 70
     1
  9
$SHADEDGE
 70
     3
  9
$SHADEDIF
 70
    70
  9
$TILEMODE
 70
     1
  9
$MAXACTVP
 70
    64
  9
$PINSBASE
 10
0.0
 20
0.0
 30
0.0
  9
$PLIMCHECK
 70
     0
  9
$PEXTMIN
 10
1.000000000000000E+20
 20
1.000000000000000E+20
 30
1.000000000000000E+20
  9
$PEXTMAX
 10
-1.000000000000000E+20
 20
-1.000000000000000E+20
 30
-1.000000000000000E+20
  9
$PLIMMIN
 10
0.0
 20
0.0
  9
$PLIMMAX
 10
12.0
 20
9.0
  9
$UNITMODE
 70
     0
  9
$VISRETAIN
 70
     1
  9
$PLINEGEN
 70
     0
  9
$PSLTSCALE
 70
     1
  9
$TREEDEPTH
 70
  3020
  9
$PICKSTYLE
 70
     1
  9
$CMLSTYLE
  2
STANDARD
  9
$CMLJUST
 70
     0
  9
$CMLSCALE
 40
1.0
  9
$PROXYGRAPHICS
 70
     1
  9
$MEASUREMENT
 70
     0
  0
ENDSEC
  0
SECTION
  2
CLASSES
  0
CLASS
  1
ACDBDICTIONARYWDFLT
  2
AcDbDictionaryWithDefault
  3
AutoCAD 2000
 90
        0
280
     0
281
     0
  0
CLASS
  1
ACDBPLACEHOLDER
  2
AcDbPlaceHolder
  3
AutoCAD 2000
 90
        0
280
     0
281
     0
  0
CLASS
  1
LAYOUT
  2
AcDbLayout
  3
AutoCAD 2000
 90
        0
280
     0
281
     0
  0
CLASS
  1
DICTIONARYVAR
  2
AcDbDictionaryVar
  3
AutoCAD 2000
 90
        0
280
     0
281
     0
  0
CLASS
  1
LONG_TRANSACTION
  2
AcDbLongTransaction
  3
AutoCAD 2000
 90
        0
280
     0
281
     0
  0
CLASS
  1
LWPOLYLINE
  2
AcDbPolyline
  3
AutoCAD 2000
 90
        0
280
     0
281
     1
  0
CLASS
  1
HATCH
  2
AcDbHatch
  3
AutoCAD 2000
 90
        0
280
     0
281
     1
  0
CLASS
  1
XRECORD
  2
AcDbXrecord
  3
AutoCAD 2000
 90
        0
280
     0
281
     0
  0
ENDSEC
  0
SECTION
  2
TABLES
  0
TABLE
  2
VPORT
  5
8
330
0
100
AcDbSymbolTable
 70
     2
  0
VPORT
  5
22D
330
8
100
AcDbSymbolTableRecord
100
AcDbViewportTableRecord
  2
*ACTIVE
 70
     0
 10
0.0
 20
0.0
 11
1.0
 21
1.0
 12
92.5
 22
94.50000000000001
 13
0.0
 23
0.0
 14
1.0
 24
1.0
 15
0.0
 25
0.0
 16
0.0
 26
0.0
 36
1.0
 17
0.0
 27
0.0
 37
0.0
 40
190.4501278772378
 41
2.078104993597951
 42
50.0
 43
0.0
 44
0.0
 50
0.0
 51
0.0
 71
     0
 72
   100
 73
     1
 74
     3
 75
     0
 76
     0
 77
     0
 78
     0
  0
ENDTAB
  0
TABLE
  2
LTYPE
  5
5
330
0
100
AcDbSymbolTable
 70
     1
  0
LTYPE
  5
13
330
5
100
AcDbSymbolTableRecord
100
AcDbLinetypeTableRecord
  2
BYBLOCK
 70
     0
  3

 72
    65
 73
     0
 40
0.0
  0
LTYPE
  5
14
330
5
100
AcDbSymbolTableRecord
100
AcDbLinetypeTableRecord
  2
BYLAYER
 70
     0
  3

 72
    65
 73
     0
 40
0.0
  0
LTYPE
  5
15
330
5
100
AcDbSymbolTableRecord
100
AcDbLinetypeTableRecord
  2
CONTINUOUS
 70
     0
  3
Solid line
 72
    65
 73
     0
 40
0.0
  0
ENDTAB
  0
TABLE
  2
LAYER
  5
2
330
0
100
AcDbSymbolTable
 70
     1
  0
LAYER
  5
10
330
2
100
AcDbSymbolTableRecord
100
AcDbLayerTableRecord
  2
0
 70
     0
 62
     7
  6
CONTINUOUS
  0
ENDTAB
  0
TABLE
  2
STYLE
  5
3
330
0
100
AcDbSymbolTable
 70
     1
  0
STYLE
  5
11
330
3
100
AcDbSymbolTableRecord
100
AcDbTextStyleTableRecord
  2
STANDARD
 70
     0
 40
0.0
 41
1.0
 50
0.0
 71
     0
 42
0.2
  3
txt
  4

  0
ENDTAB
  0
TABLE
  2
VIEW
  5
6
330
0
100
AcDbSymbolTable
 70
     0
  0
ENDTAB
  0
TABLE
  2
UCS
  5
7
330
0
100
AcDbSymbolTable
 70
     0
  0
ENDTAB
  0
TABLE
  2
APPID
  5
9
330
0
100
AcDbSymbolTable
 70
     1
  0
APPID
  5
12
330
9
100
AcDbSymbolTableRecord
100
AcDbRegAppTableRecord
  2
ACAD
 70
     0
  0
ENDTAB
  0
TABLE
  2
DIMSTYLE
  5
A
330
0
100
AcDbSymbolTable
 70
     1
  0
DIMSTYLE
105
217
330
A
100
AcDbSymbolTableRecord
100
AcDbDimStyleTableRecord
  2
STANDARD
 70
     0
  3

  4

  5

  6

  7

 40
1.0
 41
0.18
 42
0.0625
 43
0.38
 44
0.18
 45
0.0
 46
0.0
 47
0.0
 48
0.0
140
0.18
141
0.09
142
0.0
143
25.4
144
1.0
145
0.0
146
1.0
147
0.09
 71
     0
 72
     0
 73
     1
 74
     1
 75
     0
 76
     0
 77
     0
 78
     0
170
     0
171
     2
172
     0
173
     0
174
     0
175
     0
176
     0
177
     0
178
     0
270
     2
271
     4
272
     4
273
     2
274
     2
340
11
275
     0
280
     0
281
     0
282
     0
283
     1
284
     0
285
     0
286
     0
287
     3
288
     0
  0
ENDTAB
  0
TABLE
  2
BLOCK_RECORD
  5
1
330
0
100
AcDbSymbolTable
 70
     0
  0
BLOCK_RECORD
  5
1E
102
{ACAD_XDICTIONARY
360
250
102
}
330
1
100
AcDbSymbolTableRecord
100
AcDbBlockTableRecord
  2
*MODEL_SPACE
  0
BLOCK_RECORD
  5
1A
102
{ACAD_XDICTIONARY
360
24E
102
}
330
1
100
AcDbSymbolTableRecord
100
AcDbBlockTableRecord
  2
*PAPER_SPACE
  0
ENDTAB
  0
ENDSEC
  0
SECTION
  2
BLOCKS
  0
BLOCK
  5
1F
330
1E
100
AcDbEntity
  8
0
100
AcDbBlockBegin
  2
*MODEL_SPACE
 70
     0
 10
0.0
 20
0.0
 30
0.0
  3
*MODEL_SPACE
  1

  0
ENDBLK
  5
20
330
1E
100
AcDbEntity
  8
0
100
AcDbBlockEnd
  0
BLOCK
  5
1B
330
1A
100
AcDbEntity
 67
     1
  8
0
100
AcDbBlockBegin
  2
*PAPER_SPACE
 70
     0
 10
0.0
 20
0.0
 30
0.0
  3
*PAPER_SPACE
  1

  0
ENDBLK
  5
1C
330
1A
100
AcDbEntity
 67
     1
  8
0
100
AcDbBlockEnd
  0
ENDSEC
  0
SECTION
  2
ENTITIES
  0
LINE
  5
22
330
1E
100
AcDbEntity
  8
0
100
AcDbLine
 10
54.05
 20
60.0
 30
0.0
 11
54.45
 21
60.0
 31
0.0
  0
LINE
  5
23
330
1E
100
AcDbEntity
  8
0
100
AcDbLine
 10
0.263319999999993
 20
90.7741
 30
0.0
 11
0.7117899999999928
 21
90.654
 31
0.0
  0
LINE
  5
24
330
1E
100
AcDbEntity
  8
0
100
AcDbLine
 10
0.263319999999993
 20
90.7741
 30
0.0
 11
1.508387509745739
 21
95.42080624512708
 31
0.0
  0
LINE
  5
25
330
1E
100
AcDbEntity
  8
0
100
AcDbLine
 10
0.7117899999999928
 20
90.654
 30
0.0
 11
1.967499999999989
 21
90.3175
 31
0.0
  0
LINE
  5
26
330
1E
100
AcDbEntity
  8
0
100
AcDbLine
 10
0.263319999999993
 20
90.7741
 30
0.0
 11
0.7117899999999928
 21
90.654
 31
0.0
  0
LINE
  5
27
330
1E
100
AcDbEntity
  8
0
100
AcDbLine
 10
0.263319999999993
 20
90.7741
 30
0.0
 11
1.508387509745739
 21
95.42080624512708
 31
0.0
  0
LINE
  5
28
330
1E
100
AcDbEntity
  8
0
100
AcDbLine
 10
1.967499999999989
 20
90.3175
 30
0.0
 11
3.94073999999999
 21
89.7888
 31
0.0
  0
LINE
  5
29
330
1E
100
AcDbEntity
  8
0
100
AcDbLine
 10
3.94073999999999
 20
89.7888
 30
0.0
 11
6.54183999999999
 21
89.0918
 31
0.0
  0
LINE
  5
2A
330
1E
100
AcDbEntity
  8
0
100
AcDbLine
 10
2.84999999999999
 20
95.09999999999999
 30
0.0
 11
4.94999999999999
 21
94.50000000000001
 31
0.0
  0
LINE
  5
2B
330
1E
100
AcDbEntity
  8
0
100
AcDbLine
 10
6.54183999999999
 20
89.0918
 30
0.0
 11
9.591399999999991
 21
88.27469999999999
 31
0.0
  0
LINE
  5
2C
330
1E
100
AcDbEntity
  8
0
100
AcDbLine
 10
16.0494
 20
86.54428000000001
 30
0.0
 11
19.0989
 21
85.72715999999999
 31
0.0
  0
LINE
  5
2D
330
1E
100
AcDbEntity
  8
0
100
AcDbLine
 10
12.8204
 20
87.40948000000001
 30
0.0
 11
16.0494
 21
86.54428000000001
 31
0.0
  0
LINE
  5
2E
330
1E
100
AcDbEntity
  8
0
100
AcDbLine
 10
9.591399999999991
 20
88.27469999999999
 30
0.0
 11
12.8204
 21
87.40948000000001
 31
0.0
  0
LINE
  5
2F
330
1E
100
AcDbEntity
  8
0
100
AcDbLine
 10
14.15
 20
92.09999999999999
 30
0.0
 11
17.55
 21
91.2
 31
0.0
  0
LINE
  5
30
330
1E
100
AcDbEntity
  8
0
100
AcDbLine
 10
19.0989
 20
85.72715999999999
 30
0.0
 11
21.69999999999999
 21
85.03019
 31
0.0
  0
LINE
  5
31
330
1E
100
AcDbEntity
  8
0
100
AcDbLine
 10
25.3774
 20
84.04484000000001
 30
0.0
 11
26.6331888534184
 21
88.73152046812521
 31
0.0
  0
LINE
  5
32
330
1E
100
AcDbEntity
  8
0
100
AcDbLine
 10
23.6732
 20
84.50146999999999
 30
0.0
 11
24.9289
 21
84.16501
 31
0.0
  0
LINE
  5
33
330
1E
100
AcDbEntity
  8
0
100
AcDbLine
 10
24.9289
 20
84.16501
 30
0.0
 11
25.3774
 21
84.04484000000001
 31
0.0
  0
LINE
  5
34
330
1E
100
AcDbEntity
  8
0
100
AcDbLine
 10
21.69999999999999
 20
85.03019
 30
0.0
 11
23.6732
 21
84.50146999999999
 31
0.0
  0
LINE
  5
35
330
1E
100
AcDbEntity
  8
0
100
AcDbLine
 10
25.44999999999999
 20
89.1
 30
0.0
 11
26.75
 21
88.7
 31
0.0
  0
LINE
  5
36
330
1E
100
AcDbEntity
  8
0
100
AcDbLine
 10
27.14999999999999
 20
88.59999999999999
 30
0.0
 11
28.94999999999999
 21
89.50000000000001
 31
0.0
  0
LINE
  5
37
330
1E
100
AcDbEntity
  8
0
100
AcDbLine
 10
26.6331888534184
 20
88.73152046812521
 30
0.0
 11
26.75
 21
88.7
 31
0.0
  0
LINE
  5
38
330
1E
100
AcDbEntity
  8
0
100
AcDbLine
 10
28.94999999999999
 20
89.50000000000001
 30
0.0
 11
29.85
 21
92.0
 31
0.0
  0
LINE
  5
39
330
1E
100
AcDbEntity
  8
0
100
AcDbLine
 10
26.75
 20
88.7
 30
0.0
 11
27.14999999999999
 21
88.59999999999999
 31
0.0
  0
LINE
  5
3A
330
1E
100
AcDbEntity
  8
0
100
AcDbLine
 10
26.1849191813056
 20
88.8524821256794
 30
0.0
 11
26.75
 21
88.7
 31
0.0
  0
LINE
  5
3B
330
1E
100
AcDbEntity
  8
0
100
AcDbLine
 10
28.35
 20
89.7
 30
0.0
 11
28.94999999999999
 21
89.50000000000001
 31
0.0
  0
LINE
  5
3C
330
1E
100
AcDbEntity
  8
0
100
AcDbLine
 10
26.95
 20
90.09999999999999
 30
0.0
 11
28.35
 21
89.7
 31
0.0
  0
LINE
  5
3D
330
1E
100
AcDbEntity
  8
0
100
AcDbLine
 10
23.35
 20
89.59999999999999
 30
0.0
 11
25.44999999999999
 21
89.1
 31
0.0
  0
LINE
  5
3E
330
1E
100
AcDbEntity
  8
0
100
AcDbLine
 10
20.64999999999999
 20
90.29999999999999
 30
0.0
 11
23.35
 21
89.59999999999999
 31
0.0
  0
LINE
  5
3F
330
1E
100
AcDbEntity
  8
0
100
AcDbLine
 10
29.85
 20
92.0
 30
0.0
 11
31.55
 21
94.1
 31
0.0
  0
LINE
  5
40
330
1E
100
AcDbEntity
  8
0
100
AcDbLine
 10
24.64999999999999
 20
90.7
 30
0.0
 11
26.95
 21
90.09999999999999
 31
0.0
  0
LINE
  5
41
330
1E
100
AcDbEntity
  8
0
100
AcDbLine
 10
21.65
 20
91.5
 30
0.0
 11
24.64999999999999
 21
90.7
 31
0.0
  0
LINE
  5
42
330
1E
100
AcDbEntity
  8
0
100
AcDbLine
 10
18.14999999999999
 20
92.4
 30
0.0
 11
21.65
 21
91.5
 31
0.0
  0
LINE
  5
43
330
1E
100
AcDbEntity
  8
0
100
AcDbLine
 10
17.55
 20
91.2
 30
0.0
 11
20.64999999999999
 21
90.29999999999999
 31
0.0
  0
LINE
  5
44
330
1E
100
AcDbEntity
  8
0
100
AcDbLine
 10
20.34669612692469
 20
90.38399184177471
 30
0.0
 11
20.64999999999999
 21
90.29999999999999
 31
0.0
  0
LINE
  5
45
330
1E
100
AcDbEntity
  8
0
100
AcDbLine
 10
17.38378484778279
 20
91.24399812852811
 30
0.0
 11
17.55
 21
91.2
 31
0.0
  0
LINE
  5
46
330
1E
100
AcDbEntity
  8
0
100
AcDbLine
 10
31.55
 20
94.1
 30
0.0
 11
33.65
 21
95.7
 31
0.0
  0
LINE
  5
47
330
1E
100
AcDbEntity
  8
0
100
AcDbLine
 10
14.45
 20
93.40000000000001
 30
0.0
 11
18.14999999999999
 21
92.4
 31
0.0
  0
LINE
  5
48
330
1E
100
AcDbEntity
  8
0
100
AcDbLine
 10
10.65
 20
94.40000000000001
 30
0.0
 11
14.45
 21
93.40000000000001
 31
0.0
  0
LINE
  5
49
330
1E
100
AcDbEntity
  8
0
100
AcDbLine
 10
10.74999999999999
 20
93.0
 30
0.0
 11
14.15
 21
92.09999999999999
 31
0.0
  0
LINE
  5
4A
330
1E
100
AcDbEntity
  8
0
100
AcDbLine
 10
7.64999999999999
 20
93.8
 30
0.0
 11
10.74999999999999
 21
93.0
 31
0.0
  0
LINE
  5
4B
330
1E
100
AcDbEntity
  8
0
100
AcDbLine
 10
4.94999999999999
 20
94.50000000000001
 30
0.0
 11
5.28339976783716
 21
94.41302614752069
 31
0.0
  0
LINE
  5
4C
330
1E
100
AcDbEntity
  8
0
100
AcDbLine
 10
4.94999999999999
 20
94.50000000000001
 30
0.0
 11
7.64999999999999
 21
93.8
 31
0.0
  0
LINE
  5
4D
330
1E
100
AcDbEntity
  8
0
100
AcDbLine
 10
4.94999999999999
 20
94.50000000000001
 30
0.0
 11
5.28339976783716
 21
94.41302614752069
 31
0.0
  0
LINE
  5
4E
330
1E
100
AcDbEntity
  8
0
100
AcDbLine
 10
7.24999999999999
 20
95.4
 30
0.0
 11
10.65
 21
94.40000000000001
 31
0.0
  0
LINE
  5
4F
330
1E
100
AcDbEntity
  8
0
100
AcDbLine
 10
1.549999999999989
 20
95.4
 30
0.0
 11
1.955053815899229
 21
95.29391447678829
 31
0.0
  0
LINE
  5
50
330
1E
100
AcDbEntity
  8
0
100
AcDbLine
 10
1.549999999999989
 20
95.4
 30
0.0
 11
2.84999999999999
 21
95.09999999999999
 31
0.0
  0
LINE
  5
51
330
1E
100
AcDbEntity
  8
0
100
AcDbLine
 10
0.449999999999993
 20
97.2
 30
0.0
 11
1.849999999999989
 21
96.79999999999999
 31
0.0
  0
LINE
  5
52
330
1E
100
AcDbEntity
  8
0
100
AcDbLine
 10
0.449999999999993
 20
97.2
 30
0.0
 11
1.849999999999989
 21
96.79999999999999
 31
0.0
  0
LINE
  5
53
330
1E
100
AcDbEntity
  8
0
100
AcDbLine
 10
-0.0500000000000066
 20
97.3
 30
0.0
 11
0.449999999999993
 21
97.2
 31
0.0
  0
LINE
  5
54
330
1E
100
AcDbEntity
  8
0
100
AcDbLine
 10
-0.0500000000000066
 20
97.3
 30
0.0
 11
3.94999999999999
 21
107.0
 31
0.0
  0
LINE
  5
55
330
1E
100
AcDbEntity
  8
0
100
AcDbLine
 10
-0.0500000000000066
 20
97.3
 30
0.0
 11
1.149999999999989
 21
95.6
 31
0.0
  0
LINE
  5
56
330
1E
100
AcDbEntity
  8
0
100
AcDbLine
 10
-0.0500000000000066
 20
97.3
 30
0.0
 11
1.149999999999989
 21
95.6
 31
0.0
  0
LINE
  5
57
330
1E
100
AcDbEntity
  8
0
100
AcDbLine
 10
-0.0500000000000066
 20
97.3
 30
0.0
 11
0.449999999999993
 21
97.2
 31
0.0
  0
LINE
  5
58
330
1E
100
AcDbEntity
  8
0
100
AcDbLine
 10
-0.0500000000000066
 20
97.3
 30
0.0
 11
3.94999999999999
 21
107.0
 31
0.0
  0
LINE
  5
59
330
1E
100
AcDbEntity
  8
0
100
AcDbLine
 10
36.04999999999999
 20
96.70000000000001
 30
0.0
 11
38.55
 21
97.0
 31
0.0
  0
LINE
  5
5A
330
1E
100
AcDbEntity
  8
0
100
AcDbLine
 10
33.65
 20
95.7
 30
0.0
 11
36.04999999999999
 21
96.70000000000001
 31
0.0
  0
LINE
  5
5B
330
1E
100
AcDbEntity
  8
0
100
AcDbLine
 10
4.14999999999999
 20
96.2
 30
0.0
 11
7.24999999999999
 21
95.4
 31
0.0
  0
LINE
  5
5C
330
1E
100
AcDbEntity
  8
0
100
AcDbLine
 10
38.55
 20
97.0
 30
0.0
 11
74.55
 21
94.4405764352256
 31
0.0
  0
LINE
  5
5D
330
1E
100
AcDbEntity
  8
0
100
AcDbLine
 10
44.6165
 20
180.307
 30
0.0
 11
89.04999999999999
 21
168.400758231992
 31
0.0
  0
LINE
  5
5E
330
1E
100
AcDbEntity
  8
0
100
AcDbLine
 10
38.55
 20
127.0
 30
0.0
 11
58.1864
 21
128.598079348932
 31
0.0
  0
LINE
  5
5F
330
1E
100
AcDbEntity
  8
0
100
AcDbLine
 10
28.25
 20
125.6
 30
0.0
 11
38.55
 21
127.0
 31
0.0
  0
LINE
  5
60
330
1E
100
AcDbEntity
  8
0
100
AcDbLine
 10
18.65
 20
121.5999999999999
 30
0.0
 11
28.25
 21
125.6
 31
0.0
  0
LINE
  5
61
330
1E
100
AcDbEntity
  8
0
100
AcDbLine
 10
10.25
 20
115.3
 30
0.0
 11
18.65
 21
121.5999999999999
 31
0.0
  0
LINE
  5
62
330
1E
100
AcDbEntity
  8
0
100
AcDbLine
 10
3.94999999999999
 20
107.0
 30
0.0
 11
10.25
 21
115.3
 31
0.0
  0
LINE
  5
63
330
1E
100
AcDbEntity
  8
0
100
AcDbLine
 10
1.849999999999989
 20
96.79999999999999
 30
0.0
 11
4.14999999999999
 21
96.2
 31
0.0
  0
LINE
  5
64
330
1E
100
AcDbEntity
  8
0
100
AcDbLine
 10
1.149999999999989
 20
95.6
 30
0.0
 11
1.549999999999989
 21
95.4
 31
0.0
  0
LINE
  5
65
330
1E
100
AcDbEntity
  8
0
100
AcDbLine
 10
1.549999999999989
 20
95.4
 30
0.0
 11
1.955053815899229
 21
95.29391447678829
 31
0.0
  0
LINE
  5
66
330
1E
100
AcDbEntity
  8
0
100
AcDbLine
 10
44.77179999999999
 20
180.8859999999999
 30
0.0
 11
44.95289999999999
 21
181.562
 31
0.0
  0
LINE
  5
67
330
1E
100
AcDbEntity
  8
0
100
AcDbLine
 10
44.6682
 20
180.4999999999999
 30
0.0
 11
44.77179999999999
 21
180.8859999999999
 31
0.0
  0
LINE
  5
68
330
1E
100
AcDbEntity
  8
0
100
AcDbLine
 10
44.6165
 20
180.307
 30
0.0
 11
44.6682
 21
180.4999999999999
 31
0.0
  0
LINE
  5
69
330
1E
100
AcDbEntity
  8
0
100
AcDbLine
 10
44.6165
 20
180.307
 30
0.0
 11
89.04999999999999
 21
168.400758231992
 31
0.0
  0
LINE
  5
6A
330
1E
100
AcDbEntity
  8
0
100
AcDbLine
 10
45.2118
 20
182.528
 30
0.0
 11
45.4706
 21
183.494
 31
0.0
  0
LINE
  5
6B
330
1E
100
AcDbEntity
  8
0
100
AcDbLine
 10
44.95289999999999
 20
181.562
 30
0.0
 11
45.2118
 21
182.528
 31
0.0
  0
LINE
  5
6C
330
1E
100
AcDbEntity
  8
0
100
AcDbLine
 10
45.29819999999999
 20
184.7829999999999
 30
0.0
 11
45.55699999999999
 21
185.749
 31
0.0
  0
LINE
  5
6D
330
1E
100
AcDbEntity
  8
0
100
AcDbLine
 10
45.7812
 20
184.6529999999999
 30
0.0
 11
46.0917
 21
185.812
 31
0.0
  0
LINE
  5
6E
330
1E
100
AcDbEntity
  8
0
100
AcDbLine
 10
45.55699999999999
 20
185.749
 30
0.0
 11
45.8158
 21
186.715
 31
0.0
  0
LINE
  5
6F
330
1E
100
AcDbEntity
  8
0
100
AcDbLine
 10
45.8158
 20
186.715
 30
0.0
 11
46.0488
 21
187.584
 31
0.0
  0
LINE
  5
70
330
1E
100
AcDbEntity
  8
0
100
AcDbLine
 10
46.0917
 20
185.812
 30
0.0
 11
46.3506
 21
186.7779999999999
 31
0.0
  0
LINE
  5
71
330
1E
100
AcDbEntity
  8
0
100
AcDbLine
 10
46.0488
 20
187.584
 30
0.0
 11
46.20409999999999
 21
188.1629999999999
 31
0.0
  0
LINE
  5
72
330
1E
100
AcDbEntity
  8
0
100
AcDbLine
 10
46.20409999999999
 20
188.1629999999999
 30
0.0
 11
46.3076
 21
188.55
 31
0.0
  0
LINE
  5
73
330
1E
100
AcDbEntity
  8
0
100
AcDbLine
 10
46.3506
 20
186.7779999999999
 30
0.0
 11
46.6094
 21
187.744
 31
0.0
  0
LINE
  5
74
330
1E
100
AcDbEntity
  8
0
100
AcDbLine
 10
46.6094
 20
187.744
 30
0.0
 11
46.7905
 21
188.4199999999999
 31
0.0
  0
LINE
  5
75
330
1E
100
AcDbEntity
  8
0
100
AcDbLine
 10
46.7905
 20
188.4199999999999
 30
0.0
 11
46.8941
 21
188.807
 31
0.0
  0
LINE
  5
76
330
1E
100
AcDbEntity
  8
0
100
AcDbLine
 10
46.3335
 20
188.6459999999999
 30
0.0
 11
46.9458
 21
189.0
 31
0.0
  0
LINE
  5
77
330
1E
100
AcDbEntity
  8
0
100
AcDbLine
 10
46.9458
 20
189.0
 30
0.0
 11
93.57021814328559
 21
176.507
 31
0.0
  0
LINE
  5
78
330
1E
100
AcDbEntity
  8
0
100
AcDbLine
 10
46.8941
 20
188.807
 30
0.0
 11
46.9458
 21
189.0
 31
0.0
  0
LINE
  5
79
330
1E
100
AcDbEntity
  8
0
100
AcDbLine
 10
46.3076
 20
188.55
 30
0.0
 11
46.3335
 21
188.6459999999999
 31
0.0
  0
LINE
  5
7A
330
1E
100
AcDbEntity
  8
0
100
AcDbLine
 10
45.4706
 20
183.494
 30
0.0
 11
45.7812
 21
184.6529999999999
 31
0.0
  0
LINE
  5
7B
330
1E
100
AcDbEntity
  8
0
100
AcDbLine
 10
45.0394
 20
183.817
 30
0.0
 11
45.29819999999999
 21
184.7829999999999
 31
0.0
  0
LINE
  5
7C
330
1E
100
AcDbEntity
  8
0
100
AcDbLine
 10
44.7805
 20
182.8509999999999
 30
0.0
 11
45.0394
 21
183.817
 31
0.0
  0
LINE
  5
7D
330
1E
100
AcDbEntity
  8
0
100
AcDbLine
 10
44.5476
 20
181.9819999999999
 30
0.0
 11
44.7805
 21
182.8509999999999
 31
0.0
  0
LINE
  5
7E
330
1E
100
AcDbEntity
  8
0
100
AcDbLine
 10
44.3923
 20
181.402
 30
0.0
 11
44.5476
 21
181.9819999999999
 31
0.0
  0
LINE
  5
7F
330
1E
100
AcDbEntity
  8
0
100
AcDbLine
 10
44.2888
 20
181.0159999999999
 30
0.0
 11
44.3923
 21
181.402
 31
0.0
  0
LINE
  5
80
330
1E
100
AcDbEntity
  8
0
100
AcDbLine
 10
44.2629
 20
180.919
 30
0.0
 11
44.2888
 21
181.0159999999999
 31
0.0
  0
LINE
  5
81
330
1E
100
AcDbEntity
  8
0
100
AcDbLine
 10
44.2629
 20
180.919
 30
0.0
 11
44.6165
 21
180.307
 31
0.0
  0
LINE
  5
82
330
1E
100
AcDbEntity
  8
0
100
AcDbLine
 10
53.45
 20
90.0
 30
0.0
 11
54.55
 21
90.0
 31
0.0
  0
LINE
  5
83
330
1E
100
AcDbEntity
  8
0
100
AcDbLine
 10
54.55
 20
95.8624784156558
 30
0.0
 11
54.55
 21
90.37499999999999
 31
0.0
  0
LINE
  5
84
330
1E
100
AcDbEntity
  8
0
100
AcDbLine
 10
54.55
 20
90.37499999999999
 30
0.0
 11
54.55
 21
95.8624784156558
 31
0.0
  0
LINE
  5
85
330
1E
100
AcDbEntity
  8
0
100
AcDbLine
 10
54.55
 20
90.37499999999999
 30
0.0
 11
54.7674
 21
90.0
 31
0.0
  0
LINE
  5
86
330
1E
100
AcDbEntity
  8
0
100
AcDbLine
 10
54.55
 20
132.2221999999999
 30
0.0
 11
54.8833
 21
132.2221999999999
 31
0.0
  0
LINE
  5
87
330
1E
100
AcDbEntity
  8
0
100
AcDbLine
 10
54.55
 20
132.2221999999999
 30
0.0
 11
54.55
 21
142.8443
 31
0.0
  0
LINE
  5
88
330
1E
100
AcDbEntity
  8
0
100
AcDbLine
 10
54.8833
 20
142.8443
 30
0.0
 11
55.8833
 21
142.8443
 31
0.0
  0
LINE
  5
89
330
1E
100
AcDbEntity
  8
0
100
AcDbLine
 10
54.8833
 20
132.2221999999999
 30
0.0
 11
55.8833
 21
132.2221999999999
 31
0.0
  0
LINE
  5
8A
330
1E
100
AcDbEntity
  8
0
100
AcDbLine
 10
54.55
 20
142.8443
 30
0.0
 11
55.8833
 21
144.4610999999999
 31
0.0
  0
LINE
  5
8B
330
1E
100
AcDbEntity
  8
0
100
AcDbLine
 10
54.55
 20
142.8443
 30
0.0
 11
54.55
 21
132.2221999999999
 31
0.0
  0
LINE
  5
8C
330
1E
100
AcDbEntity
  8
0
100
AcDbLine
 10
54.55
 20
142.8443
 30
0.0
 11
54.8833
 21
142.8443
 31
0.0
  0
LINE
  5
8D
330
1E
100
AcDbEntity
  8
0
100
AcDbLine
 10
54.55
 20
90.0
 30
0.0
 11
56.45
 21
90.0
 31
0.0
  0
LINE
  5
8E
330
1E
100
AcDbEntity
  8
0
100
AcDbLine
 10
53.04999999999999
 20
90.0
 30
0.0
 11
54.05
 21
60.0
 31
0.0
  0
LINE
  5
8F
330
1E
100
AcDbEntity
  8
0
100
AcDbLine
 10
53.04999999999999
 20
90.0
 30
0.0
 11
53.45
 21
90.0
 31
0.0
  0
LINE
  5
90
330
1E
100
AcDbEntity
  8
0
100
AcDbLine
 10
54.45
 20
60.0
 30
0.0
 11
55.45
 21
60.0
 31
0.0
  0
LINE
  5
91
330
1E
100
AcDbEntity
  8
0
100
AcDbLine
 10
66.45
 20
0.0262499999999992
 30
0.0
 11
68.25
 21
0.101219999999999
 31
0.0
  0
LINE
  5
92
330
1E
100
AcDbEntity
  8
0
100
AcDbLine
 10
64.55
 20
-0.0000000000000007
 30
0.0
 11
66.45
 21
0.0262499999999992
 31
0.0
  0
LINE
  5
93
330
1E
100
AcDbEntity
  8
0
100
AcDbLine
 10
55.8833
 20
142.8443
 30
0.0
 11
57.4833
 21
142.8443
 31
0.0
  0
LINE
  5
94
330
1E
100
AcDbEntity
  8
0
100
AcDbLine
 10
56.2167
 20
144.4610999999999
 30
0.0
 11
57.0167
 21
144.4610999999999
 31
0.0
  0
LINE
  5
95
330
1E
100
AcDbEntity
  8
0
100
AcDbLine
 10
55.8833
 20
132.2221999999999
 30
0.0
 11
57.4833
 21
132.2221999999999
 31
0.0
  0
LINE
  5
96
330
1E
100
AcDbEntity
  8
0
100
AcDbLine
 10
55.8833
 20
144.4610999999999
 30
0.0
 11
64.55
 21
145.0
 31
0.0
  0
LINE
  5
97
330
1E
100
AcDbEntity
  8
0
100
AcDbLine
 10
55.8833
 20
144.4610999999999
 30
0.0
 11
56.2167
 21
144.4610999999999
 31
0.0
  0
LINE
  5
98
330
1E
100
AcDbEntity
  8
0
100
AcDbLine
 10
57.0167
 20
144.4610999999999
 30
0.0
 11
58.4167
 21
144.4610999999999
 31
0.0
  0
LINE
  5
99
330
1E
100
AcDbEntity
  8
0
100
AcDbLine
 10
56.45
 20
90.0
 30
0.0
 11
58.85
 21
90.0
 31
0.0
  0
LINE
  5
9A
330
1E
100
AcDbEntity
  8
0
100
AcDbLine
 10
57.05
 20
60.0
 30
0.0
 11
57.05
 21
4.261769999999999
 31
0.0
  0
LINE
  5
9B
330
1E
100
AcDbEntity
  8
0
100
AcDbLine
 10
57.05
 20
60.0
 30
0.0
 11
57.35
 21
60.0
 31
0.0
  0
LINE
  5
9C
330
1E
100
AcDbEntity
  8
0
100
AcDbLine
 10
57.35
 20
5.611139999999999
 30
0.0
 11
58.04999999999999
 21
6.810579999999999
 31
0.0
  0
LINE
  5
9D
330
1E
100
AcDbEntity
  8
0
100
AcDbLine
 10
57.14999999999999
 20
60.0
 30
0.0
 11
59.35
 21
60.0
 31
0.0
  0
LINE
  5
9E
330
1E
100
AcDbEntity
  8
0
100
AcDbLine
 10
57.4833
 20
142.8443
 30
0.0
 11
59.55
 21
142.8443
 31
0.0
  0
LINE
  5
9F
330
1E
100
AcDbEntity
  8
0
100
AcDbLine
 10
57.4833
 20
132.2221999999999
 30
0.0
 11
58.1864
 21
132.2221999999999
 31
0.0
  0
LINE
  5
A0
330
1E
100
AcDbEntity
  8
0
100
AcDbLine
 10
57.4833
 20
132.2221999999999
 30
0.0
 11
59.55
 21
132.2221999999999
 31
0.0
  0
LINE
  5
A1
330
1E
100
AcDbEntity
  8
0
100
AcDbLine
 10
57.35
 20
60.0
 30
0.0
 11
58.04999999999999
 21
60.0
 31
0.0
  0
LINE
  5
A2
330
1E
100
AcDbEntity
  8
0
100
AcDbLine
 10
58.04999999999999
 20
60.0
 30
0.0
 11
59.25
 21
60.0
 31
0.0
  0
LINE
  5
A3
330
1E
100
AcDbEntity
  8
0
100
AcDbLine
 10
58.04999999999999
 20
6.810579999999999
 30
0.0
 11
59.25
 21
8.010019999999999
 31
0.0
  0
LINE
  5
A4
330
1E
100
AcDbEntity
  8
0
100
AcDbLine
 10
57.05
 20
4.261769999999999
 30
0.0
 11
57.35
 21
2.275199999999999
 31
0.0
  0
LINE
  5
A5
330
1E
100
AcDbEntity
  8
0
100
AcDbLine
 10
57.05
 20
4.261769999999999
 30
0.0
 11
57.05
 21
60.0
 31
0.0
  0
LINE
  5
A6
330
1E
100
AcDbEntity
  8
0
100
AcDbLine
 10
57.05
 20
4.261769999999999
 30
0.0
 11
57.35
 21
5.611139999999999
 31
0.0
  0
LINE
  5
A7
330
1E
100
AcDbEntity
  8
0
100
AcDbLine
 10
57.35
 20
2.275199999999999
 30
0.0
 11
58.04999999999999
 21
1.15073
 31
0.0
  0
LINE
  5
A8
330
1E
100
AcDbEntity
  8
0
100
AcDbLine
 10
59.35
 20
60.0
 30
0.0
 11
61.85
 21
60.0
 31
0.0
  0
LINE
  5
A9
330
1E
100
AcDbEntity
  8
0
100
AcDbLine
 10
59.25
 20
60.0
 30
0.0
 11
60.85
 21
60.0
 31
0.0
  0
LINE
  5
AA
330
1E
100
AcDbEntity
  8
0
100
AcDbLine
 10
59.25
 20
8.010019999999999
 30
0.0
 11
60.85
 21
9.05953
 31
0.0
  0
LINE
  5
AB
330
1E
100
AcDbEntity
  8
0
100
AcDbLine
 10
60.85
 20
9.05953
 30
0.0
 11
62.65
 21
9.771699999999999
 31
0.0
  0
LINE
  5
AC
330
1E
100
AcDbEntity
  8
0
100
AcDbLine
 10
58.1864
 20
128.598079348932
 30
0.0
 11
58.1864
 21
132.2221999999999
 31
0.0
  0
LINE
  5
AD
330
1E
100
AcDbEntity
  8
0
100
AcDbLine
 10
58.4167
 20
144.4610999999999
 30
0.0
 11
60.2167
 21
144.4610999999999
 31
0.0
  0
LINE
  5
AE
330
1E
100
AcDbEntity
  8
0
100
AcDbLine
 10
58.1864
 20
132.2221999999999
 30
0.0
 11
58.1864
 21
128.598079348932
 31
0.0
  0
LINE
  5
AF
330
1E
100
AcDbEntity
  8
0
100
AcDbLine
 10
59.55
 20
132.2221999999999
 30
0.0
 11
61.95
 21
132.2221999999999
 31
0.0
  0
LINE
  5
B0
330
1E
100
AcDbEntity
  8
0
100
AcDbLine
 10
59.55
 20
142.8443
 30
0.0
 11
61.95
 21
142.8443
 31
0.0
  0
LINE
  5
B1
330
1E
100
AcDbEntity
  8
0
100
AcDbLine
 10
60.2167
 20
144.4610999999999
 30
0.0
 11
62.2834
 21
144.4610999999999
 31
0.0
  0
LINE
  5
B2
330
1E
100
AcDbEntity
  8
0
100
AcDbLine
 10
58.85
 20
90.0
 30
0.0
 11
61.55
 21
90.0
 31
0.0
  0
LINE
  5
B3
330
1E
100
AcDbEntity
  8
0
100
AcDbLine
 10
60.85
 20
60.0
 30
0.0
 11
62.65
 21
60.0
 31
0.0
  0
LINE
  5
B4
330
1E
100
AcDbEntity
  8
0
100
AcDbLine
 10
58.04999999999999
 20
1.15073
 30
0.0
 11
59.25
 21
0.47604
 31
0.0
  0
LINE
  5
B5
330
1E
100
AcDbEntity
  8
0
100
AcDbLine
 10
59.25
 20
0.47604
 30
0.0
 11
60.85
 21
0.10122
 31
0.0
  0
LINE
  5
B6
330
1E
100
AcDbEntity
  8
0
100
AcDbLine
 10
61.85
 20
60.0
 30
0.0
 11
64.55
 21
60.0
 31
0.0
  0
LINE
  5
B7
330
1E
100
AcDbEntity
  8
0
100
AcDbLine
 10
66.45
 20
9.771699999999999
 30
0.0
 11
68.25
 21
9.05953
 31
0.0
  0
LINE
  5
B8
330
1E
100
AcDbEntity
  8
0
100
AcDbLine
 10
66.45
 20
60.0
 30
0.0
 11
68.25
 21
60.0
 31
0.0
  0
LINE
  5
B9
330
1E
100
AcDbEntity
  8
0
100
AcDbLine
 10
64.55
 20
10.0
 30
0.0
 11
66.45
 21
9.771699999999999
 31
0.0
  0
LINE
  5
BA
330
1E
100
AcDbEntity
  8
0
100
AcDbLine
 10
68.25
 20
0.101219999999999
 30
0.0
 11
69.84999999999999
 21
0.476039999999999
 31
0.0
  0
LINE
  5
BB
330
1E
100
AcDbEntity
  8
0
100
AcDbLine
 10
71.05
 20
1.15073
 30
0.0
 11
71.75
 21
2.275199999999999
 31
0.0
  0
LINE
  5
BC
330
1E
100
AcDbEntity
  8
0
100
AcDbLine
 10
69.84999999999999
 20
0.476039999999999
 30
0.0
 11
71.05
 21
1.15073
 31
0.0
  0
LINE
  5
BD
330
1E
100
AcDbEntity
  8
0
100
AcDbLine
 10
71.75
 20
2.275199999999999
 30
0.0
 11
72.05
 21
4.261769999999999
 31
0.0
  0
LINE
  5
BE
330
1E
100
AcDbEntity
  8
0
100
AcDbLine
 10
71.75
 20
5.611139999999999
 30
0.0
 11
72.05
 21
4.261769999999999
 31
0.0
  0
LINE
  5
BF
330
1E
100
AcDbEntity
  8
0
100
AcDbLine
 10
71.05
 20
6.810579999999999
 30
0.0
 11
71.75
 21
5.611139999999999
 31
0.0
  0
LINE
  5
C0
330
1E
100
AcDbEntity
  8
0
100
AcDbLine
 10
71.75
 20
60.0
 30
0.0
 11
72.05
 21
60.0
 31
0.0
  0
LINE
  5
C1
330
1E
100
AcDbEntity
  8
0
100
AcDbLine
 10
71.05
 20
60.0
 30
0.0
 11
71.75
 21
60.0
 31
0.0
  0
LINE
  5
C2
330
1E
100
AcDbEntity
  8
0
100
AcDbLine
 10
69.84999999999999
 20
60.0
 30
0.0
 11
71.05
 21
60.0
 31
0.0
  0
LINE
  5
C3
330
1E
100
AcDbEntity
  8
0
100
AcDbLine
 10
69.84999999999999
 20
8.010019999999999
 30
0.0
 11
71.05
 21
6.810579999999999
 31
0.0
  0
LINE
  5
C4
330
1E
100
AcDbEntity
  8
0
100
AcDbLine
 10
68.25
 20
9.05953
 30
0.0
 11
69.84999999999999
 21
8.010019999999999
 31
0.0
  0
LINE
  5
C5
330
1E
100
AcDbEntity
  8
0
100
AcDbLine
 10
68.25
 20
60.0
 30
0.0
 11
69.84999999999999
 21
60.0
 31
0.0
  0
LINE
  5
C6
330
1E
100
AcDbEntity
  8
0
100
AcDbLine
 10
72.05
 20
4.261769999999999
 30
0.0
 11
72.05
 21
60.0
 31
0.0
  0
LINE
  5
C7
330
1E
100
AcDbEntity
  8
0
100
AcDbLine
 10
71.95
 20
60.0
 30
0.0
 11
73.65000000000001
 21
60.0
 31
0.0
  0
LINE
  5
C8
330
1E
100
AcDbEntity
  8
0
100
AcDbLine
 10
69.75
 20
60.0
 30
0.0
 11
71.95
 21
60.0
 31
0.0
  0
LINE
  5
C9
330
1E
100
AcDbEntity
  8
0
100
AcDbLine
 10
67.25
 20
60.0
 30
0.0
 11
69.75
 21
60.0
 31
0.0
  0
LINE
  5
CA
330
1E
100
AcDbEntity
  8
0
100
AcDbLine
 10
64.55
 20
60.0
 30
0.0
 11
67.25
 21
60.0
 31
0.0
  0
LINE
  5
CB
330
1E
100
AcDbEntity
  8
0
100
AcDbLine
 10
64.55
 20
60.0
 30
0.0
 11
66.45
 21
60.0
 31
0.0
  0
LINE
  5
CC
330
1E
100
AcDbEntity
  8
0
100
AcDbLine
 10
75.04999999999999
 20
60.0
 30
0.0
 11
76.05
 21
90.0
 31
0.0
  0
LINE
  5
CD
330
1E
100
AcDbEntity
  8
0
100
AcDbLine
 10
74.65
 20
60.0
 30
0.0
 11
75.04999999999999
 21
60.0
 31
0.0
  0
LINE
  5
CE
330
1E
100
AcDbEntity
  8
0
100
AcDbLine
 10
73.65000000000001
 20
60.0
 30
0.0
 11
74.65
 21
60.0
 31
0.0
  0
LINE
  5
CF
330
1E
100
AcDbEntity
  8
0
100
AcDbLine
 10
72.05
 20
60.0
 30
0.0
 11
73.65000000000001
 21
60.0
 31
0.0
  0
LINE
  5
D0
330
1E
100
AcDbEntity
  8
0
100
AcDbLine
 10
72.05
 20
60.0
 30
0.0
 11
72.05
 21
4.261769999999999
 31
0.0
  0
LINE
  5
D1
330
1E
100
AcDbEntity
  8
0
100
AcDbLine
 10
62.65
 20
9.771699999999999
 30
0.0
 11
64.55
 21
10.0
 31
0.0
  0
LINE
  5
D2
330
1E
100
AcDbEntity
  8
0
100
AcDbLine
 10
74.3326
 20
90.0
 30
0.0
 11
74.55
 21
90.37499999999999
 31
0.0
  0
LINE
  5
D3
330
1E
100
AcDbEntity
  8
0
100
AcDbLine
 10
159.05
 20
78.0
 30
0.0
 11
185.05
 21
78.0
 31
0.0
  0
LINE
  5
D4
330
1E
100
AcDbEntity
  8
0
100
AcDbLine
 10
185.05
 20
78.0
 30
0.0
 11
185.05
 21
79.2
 31
0.0
  0
LINE
  5
D5
330
1E
100
AcDbEntity
  8
0
100
AcDbLine
 10
157.55
 20
78.666668
 30
0.0
 11
157.55
 21
79.86667
 31
0.0
  0
LINE
  5
D6
330
1E
100
AcDbEntity
  8
0
100
AcDbLine
 10
157.55
 20
78.666668
 30
0.0
 11
159.05
 21
78.0
 31
0.0
  0
LINE
  5
D7
330
1E
100
AcDbEntity
  8
0
100
AcDbLine
 10
114.5499999999999
 20
83.0
 30
0.0
 11
120.915
 21
83.8
 31
0.0
  0
LINE
  5
D8
330
1E
100
AcDbEntity
  8
0
100
AcDbLine
 10
126.65
 20
86.2
 30
0.0
 11
131.75
 21
90.20000000000001
 31
0.0
  0
LINE
  5
D9
330
1E
100
AcDbEntity
  8
0
100
AcDbLine
 10
94.5827
 20
86.22158
 30
0.0
 11
98.961
 21
83.73833000000001
 31
0.0
  0
LINE
  5
DA
330
1E
100
AcDbEntity
  8
0
100
AcDbLine
 10
98.961
 20
83.73833000000001
 30
0.0
 11
114.5499999999999
 21
83.0
 31
0.0
  0
LINE
  5
DB
330
1E
100
AcDbEntity
  8
0
100
AcDbLine
 10
157.05
 20
81.86666999999999
 30
0.0
 11
157.05
 21
80.66667
 31
0.0
  0
LINE
  5
DC
330
1E
100
AcDbEntity
  8
0
100
AcDbLine
 10
157.05
 20
81.86666999999999
 30
0.0
 11
157.05
 21
84.80000999999999
 31
0.0
  0
LINE
  5
DD
330
1E
100
AcDbEntity
  8
0
100
AcDbLine
 10
157.05
 20
80.66667
 30
0.0
 11
157.55
 21
78.666668
 31
0.0
  0
LINE
  5
DE
330
1E
100
AcDbEntity
  8
0
100
AcDbLine
 10
157.05
 20
80.66667
 30
0.0
 11
157.05
 21
81.86666999999999
 31
0.0
  0
LINE
  5
DF
330
1E
100
AcDbEntity
  8
0
100
AcDbLine
 10
185.05
 20
82.53334
 30
0.0
 11
185.05
 21
88.0
 31
0.0
  0
LINE
  5
E0
330
1E
100
AcDbEntity
  8
0
100
AcDbLine
 10
157.55
 20
83.20000999999999
 30
0.0
 11
157.55
 21
88.40000000000001
 31
0.0
  0
LINE
  5
E1
330
1E
100
AcDbEntity
  8
0
100
AcDbLine
 10
157.55
 20
83.20000999999999
 30
0.0
 11
157.55
 21
79.86667
 31
0.0
  0
LINE
  5
E2
330
1E
100
AcDbEntity
  8
0
100
AcDbLine
 10
157.55
 20
79.86667
 30
0.0
 11
157.55
 21
83.20000999999999
 31
0.0
  0
LINE
  5
E3
330
1E
100
AcDbEntity
  8
0
100
AcDbLine
 10
157.55
 20
79.86667
 30
0.0
 11
157.55
 21
78.666668
 31
0.0
  0
LINE
  5
E4
330
1E
100
AcDbEntity
  8
0
100
AcDbLine
 10
157.05
 20
84.80000999999999
 30
0.0
 11
157.05
 21
89.8667
 31
0.0
  0
LINE
  5
E5
330
1E
100
AcDbEntity
  8
0
100
AcDbLine
 10
157.05
 20
84.80000999999999
 30
0.0
 11
157.05
 21
81.86666999999999
 31
0.0
  0
LINE
  5
E6
330
1E
100
AcDbEntity
  8
0
100
AcDbLine
 10
116.5499999999999
 20
90.0
 30
0.0
 11
123.55
 21
90.8
 31
0.0
  0
LINE
  5
E7
330
1E
100
AcDbEntity
  8
0
100
AcDbLine
 10
90.82399999999999
 20
89.823
 30
0.0
 11
94.5827
 21
86.22158
 31
0.0
  0
LINE
  5
E8
330
1E
100
AcDbEntity
  8
0
100
AcDbLine
 10
157.55
 20
88.40000000000001
 30
0.0
 11
157.55
 21
95.4667
 31
0.0
  0
LINE
  5
E9
330
1E
100
AcDbEntity
  8
0
100
AcDbLine
 10
157.55
 20
88.40000000000001
 30
0.0
 11
157.55
 21
83.20000999999999
 31
0.0
  0
LINE
  5
EA
330
1E
100
AcDbEntity
  8
0
100
AcDbLine
 10
157.05
 20
89.8667
 30
0.0
 11
157.05
 21
96.4
 31
0.0
  0
LINE
  5
EB
330
1E
100
AcDbEntity
  8
0
100
AcDbLine
 10
157.05
 20
89.8667
 30
0.0
 11
157.05
 21
84.80000999999999
 31
0.0
  0
LINE
  5
EC
330
1E
100
AcDbEntity
  8
0
100
AcDbLine
 10
185.05
 20
88.0
 30
0.0
 11
185.05
 21
82.5333
 31
0.0
  0
LINE
  5
ED
330
1E
100
AcDbEntity
  8
0
100
AcDbLine
 10
185.05
 20
88.0
 30
0.0
 11
185.05
 21
95.06669999999999
 31
0.0
  0
LINE
  5
EE
330
1E
100
AcDbEntity
  8
0
100
AcDbLine
 10
185.05
 20
82.5333
 30
0.0
 11
185.05
 21
79.2
 31
0.0
  0
LINE
  5
EF
330
1E
100
AcDbEntity
  8
0
100
AcDbLine
 10
185.05
 20
79.2
 30
0.0
 11
185.05
 21
78.0
 31
0.0
  0
LINE
  5
F0
330
1E
100
AcDbEntity
  8
0
100
AcDbLine
 10
185.05
 20
79.2
 30
0.0
 11
185.05
 21
82.53334
 31
0.0
  0
LINE
  5
F1
330
1E
100
AcDbEntity
  8
0
100
AcDbLine
 10
75.65000000000001
 20
90.0
 30
0.0
 11
76.05
 21
90.0
 31
0.0
  0
LINE
  5
F2
330
1E
100
AcDbEntity
  8
0
100
AcDbLine
 10
74.55
 20
90.0
 30
0.0
 11
75.65000000000001
 21
90.0
 31
0.0
  0
LINE
  5
F3
330
1E
100
AcDbEntity
  8
0
100
AcDbLine
 10
72.65
 20
90.0
 30
0.0
 11
74.55
 21
90.0
 31
0.0
  0
LINE
  5
F4
330
1E
100
AcDbEntity
  8
0
100
AcDbLine
 10
70.25
 20
90.0
 30
0.0
 11
72.65
 21
90.0
 31
0.0
  0
LINE
  5
F5
330
1E
100
AcDbEntity
  8
0
100
AcDbLine
 10
67.54999999999999
 20
90.0
 30
0.0
 11
70.25
 21
90.0
 31
0.0
  0
LINE
  5
F6
330
1E
100
AcDbEntity
  8
0
100
AcDbLine
 10
74.55
 20
90.37499999999999
 30
0.0
 11
74.55
 21
94.4405764352256
 31
0.0
  0
LINE
  5
F7
330
1E
100
AcDbEntity
  8
0
100
AcDbLine
 10
110.7499999999999
 20
90.29999999999999
 30
0.0
 11
116.5499999999999
 21
89.50000000000001
 31
0.0
  0
LINE
  5
F8
330
1E
100
AcDbEntity
  8
0
100
AcDbLine
 10
123.75
 20
90.29999999999999
 30
0.0
 11
130.4499999999999
 21
92.5
 31
0.0
  0
LINE
  5
F9
330
1E
100
AcDbEntity
  8
0
100
AcDbLine
 10
130.4499999999999
 20
92.5
 30
0.0
 11
136.25
 21
96.09999999999999
 31
0.0
  0
LINE
  5
FA
330
1E
100
AcDbEntity
  8
0
100
AcDbLine
 10
130.15
 20
92.9
 30
0.0
 11
135.85
 21
96.5
 31
0.0
  0
LINE
  5
FB
330
1E
100
AcDbEntity
  8
0
100
AcDbLine
 10
123.55
 20
90.8
 30
0.0
 11
130.15
 21
92.9
 31
0.0
  0
LINE
  5
FC
330
1E
100
AcDbEntity
  8
0
100
AcDbLine
 10
110.85
 20
90.8
 30
0.0
 11
116.5499999999999
 21
90.0
 31
0.0
  0
LINE
  5
FD
330
1E
100
AcDbEntity
  8
0
100
AcDbLine
 10
105.6499999999999
 20
92.9
 30
0.0
 11
110.85
 21
90.8
 31
0.0
  0
LINE
  5
FE
330
1E
100
AcDbEntity
  8
0
100
AcDbLine
 10
131.75
 20
90.20000000000001
 30
0.0
 11
135.7499999999999
 21
95.29999999999999
 31
0.0
  0
LINE
  5
FF
330
1E
100
AcDbEntity
  8
0
100
AcDbLine
 10
74.55
 20
94.4405764352256
 30
0.0
 11
74.55
 21
90.37499999999999
 31
0.0
  0
LINE
  5
100
330
1E
100
AcDbEntity
  8
0
100
AcDbLine
 10
74.55
 20
94.44057643522569
 30
0.0
 11
85.45900000000001
 21
93.665
 31
0.0
  0
LINE
  5
101
330
1E
100
AcDbEntity
  8
0
100
AcDbLine
 10
80.34769999999999
 20
103.0
 30
0.0
 11
80.8375
 21
99.29999999999999
 31
0.0
  0
LINE
  5
102
330
1E
100
AcDbEntity
  8
0
100
AcDbLine
 10
97.05
 20
100.8
 30
0.0
 11
100.65
 21
96.09999999999999
 31
0.0
  0
LINE
  5
103
330
1E
100
AcDbEntity
  8
0
100
AcDbLine
 10
136.25
 20
96.09999999999999
 30
0.0
 11
139.05
 21
99.0
 31
0.0
  0
LINE
  5
104
330
1E
100
AcDbEntity
  8
0
100
AcDbLine
 10
141.05
 20
99.0
 30
0.0
 11
143.05
 21
98.0
 31
0.0
  0
LINE
  5
106
330
1E
100
AcDbEntity
  8
0
100
AcDbLine
 10
141.05
 20
125.0
 30
0.0
 11
141.05
 21
99.0
 31
0.0
  0
LINE
  5
107
330
1E
100
AcDbEntity
  8
0
100
AcDbLine
 10
146.05
 20
98.0
 30
0.0
 11
149.05
 21
98.0
 31
0.0
  0
LINE
  5
108
330
1E
100
AcDbEntity
  8
0
100
AcDbLine
 10
149.05
 20
98.0
 30
0.0
 11
151.05
 21
99.0
 31
0.0
  0
LINE
  5
109
330
1E
100
AcDbEntity
  8
0
100
AcDbLine
 10
151.05
 20
99.0
 30
0.0
 11
151.05
 21
125.0
 31
0.0
  0
LINE
  5
10A
330
1E
100
AcDbEntity
  8
0
100
AcDbLine
 10
151.05
 20
125.0
 30
0.0
 11
151.05
 21
99.0
 31
0.0
  0
LINE
  5
10C
330
1E
100
AcDbEntity
  8
0
100
AcDbLine
 10
151.05
 20
99.0
 30
0.0
 11
153.05
 21
101.0
 31
0.0
  0
LINE
  5
10D
330
1E
100
AcDbEntity
  8
0
100
AcDbLine
 10
157.05
 20
101.0
 30
0.0
 11
157.05
 21
96.4
 31
0.0
  0
LINE
  5
10E
330
1E
100
AcDbEntity
  8
0
100
AcDbLine
 10
153.05
 20
101.0
 30
0.0
 11
153.05
 21
101.4
 31
0.0
  0
LINE
  5
10F
330
1E
100
AcDbEntity
  8
0
100
AcDbLine
 10
153.05
 20
101.0
 30
0.0
 11
157.05
 21
101.0
 31
0.0
  0
LINE
  5
110
330
1E
100
AcDbEntity
  8
0
100
AcDbLine
 10
143.05
 20
98.0
 30
0.0
 11
146.05
 21
98.0
 31
0.0
  0
LINE
  5
111
330
1E
100
AcDbEntity
  8
0
100
AcDbLine
 10
141.05
 20
99.0
 30
0.0
 11
141.05
 21
125.0
 31
0.0
  0
LINE
  5
112
330
1E
100
AcDbEntity
  8
0
100
AcDbLine
 10
139.05
 20
101.0
 30
0.0
 11
141.05
 21
99.0
 31
0.0
  0
LINE
  5
113
330
1E
100
AcDbEntity
  8
0
100
AcDbLine
 10
138.55
 20
99.29999999999999
 30
0.0
 11
139.05
 21
99.0
 31
0.0
  0
LINE
  5
114
330
1E
100
AcDbEntity
  8
0
100
AcDbLine
 10
138.55
 20
99.29999999999999
 30
0.0
 11
138.55
 21
112.0
 31
0.0
  0
LINE
  5
115
330
1E
100
AcDbEntity
  8
0
100
AcDbLine
 10
135.85
 20
96.5
 30
0.0
 11
138.55
 21
99.29999999999999
 31
0.0
  0
LINE
  5
116
330
1E
100
AcDbEntity
  8
0
100
AcDbLine
 10
101.0499999999999
 20
96.5
 30
0.0
 11
105.6499999999999
 21
92.9
 31
0.0
  0
LINE
  5
117
330
1E
100
AcDbEntity
  8
0
100
AcDbLine
 10
153.05
 20
102.4999999999999
 30
0.0
 11
153.05
 21
104.2
 31
0.0
  0
LINE
  5
118
330
1E
100
AcDbEntity
  8
0
100
AcDbLine
 10
153.05
 20
102.4999999999999
 30
0.0
 11
153.05
 21
101.4
 31
0.0
  0
LINE
  5
11A
330
1E
100
AcDbEntity
  8
0
100
AcDbLine
 10
153.05
 20
101.4
 30
0.0
 11
153.05
 21
102.4999999999999
 31
0.0
  0
LINE
  5
11B
330
1E
100
AcDbEntity
  8
0
100
AcDbLine
 10
153.05
 20
101.4
 30
0.0
 11
153.05
 21
101.0
 31
0.0
  0
LINE
  5
11D
330
1E
100
AcDbEntity
  8
0
100
AcDbLine
 10
97.55
 20
101.0
 30
0.0
 11
101.0499999999999
 21
96.5
 31
0.0
  0
LINE
  5
11E
330
1E
100
AcDbEntity
  8
0
100
AcDbLine
 10
81.9152
 20
96.4
 30
0.0
 11
83.48269999999999
 21
94.59999999999999
 31
0.0
  0
LINE
  5
11F
330
1E
100
AcDbEntity
  8
0
100
AcDbLine
 10
135.7499999999999
 20
95.29999999999999
 30
0.0
 11
139.05
 21
99.0
 31
0.0
  0
LINE
  5
120
330
1E
100
AcDbEntity
  8
0
100
AcDbLine
 10
80.8375
 20
99.29999999999999
 30
0.0
 11
81.9152
 21
96.4
 31
0.0
  0
LINE
  5
121
330
1E
100
AcDbEntity
  8
0
100
AcDbLine
 10
85.45900000000001
 20
93.665
 30
0.0
 11
90.82399999999999
 21
89.823
 31
0.0
  0
LINE
  5
122
330
1E
100
AcDbEntity
  8
0
100
AcDbLine
 10
157.55
 20
95.4667
 30
0.0
 11
157.55
 21
103.4667
 31
0.0
  0
LINE
  5
123
330
1E
100
AcDbEntity
  8
0
100
AcDbLine
 10
157.55
 20
95.4667
 30
0.0
 11
157.55
 21
88.40000000000001
 31
0.0
  0
LINE
  5
124
330
1E
100
AcDbEntity
  8
0
100
AcDbLine
 10
157.05
 20
96.4
 30
0.0
 11
157.05
 21
104.0
 31
0.0
  0
LINE
  5
125
330
1E
100
AcDbEntity
  8
0
100
AcDbLine
 10
157.05
 20
96.4
 30
0.0
 11
157.05
 21
89.8667
 31
0.0
  0
LINE
  5
126
330
1E
100
AcDbEntity
  8
0
100
AcDbLine
 10
157.05
 20
96.4
 30
0.0
 11
157.05
 21
101.0
 31
0.0
  0
LINE
  5
127
330
1E
100
AcDbEntity
  8
0
100
AcDbLine
 10
157.55
 20
103.4667
 30
0.0
 11
157.55
 21
112.0001
 31
0.0
  0
LINE
  5
128
330
1E
100
AcDbEntity
  8
0
100
AcDbLine
 10
157.55
 20
103.4667
 30
0.0
 11
157.55
 21
95.4667
 31
0.0
  0
LINE
  5
129
330
1E
100
AcDbEntity
  8
0
100
AcDbLine
 10
79.83830000000001
 20
107.4
 30
0.0
 11
80.34769999999999
 21
103.0
 31
0.0
  0
LINE
  5
12A
330
1E
100
AcDbEntity
  8
0
100
AcDbLine
 10
79.83830000000001
 20
116.5999999999999
 30
0.0
 11
80.34769999999999
 21
121.0
 31
0.0
  0
LINE
  5
12B
330
1E
100
AcDbEntity
  8
0
100
AcDbLine
 10
80.34769999999999
 20
121.0
 30
0.0
 11
80.8375
 21
124.7
 31
0.0
  0
LINE
  5
12C
330
1E
100
AcDbEntity
  8
0
100
AcDbLine
 10
94.04999999999999
 20
112.0
 30
0.0
 11
94.84999999999999
 21
117.7999999999999
 31
0.0
  0
LINE
  5
12D
330
1E
100
AcDbEntity
  8
0
100
AcDbLine
 10
94.84999999999999
 20
106.2
 30
0.0
 11
97.05
 21
100.8
 31
0.0
  0
LINE
  5
131
330
1E
100
AcDbEntity
  8
0
100
AcDbLine
 10
153.05
 20
109.2
 30
0.0
 11
153.05
 21
112.0
 31
0.0
  0
LINE
  5
132
330
1E
100
AcDbEntity
  8
0
100
AcDbLine
 10
153.05
 20
109.2
 30
0.0
 11
153.05
 21
106.4999999999999
 31
0.0
  0
LINE
  5
133
330
1E
100
AcDbEntity
  8
0
100
AcDbLine
 10
153.05
 20
106.4999999999999
 30
0.0
 11
153.05
 21
109.2
 31
0.0
  0
LINE
  5
134
330
1E
100
AcDbEntity
  8
0
100
AcDbLine
 10
153.05
 20
106.4999999999999
 30
0.0
 11
153.05
 21
104.2
 31
0.0
  0
LINE
  5
135
330
1E
100
AcDbEntity
  8
0
100
AcDbLine
 10
153.05
 20
104.2
 30
0.0
 11
153.05
 21
106.4999999999999
 31
0.0
  0
LINE
  5
136
330
1E
100
AcDbEntity
  8
0
100
AcDbLine
 10
153.05
 20
104.2
 30
0.0
 11
153.05
 21
102.4999999999999
 31
0.0
  0
LINE
  5
139
330
1E
100
AcDbEntity
  8
0
100
AcDbLine
 10
153.05
 20
112.0
 30
0.0
 11
153.05
 21
114.7999999999999
 31
0.0
  0
LINE
  5
13A
330
1E
100
AcDbEntity
  8
0
100
AcDbLine
 10
153.05
 20
112.0
 30
0.0
 11
153.05
 21
109.2
 31
0.0
  0
LINE
  5
13C
330
1E
100
AcDbEntity
  8
0
100
AcDbLine
 10
138.55
 20
112.0
 30
0.0
 11
138.55
 21
99.29999999999999
 31
0.0
  0
LINE
  5
13D
330
1E
100
AcDbEntity
  8
0
100
AcDbLine
 10
138.55
 20
112.0
 30
0.0
 11
138.55
 21
124.7
 31
0.0
  0
LINE
  5
13E
330
1E
100
AcDbEntity
  8
0
100
AcDbLine
 10
95.35
 20
106.2999999999999
 30
0.0
 11
97.55
 21
101.0
 31
0.0
  0
LINE
  5
13F
330
1E
100
AcDbEntity
  8
0
100
AcDbLine
 10
94.84999999999999
 20
117.7999999999999
 30
0.0
 11
97.05
 21
123.1999999999999
 31
0.0
  0
LINE
  5
141
330
1E
100
AcDbEntity
  8
0
100
AcDbLine
 10
153.05
 20
114.7999999999999
 30
0.0
 11
153.05
 21
117.5
 31
0.0
  0
LINE
  5
142
330
1E
100
AcDbEntity
  8
0
100
AcDbLine
 10
153.05
 20
114.7999999999999
 30
0.0
 11
153.05
 21
112.0
 31
0.0
  0
LINE
  5
143
330
1E
100
AcDbEntity
  8
0
100
AcDbLine
 10
153.05
 20
117.5
 30
0.0
 11
153.05
 21
119.7999999999999
 31
0.0
  0
LINE
  5
144
330
1E
100
AcDbEntity
  8
0
100
AcDbLine
 10
153.05
 20
117.5
 30
0.0
 11
153.05
 21
114.7999999999999
 31
0.0
  0
LINE
  5
146
330
1E
100
AcDbEntity
  8
0
100
AcDbLine
 10
153.05
 20
119.7999999999999
 30
0.0
 11
153.05
 21
121.5
 31
0.0
  0
LINE
  5
147
330
1E
100
AcDbEntity
  8
0
100
AcDbLine
 10
153.05
 20
119.7999999999999
 30
0.0
 11
153.05
 21
117.5
 31
0.0
  0
LINE
  5
149
330
1E
100
AcDbEntity
  8
0
100
AcDbLine
 10
153.05
 20
123.0
 30
0.0
 11
153.05
 21
122.5999999999999
 31
0.0
  0
LINE
  5
14A
330
1E
100
AcDbEntity
  8
0
100
AcDbLine
 10
153.05
 20
123.0
 30
0.0
 11
157.05
 21
123.0
 31
0.0
  0
LINE
  5
14B
330
1E
100
AcDbEntity
  8
0
100
AcDbLine
 10
153.05
 20
121.5
 30
0.0
 11
153.05
 21
122.5999999999999
 31
0.0
  0
LINE
  5
14C
330
1E
100
AcDbEntity
  8
0
100
AcDbLine
 10
153.05
 20
121.5
 30
0.0
 11
153.05
 21
119.7999999999999
 31
0.0
  0
LINE
  5
14D
330
1E
100
AcDbEntity
  8
0
100
AcDbLine
 10
157.05
 20
123.0
 30
0.0
 11
157.05
 21
127.6
 31
0.0
  0
LINE
  5
14E
330
1E
100
AcDbEntity
  8
0
100
AcDbLine
 10
153.05
 20
122.5999999999999
 30
0.0
 11
153.05
 21
123.0
 31
0.0
  0
LINE
  5
14F
330
1E
100
AcDbEntity
  8
0
100
AcDbLine
 10
153.05
 20
122.5999999999999
 30
0.0
 11
153.05
 21
121.5
 31
0.0
  0
LINE
  5
151
330
1E
100
AcDbEntity
  8
0
100
AcDbLine
 10
139.05
 20
123.0
 30
0.0
 11
141.05
 21
125.0
 31
0.0
  0
LINE
  5
152
330
1E
100
AcDbEntity
  8
0
100
AcDbLine
 10
97.05
 20
123.1999999999999
 30
0.0
 11
100.65
 21
127.9
 31
0.0
  0
LINE
  5
157
330
1E
100
AcDbEntity
  8
0
100
AcDbLine
 10
151.05
 20
125.0
 30
0.0
 11
153.05
 21
123.0
 31
0.0
  0
LINE
  5
158
330
1E
100
AcDbEntity
  8
0
100
AcDbLine
 10
141.05
 20
125.0
 30
0.0
 11
143.05
 21
126.0
 31
0.0
  0
LINE
  5
15B
330
1E
100
AcDbEntity
  8
0
100
AcDbLine
 10
138.55
 20
124.7
 30
0.0
 11
138.55
 21
112.0
 31
0.0
  0
LINE
  5
15C
330
1E
100
AcDbEntity
  8
0
100
AcDbLine
 10
138.55
 20
124.7
 30
0.0
 11
139.05
 21
125.0
 31
0.0
  0
LINE
  5
15D
330
1E
100
AcDbEntity
  8
0
100
AcDbLine
 10
97.55
 20
123.0
 30
0.0
 11
101.0499999999999
 21
127.5
 31
0.0
  0
LINE
  5
15E
330
1E
100
AcDbEntity
  8
0
100
AcDbLine
 10
95.35
 20
117.7
 30
0.0
 11
97.55
 21
123.0
 31
0.0
  0
LINE
  5
15F
330
1E
100
AcDbEntity
  8
0
100
AcDbLine
 10
94.55
 20
112.0
 30
0.0
 11
95.35
 21
106.2999999999999
 31
0.0
  0
LINE
  5
160
330
1E
100
AcDbEntity
  8
0
100
AcDbLine
 10
94.55
 20
112.0
 30
0.0
 11
95.35
 21
117.7
 31
0.0
  0
LINE
  5
161
330
1E
100
AcDbEntity
  8
0
100
AcDbLine
 10
80.8375
 20
124.7
 30
0.0
 11
81.9152
 21
127.6
 31
0.0
  0
LINE
  5
162
330
1E
100
AcDbEntity
  8
0
100
AcDbLine
 10
146.05
 20
126.0
 30
0.0
 11
149.05
 21
126.0
 31
0.0
  0
LINE
  5
163
330
1E
100
AcDbEntity
  8
0
100
AcDbLine
 10
149.05
 20
126.0
 30
0.0
 11
151.05
 21
125.0
 31
0.0
  0
LINE
  5
164
330
1E
100
AcDbEntity
  8
0
100
AcDbLine
 10
143.05
 20
126.0
 30
0.0
 11
146.05
 21
126.0
 31
0.0
  0
LINE
  5
165
330
1E
100
AcDbEntity
  8
0
100
AcDbLine
 10
135.85
 20
127.5
 30
0.0
 11
138.55
 21
124.7
 31
0.0
  0
LINE
  5
166
330
1E
100
AcDbEntity
  8
0
100
AcDbLine
 10
101.0499999999999
 20
127.5
 30
0.0
 11
105.6499999999999
 21
131.0999999999999
 31
0.0
  0
LINE
  5
167
330
1E
100
AcDbEntity
  8
0
100
AcDbLine
 10
81.9152
 20
127.6
 30
0.0
 11
83.48269999999999
 21
129.4
 31
0.0
  0
LINE
  5
168
330
1E
100
AcDbEntity
  8
0
100
AcDbLine
 10
139.05
 20
125.0
 30
0.0
 11
139.05
 21
131.0
 31
0.0
  0
LINE
  5
169
330
1E
100
AcDbEntity
  8
0
100
AcDbLine
 10
157.05
 20
120.0
 30
0.0
 11
157.05
 21
127.6
 31
0.0
  0
LINE
  5
16A
330
1E
100
AcDbEntity
  8
0
100
AcDbLine
 10
157.05
 20
120.0
 30
0.0
 11
157.05
 21
112.0001
 31
0.0
  0
LINE
  5
16B
330
1E
100
AcDbEntity
  8
0
100
AcDbLine
 10
136.25
 20
127.9
 30
0.0
 11
139.05
 21
125.0
 31
0.0
  0
LINE
  5
16C
330
1E
100
AcDbEntity
  8
0
100
AcDbLine
 10
100.65
 20
127.9
 30
0.0
 11
105.3499999999999
 21
131.4999999999999
 31
0.0
  0
LINE
  5
16D
330
1E
100
AcDbEntity
  8
0
100
AcDbLine
 10
157.05
 20
127.6
 30
0.0
 11
157.05
 21
134.1332999999999
 31
0.0
  0
LINE
  5
16E
330
1E
100
AcDbEntity
  8
0
100
AcDbLine
 10
157.05
 20
127.6
 30
0.0
 11
157.05
 21
120.0
 31
0.0
  0
LINE
  5
16F
330
1E
100
AcDbEntity
  8
0
100
AcDbLine
 10
157.05
 20
127.6
 30
0.0
 11
157.05
 21
123.0
 31
0.0
  0
LINE
  5
170
330
1E
100
AcDbEntity
  8
0
100
AcDbLine
 10
157.55
 20
120.5332999999999
 30
0.0
 11
157.55
 21
128.5333
 31
0.0
  0
LINE
  5
171
330
1E
100
AcDbEntity
  8
0
100
AcDbLine
 10
157.55
 20
128.5333
 30
0.0
 11
157.55
 21
135.5999999999999
 31
0.0
  0
LINE
  5
172
330
1E
100
AcDbEntity
  8
0
100
AcDbLine
 10
157.55
 20
128.5333
 30
0.0
 11
157.55
 21
120.5332999999999
 31
0.0
  0
LINE
  5
173
330
1E
100
AcDbEntity
  8
0
100
AcDbLine
 10
157.55
 20
112.0001
 30
0.0
 11
157.55
 21
103.4667
 31
0.0
  0
LINE
  5
174
330
1E
100
AcDbEntity
  8
0
100
AcDbLine
 10
157.55
 20
112.0001
 30
0.0
 11
157.55
 21
120.5332999999999
 31
0.0
  0
LINE
  5
175
330
1E
100
AcDbEntity
  8
0
100
AcDbLine
 10
157.05
 20
112.0001
 30
0.0
 11
157.05
 21
104.0
 31
0.0
  0
LINE
  5
176
330
1E
100
AcDbEntity
  8
0
100
AcDbLine
 10
157.05
 20
112.0001
 30
0.0
 11
157.05
 21
120.0
 31
0.0
  0
LINE
  5
177
330
1E
100
AcDbEntity
  8
0
100
AcDbLine
 10
157.05
 20
104.0
 30
0.0
 11
157.05
 21
112.0001
 31
0.0
  0
LINE
  5
178
330
1E
100
AcDbEntity
  8
0
100
AcDbLine
 10
157.05
 20
104.0
 30
0.0
 11
157.05
 21
96.4
 31
0.0
  0
LINE
  5
179
330
1E
100
AcDbEntity
  8
0
100
AcDbLine
 10
185.05
 20
120.7999999999999
 30
0.0
 11
185.05
 21
111.9998999999999
 31
0.0
  0
LINE
  5
17A
330
1E
100
AcDbEntity
  8
0
100
AcDbLine
 10
185.05
 20
120.7999999999999
 30
0.0
 11
185.05
 21
128.9333
 31
0.0
  0
LINE
  5
17B
330
1E
100
AcDbEntity
  8
0
100
AcDbLine
 10
70.9136
 20
129.633863682604
 30
0.0
 11
87.70000000000001
 21
131.0
 31
0.0
  0
LINE
  5
17C
330
1E
100
AcDbEntity
  8
0
100
AcDbLine
 10
70.9136
 20
129.633863682604
 30
0.0
 11
70.9136
 21
132.2221999999999
 31
0.0
  0
LINE
  5
17D
330
1E
100
AcDbEntity
  8
0
100
AcDbLine
 10
88.6902
 20
131.0
 30
0.0
 11
91.3512
 21
131.0
 31
0.0
  0
LINE
  5
17E
330
1E
100
AcDbEntity
  8
0
100
AcDbLine
 10
71.61660000000001
 20
132.2221999999999
 30
0.0
 11
73.2166
 21
132.2221999999999
 31
0.0
  0
LINE
  5
17F
330
1E
100
AcDbEntity
  8
0
100
AcDbLine
 10
73.2166
 20
132.2221999999999
 30
0.0
 11
74.2166
 21
132.2221999999999
 31
0.0
  0
LINE
  5
180
330
1E
100
AcDbEntity
  8
0
100
AcDbLine
 10
74.2166
 20
132.2221999999999
 30
0.0
 11
74.55
 21
132.2221999999999
 31
0.0
  0
LINE
  5
181
330
1E
100
AcDbEntity
  8
0
100
AcDbLine
 10
74.55
 20
132.2221999999999
 30
0.0
 11
74.55
 21
142.8443
 31
0.0
  0
LINE
  5
182
330
1E
100
AcDbEntity
  8
0
100
AcDbLine
 10
64.55
 20
132.2221999999999
 30
0.0
 11
67.15
 21
132.2221999999999
 31
0.0
  0
LINE
  5
183
330
1E
100
AcDbEntity
  8
0
100
AcDbLine
 10
67.15
 20
132.2221999999999
 30
0.0
 11
69.55
 21
132.2221999999999
 31
0.0
  0
LINE
  5
184
330
1E
100
AcDbEntity
  8
0
100
AcDbLine
 10
69.55
 20
132.2221999999999
 30
0.0
 11
71.61660000000001
 21
132.2221999999999
 31
0.0
  0
LINE
  5
185
330
1E
100
AcDbEntity
  8
0
100
AcDbLine
 10
61.95
 20
132.2221999999999
 30
0.0
 11
64.55
 21
132.2221999999999
 31
0.0
  0
LINE
  5
186
330
1E
100
AcDbEntity
  8
0
100
AcDbLine
 10
70.9136
 20
132.2221999999999
 30
0.0
 11
70.9136
 21
129.633863682604
 31
0.0
  0
LINE
  5
187
330
1E
100
AcDbEntity
  8
0
100
AcDbLine
 10
89.04999999999999
 20
133.0
 30
0.0
 11
90.05
 21
137.0
 31
0.0
  0
LINE
  5
188
330
1E
100
AcDbEntity
  8
0
100
AcDbLine
 10
87.70000000000001
 20
131.0
 30
0.0
 11
88.6902
 21
131.0
 31
0.0
  0
LINE
  5
189
330
1E
100
AcDbEntity
  8
0
100
AcDbLine
 10
87.70000000000001
 20
131.0
 30
0.0
 11
89.04999999999999
 21
133.0
 31
0.0
  0
LINE
  5
18A
330
1E
100
AcDbEntity
  8
0
100
AcDbLine
 10
101.4
 20
131.0
 30
0.0
 11
104.697222222222
 21
131.0
 31
0.0
  0
LINE
  5
18B
330
1E
100
AcDbEntity
  8
0
100
AcDbLine
 10
95.7455
 20
131.0
 30
0.0
 11
101.4
 21
131.0
 31
0.0
  0
LINE
  5
18C
330
1E
100
AcDbEntity
  8
0
100
AcDbLine
 10
105.6499999999999
 20
131.0999999999999
 30
0.0
 11
110.85
 21
133.1999999999999
 31
0.0
  0
LINE
  5
18D
330
1E
100
AcDbEntity
  8
0
100
AcDbLine
 10
91.3512
 20
131.0
 30
0.0
 11
95.7455
 21
131.0
 31
0.0
  0
LINE
  5
18E
330
1E
100
AcDbEntity
  8
0
100
AcDbLine
 10
90.05
 20
137.0
 30
0.0
 11
91.05
 21
138.0
 31
0.0
  0
LINE
  5
18F
330
1E
100
AcDbEntity
  8
0
100
AcDbLine
 10
90.05
 20
137.0
 30
0.0
 11
108.25
 21
137.0
 31
0.0
  0
LINE
  5
190
330
1E
100
AcDbEntity
  8
0
100
AcDbLine
 10
116.5499999999999
 20
134.0
 30
0.0
 11
123.55
 21
133.1999999999999
 31
0.0
  0
LINE
  5
191
330
1E
100
AcDbEntity
  8
0
100
AcDbLine
 10
110.85
 20
133.1999999999999
 30
0.0
 11
116.5499999999999
 21
134.0
 31
0.0
  0
LINE
  5
192
330
1E
100
AcDbEntity
  8
0
100
AcDbLine
 10
108.25
 20
137.0
 30
0.0
 11
114.5499999999999
 21
137.0
 31
0.0
  0
LINE
  5
193
330
1E
100
AcDbEntity
  8
0
100
AcDbLine
 10
91.85
 20
138.0
 30
0.0
 11
94.15
 21
138.0
 31
0.0
  0
LINE
  5
194
330
1E
100
AcDbEntity
  8
0
100
AcDbLine
 10
94.15
 20
138.0
 30
0.0
 11
97.85
 21
138.0
 31
0.0
  0
LINE
  5
195
330
1E
100
AcDbEntity
  8
0
100
AcDbLine
 10
97.85
 20
138.0
 30
0.0
 11
102.8499999999999
 21
138.0
 31
0.0
  0
LINE
  5
196
330
1E
100
AcDbEntity
  8
0
100
AcDbLine
 10
102.8499999999999
 20
138.0
 30
0.0
 11
108.45
 21
138.0
 31
0.0
  0
LINE
  5
197
330
1E
100
AcDbEntity
  8
0
100
AcDbLine
 10
108.45
 20
138.0
 30
0.0
 11
114.5499999999999
 21
138.0
 31
0.0
  0
LINE
  5
198
330
1E
100
AcDbEntity
  8
0
100
AcDbLine
 10
91.05
 20
138.0
 30
0.0
 11
91.05
 21
140.507
 31
0.0
  0
LINE
  5
199
330
1E
100
AcDbEntity
  8
0
100
AcDbLine
 10
91.05
 20
138.0
 30
0.0
 11
91.85
 21
138.0
 31
0.0
  0
LINE
  5
19A
330
1E
100
AcDbEntity
  8
0
100
AcDbLine
 10
114.5499999999999
 20
137.0
 30
0.0
 11
120.8499999999999
 21
137.0
 31
0.0
  0
LINE
  5
19B
330
1E
100
AcDbEntity
  8
0
100
AcDbLine
 10
123.55
 20
133.1999999999999
 30
0.0
 11
130.15
 21
131.0999999999999
 31
0.0
  0
LINE
  5
19C
330
1E
100
AcDbEntity
  8
0
100
AcDbLine
 10
130.15
 20
131.0999999999999
 30
0.0
 11
135.85
 21
127.5
 31
0.0
  0
LINE
  5
19D
330
1E
100
AcDbEntity
  8
0
100
AcDbLine
 10
126.75
 20
137.0
 30
0.0
 11
131.85
 21
137.0
 31
0.0
  0
LINE
  5
19E
330
1E
100
AcDbEntity
  8
0
100
AcDbLine
 10
120.8499999999999
 20
137.0
 30
0.0
 11
126.75
 21
137.0
 31
0.0
  0
LINE
  5
1A0
330
1E
100
AcDbEntity
  8
0
100
AcDbLine
 10
135.85
 20
137.0
 30
0.0
 11
138.25
 21
137.0
 31
0.0
  0
LINE
  5
1A1
330
1E
100
AcDbEntity
  8
0
100
AcDbLine
 10
131.85
 20
137.0
 30
0.0
 11
135.85
 21
137.0
 31
0.0
  0
LINE
  5
1A2
330
1E
100
AcDbEntity
  8
0
100
AcDbLine
 10
137.25
 20
138.0
 30
0.0
 11
138.05
 21
138.0
 31
0.0
  0
LINE
  5
1A3
330
1E
100
AcDbEntity
  8
0
100
AcDbLine
 10
134.9499999999999
 20
138.0
 30
0.0
 11
137.25
 21
138.0
 31
0.0
  0
LINE
  5
1A4
330
1E
100
AcDbEntity
  8
0
100
AcDbLine
 10
131.25
 20
138.0
 30
0.0
 11
134.9499999999999
 21
138.0
 31
0.0
  0
LINE
  5
1A5
330
1E
100
AcDbEntity
  8
0
100
AcDbLine
 10
126.2499999999999
 20
138.0
 30
0.0
 11
131.25
 21
138.0
 31
0.0
  0
LINE
  5
1A6
330
1E
100
AcDbEntity
  8
0
100
AcDbLine
 10
120.65
 20
138.0
 30
0.0
 11
126.2499999999999
 21
138.0
 31
0.0
  0
LINE
  5
1A7
330
1E
100
AcDbEntity
  8
0
100
AcDbLine
 10
114.5499999999999
 20
138.0
 30
0.0
 11
120.65
 21
138.0
 31
0.0
  0
LINE
  5
1A8
330
1E
100
AcDbEntity
  8
0
100
AcDbLine
 10
139.05
 20
137.0
 30
0.0
 11
139.05
 21
131.0
 31
0.0
  0
LINE
  5
1A9
330
1E
100
AcDbEntity
  8
0
100
AcDbLine
 10
139.05
 20
131.0
 30
0.0
 11
139.05
 21
137.0
 31
0.0
  0
LINE
  5
1AA
330
1E
100
AcDbEntity
  8
0
100
AcDbLine
 10
139.05
 20
131.0
 30
0.0
 11
139.05
 21
125.0
 31
0.0
  0
LINE
  5
1AB
330
1E
100
AcDbEntity
  8
0
100
AcDbLine
 10
138.25
 20
137.0
 30
0.0
 11
139.05
 21
137.0
 31
0.0
  0
LINE
  5
1AC
330
1E
100
AcDbEntity
  8
0
100
AcDbLine
 10
138.05
 20
138.0
 30
0.0
 11
138.05
 21
141.507
 31
0.0
  0
LINE
  5
1AD
330
1E
100
AcDbEntity
  8
0
100
AcDbLine
 10
138.05
 20
138.0
 30
0.0
 11
139.05
 21
137.0
 31
0.0
  0
LINE
  5
1AE
330
1E
100
AcDbEntity
  8
0
100
AcDbLine
 10
91.05
 20
140.507
 30
0.0
 11
91.05
 21
138.0
 31
0.0
  0
LINE
  5
1AF
330
1E
100
AcDbEntity
  8
0
100
AcDbLine
 10
108.25
 20
140.507
 30
0.0
 11
114.5499999999999
 21
140.507
 31
0.0
  0
LINE
  5
1B0
330
1E
100
AcDbEntity
  8
0
100
AcDbLine
 10
102.3499999999999
 20
140.507
 30
0.0
 11
108.25
 21
140.507
 31
0.0
  0
LINE
  5
1B1
330
1E
100
AcDbEntity
  8
0
100
AcDbLine
 10
97.25000000000001
 20
140.507
 30
0.0
 11
102.3499999999999
 21
140.507
 31
0.0
  0
LINE
  5
1B2
330
1E
100
AcDbEntity
  8
0
100
AcDbLine
 10
93.34999999999999
 20
140.507
 30
0.0
 11
97.25000000000001
 21
140.507
 31
0.0
  0
LINE
  5
1B3
330
1E
100
AcDbEntity
  8
0
100
AcDbLine
 10
90.95
 20
140.507
 30
0.0
 11
93.34999999999999
 21
140.507
 31
0.0
  0
LINE
  5
1B4
330
1E
100
AcDbEntity
  8
0
100
AcDbLine
 10
90.95
 20
140.507
 30
0.0
 11
91.05
 21
140.507
 31
0.0
  0
LINE
  5
1B5
330
1E
100
AcDbEntity
  8
0
100
AcDbLine
 10
90.05
 20
140.507
 30
0.0
 11
90.95
 21
140.507
 31
0.0
  0
LINE
  5
1B6
330
1E
100
AcDbEntity
  8
0
100
AcDbLine
 10
114.5499999999999
 20
140.507
 30
0.0
 11
114.5499999999999
 21
138.0
 31
0.0
  0
LINE
  5
1B7
330
1E
100
AcDbEntity
  8
0
100
AcDbLine
 10
114.5499999999999
 20
140.507
 30
0.0
 11
120.8499999999999
 21
142.307
 31
0.0
  0
LINE
  5
1B8
330
1E
100
AcDbEntity
  8
0
100
AcDbLine
 10
157.05
 20
139.1999999999999
 30
0.0
 11
157.05
 21
142.1332999999999
 31
0.0
  0
LINE
  5
1B9
330
1E
100
AcDbEntity
  8
0
100
AcDbLine
 10
157.05
 20
139.1999999999999
 30
0.0
 11
157.05
 21
134.1332999999999
 31
0.0
  0
LINE
  5
1BA
330
1E
100
AcDbEntity
  8
0
100
AcDbLine
 10
157.55
 20
135.5999999999999
 30
0.0
 11
157.55
 21
140.8
 31
0.0
  0
LINE
  5
1BB
330
1E
100
AcDbEntity
  8
0
100
AcDbLine
 10
157.55
 20
135.5999999999999
 30
0.0
 11
157.55
 21
128.5333
 31
0.0
  0
LINE
  5
1BC
330
1E
100
AcDbEntity
  8
0
100
AcDbLine
 10
157.55
 20
140.8
 30
0.0
 11
157.55
 21
144.1333
 31
0.0
  0
LINE
  5
1BD
330
1E
100
AcDbEntity
  8
0
100
AcDbLine
 10
157.55
 20
140.8
 30
0.0
 11
157.55
 21
135.5999999999999
 31
0.0
  0
LINE
  5
1BE
330
1E
100
AcDbEntity
  8
0
100
AcDbLine
 10
157.05
 20
134.1332999999999
 30
0.0
 11
157.05
 21
127.6
 31
0.0
  0
LINE
  5
1BF
330
1E
100
AcDbEntity
  8
0
100
AcDbLine
 10
157.05
 20
134.1332999999999
 30
0.0
 11
157.05
 21
139.1999999999999
 31
0.0
  0
LINE
  5
1C0
330
1E
100
AcDbEntity
  8
0
100
AcDbLine
 10
185.05
 20
128.9333
 30
0.0
 11
185.05
 21
120.7999999999999
 31
0.0
  0
LINE
  5
1C1
330
1E
100
AcDbEntity
  8
0
100
AcDbLine
 10
185.05
 20
128.9333
 30
0.0
 11
185.05
 21
136.0
 31
0.0
  0
LINE
  5
1C2
330
1E
100
AcDbEntity
  8
0
100
AcDbLine
 10
185.05
 20
136.0
 30
0.0
 11
185.05
 21
128.9333
 31
0.0
  0
LINE
  5
1C3
330
1E
100
AcDbEntity
  8
0
100
AcDbLine
 10
185.05
 20
136.0
 30
0.0
 11
185.05
 21
141.4667
 31
0.0
  0
LINE
  5
1C4
330
1E
100
AcDbEntity
  8
0
100
AcDbLine
 10
107.95
 20
141.507
 30
0.0
 11
114.5499999999999
 21
141.507
 31
0.0
  0
LINE
  5
1C5
330
1E
100
AcDbEntity
  8
0
100
AcDbLine
 10
101.8499999999999
 20
141.507
 30
0.0
 11
107.95
 21
141.507
 31
0.0
  0
LINE
  5
1C6
330
1E
100
AcDbEntity
  8
0
100
AcDbLine
 10
96.55000000000001
 20
141.507
 30
0.0
 11
101.8499999999999
 21
141.507
 31
0.0
  0
LINE
  5
1C7
330
1E
100
AcDbEntity
  8
0
100
AcDbLine
 10
92.45
 20
141.507
 30
0.0
 11
96.55000000000001
 21
141.507
 31
0.0
  0
LINE
  5
1C8
330
1E
100
AcDbEntity
  8
0
100
AcDbLine
 10
89.95
 20
141.507
 30
0.0
 11
92.45
 21
141.507
 31
0.0
  0
LINE
  5
1C9
330
1E
100
AcDbEntity
  8
0
100
AcDbLine
 10
89.04999999999999
 20
141.507
 30
0.0
 11
89.04999999999999
 21
168.400758231992
 31
0.0
  0
LINE
  5
1CA
330
1E
100
AcDbEntity
  8
0
100
AcDbLine
 10
89.04999999999999
 20
141.507
 30
0.0
 11
89.95
 21
141.507
 31
0.0
  0
LINE
  5
1CB
330
1E
100
AcDbEntity
  8
0
100
AcDbLine
 10
89.04999999999999
 20
141.507
 30
0.0
 11
90.05
 21
140.507
 31
0.0
  0
LINE
  5
1CC
330
1E
100
AcDbEntity
  8
0
100
AcDbLine
 10
138.05
 20
141.507
 30
0.0
 11
138.05
 21
138.0
 31
0.0
  0
LINE
  5
1CD
330
1E
100
AcDbEntity
  8
0
100
AcDbLine
 10
114.5499999999999
 20
141.507
 30
0.0
 11
121.15
 21
143.307
 31
0.0
  0
LINE
  5
1CE
330
1E
100
AcDbEntity
  8
0
100
AcDbLine
 10
64.55
 20
142.8443
 30
0.0
 11
67.15
 21
142.8443
 31
0.0
  0
LINE
  5
1CF
330
1E
100
AcDbEntity
  8
0
100
AcDbLine
 10
64.55
 20
144.4610999999999
 30
0.0
 11
66.81659999999999
 21
144.4610999999999
 31
0.0
  0
LINE
  5
1D0
330
1E
100
AcDbEntity
  8
0
100
AcDbLine
 10
61.95
 20
142.8443
 30
0.0
 11
64.55
 21
142.8443
 31
0.0
  0
LINE
  5
1D1
330
1E
100
AcDbEntity
  8
0
100
AcDbLine
 10
62.2834
 20
144.4610999999999
 30
0.0
 11
64.55
 21
144.4610999999999
 31
0.0
  0
LINE
  5
1D2
330
1E
100
AcDbEntity
  8
0
100
AcDbLine
 10
67.15
 20
142.8443
 30
0.0
 11
69.55
 21
142.8443
 31
0.0
  0
LINE
  5
1D3
330
1E
100
AcDbEntity
  8
0
100
AcDbLine
 10
69.55
 20
142.8443
 30
0.0
 11
71.61660000000001
 21
142.8443
 31
0.0
  0
LINE
  5
1D4
330
1E
100
AcDbEntity
  8
0
100
AcDbLine
 10
66.81659999999999
 20
144.4610999999999
 30
0.0
 11
68.88339999999999
 21
144.4610999999999
 31
0.0
  0
LINE
  5
1D5
330
1E
100
AcDbEntity
  8
0
100
AcDbLine
 10
68.88339999999999
 20
144.4610999999999
 30
0.0
 11
70.6834
 21
144.4610999999999
 31
0.0
  0
LINE
  5
1D6
330
1E
100
AcDbEntity
  8
0
100
AcDbLine
 10
71.61660000000001
 20
142.8443
 30
0.0
 11
73.2166
 21
142.8443
 31
0.0
  0
LINE
  5
1D7
330
1E
100
AcDbEntity
  8
0
100
AcDbLine
 10
70.6834
 20
144.4610999999999
 30
0.0
 11
72.08339999999999
 21
144.4610999999999
 31
0.0
  0
LINE
  5
1D8
330
1E
100
AcDbEntity
  8
0
100
AcDbLine
 10
72.08339999999999
 20
144.4610999999999
 30
0.0
 11
72.88339999999999
 21
144.4610999999999
 31
0.0
  0
LINE
  5
1D9
330
1E
100
AcDbEntity
  8
0
100
AcDbLine
 10
74.55
 20
142.8443
 30
0.0
 11
74.55
 21
132.2221999999999
 31
0.0
  0
LINE
  5
1DA
330
1E
100
AcDbEntity
  8
0
100
AcDbLine
 10
73.2166
 20
142.8443
 30
0.0
 11
74.2166
 21
142.8443
 31
0.0
  0
LINE
  5
1DB
330
1E
100
AcDbEntity
  8
0
100
AcDbLine
 10
74.2166
 20
142.8443
 30
0.0
 11
74.55
 21
142.8443
 31
0.0
  0
LINE
  5
1DC
330
1E
100
AcDbEntity
  8
0
100
AcDbLine
 10
72.88339999999999
 20
144.4610999999999
 30
0.0
 11
73.2166
 21
144.4610999999999
 31
0.0
  0
LINE
  5
1DD
330
1E
100
AcDbEntity
  8
0
100
AcDbLine
 10
73.2166
 20
144.4610999999999
 30
0.0
 11
74.55
 21
142.8443
 31
0.0
  0
LINE
  5
1DE
330
1E
100
AcDbEntity
  8
0
100
AcDbLine
 10
64.55
 20
145.0
 30
0.0
 11
73.2166
 21
144.4610999999999
 31
0.0
  0
LINE
  5
1DF
330
1E
100
AcDbEntity
  8
0
100
AcDbLine
 10
120.8499999999999
 20
142.307
 30
0.0
 11
126.75
 21
143.907
 31
0.0
  0
LINE
  5
1E0
330
1E
100
AcDbEntity
  8
0
100
AcDbLine
 10
126.75
 20
143.907
 30
0.0
 11
131.85
 21
145.307
 31
0.0
  0
LINE
  5
1E1
330
1E
100
AcDbEntity
  8
0
100
AcDbLine
 10
121.15
 20
143.307
 30
0.0
 11
127.2499999999999
 21
145.007
 31
0.0
  0
LINE
  5
1E2
330
1E
100
AcDbEntity
  8
0
100
AcDbLine
 10
131.85
 20
145.307
 30
0.0
 11
135.7499999999999
 21
146.307
 31
0.0
  0
LINE
  5
1E3
330
1E
100
AcDbEntity
  8
0
100
AcDbLine
 10
127.2499999999999
 20
145.007
 30
0.0
 11
132.55
 21
146.507
 31
0.0
  0
LINE
  5
1E4
330
1E
100
AcDbEntity
  8
0
100
AcDbLine
 10
137.55
 20
144.507
 30
0.0
 11
138.05
 21
141.507
 31
0.0
  0
LINE
  5
1E5
330
1E
100
AcDbEntity
  8
0
100
AcDbLine
 10
157.05
 20
142.1332999999999
 30
0.0
 11
157.05
 21
139.1999999999999
 31
0.0
  0
LINE
  5
1E6
330
1E
100
AcDbEntity
  8
0
100
AcDbLine
 10
157.05
 20
142.1332999999999
 30
0.0
 11
157.05
 21
143.3333
 31
0.0
  0
LINE
  5
1E7
330
1E
100
AcDbEntity
  8
0
100
AcDbLine
 10
157.55
 20
144.1333
 30
0.0
 11
157.55
 21
145.3333
 31
0.0
  0
LINE
  5
1E8
330
1E
100
AcDbEntity
  8
0
100
AcDbLine
 10
157.55
 20
144.1333
 30
0.0
 11
157.55
 21
140.8
 31
0.0
  0
LINE
  5
1E9
330
1E
100
AcDbEntity
  8
0
100
AcDbLine
 10
159.05
 20
146.0
 30
0.0
 11
185.05
 21
146.0
 31
0.0
  0
LINE
  5
1EA
330
1E
100
AcDbEntity
  8
0
100
AcDbLine
 10
157.55
 20
145.3333
 30
0.0
 11
159.05
 21
146.0
 31
0.0
  0
LINE
  5
1EB
330
1E
100
AcDbEntity
  8
0
100
AcDbLine
 10
157.55
 20
145.3333
 30
0.0
 11
157.55
 21
144.1333
 31
0.0
  0
LINE
  5
1EC
330
1E
100
AcDbEntity
  8
0
100
AcDbLine
 10
157.05
 20
143.3333
 30
0.0
 11
157.05
 21
142.1332999999999
 31
0.0
  0
LINE
  5
1ED
330
1E
100
AcDbEntity
  8
0
100
AcDbLine
 10
157.05
 20
143.3333
 30
0.0
 11
157.55
 21
145.3333
 31
0.0
  0
LINE
  5
1EE
330
1E
100
AcDbEntity
  8
0
100
AcDbLine
 10
185.05
 20
141.4667
 30
0.0
 11
185.05
 21
136.0
 31
0.0
  0
LINE
  5
1EF
330
1E
100
AcDbEntity
  8
0
100
AcDbLine
 10
185.05
 20
141.4667
 30
0.0
 11
185.05
 21
144.8
 31
0.0
  0
LINE
  5
1F0
330
1E
100
AcDbEntity
  8
0
100
AcDbLine
 10
185.05
 20
144.8
 30
0.0
 11
185.05
 21
141.4667
 31
0.0
  0
LINE
  5
1F1
330
1E
100
AcDbEntity
  8
0
100
AcDbLine
 10
185.05
 20
144.8
 30
0.0
 11
185.05
 21
146.0
 31
0.0
  0
LINE
  5
1F2
330
1E
100
AcDbEntity
  8
0
100
AcDbLine
 10
89.04999999999999
 20
168.400758231992
 30
0.0
 11
89.04999999999999
 21
141.507
 31
0.0
  0
LINE
  5
1F3
330
1E
100
AcDbEntity
  8
0
100
AcDbLine
 10
108.15
 20
176.0069999999999
 30
0.0
 11
114.5499999999999
 21
176.0069999999999
 31
0.0
  0
LINE
  5
1F4
330
1E
100
AcDbEntity
  8
0
100
AcDbLine
 10
114.5499999999999
 20
176.0069999999999
 30
0.0
 11
120.95
 21
176.0069999999999
 31
0.0
  0
LINE
  5
1F5
330
1E
100
AcDbEntity
  8
0
100
AcDbLine
 10
120.95
 20
176.0069999999999
 30
0.0
 11
126.95
 21
176.0069999999999
 31
0.0
  0
LINE
  5
1F6
330
1E
100
AcDbEntity
  8
0
100
AcDbLine
 10
126.95
 20
176.0069999999999
 30
0.0
 11
132.25
 21
176.0069999999999
 31
0.0
  0
LINE
  5
1F7
330
1E
100
AcDbEntity
  8
0
100
AcDbLine
 10
135.7499999999999
 20
146.307
 30
0.0
 11
138.15
 21
147.0069999999999
 31
0.0
  0
LINE
  5
1F8
330
1E
100
AcDbEntity
  8
0
100
AcDbLine
 10
132.55
 20
146.507
 30
0.0
 11
136.65
 21
147.6069999999999
 31
0.0
  0
LINE
  5
1F9
330
1E
100
AcDbEntity
  8
0
100
AcDbLine
 10
136.65
 20
147.6069999999999
 30
0.0
 11
139.15
 21
148.207
 31
0.0
  0
LINE
  5
1FA
330
1E
100
AcDbEntity
  8
0
100
AcDbLine
 10
132.25
 20
176.0069999999999
 30
0.0
 11
136.15
 21
176.0069999999999
 31
0.0
  0
LINE
  5
1FB
330
1E
100
AcDbEntity
  8
0
100
AcDbLine
 10
102.15
 20
176.0069999999999
 30
0.0
 11
108.15
 21
176.0069999999999
 31
0.0
  0
LINE
  5
1FC
330
1E
100
AcDbEntity
  8
0
100
AcDbLine
 10
96.85
 20
176.0069999999999
 30
0.0
 11
102.15
 21
176.0069999999999
 31
0.0
  0
LINE
  5
1FD
330
1E
100
AcDbEntity
  8
0
100
AcDbLine
 10
92.94999999999999
 20
176.0069999999999
 30
0.0
 11
96.85
 21
176.0069999999999
 31
0.0
  0
LINE
  5
1FE
330
1E
100
AcDbEntity
  8
0
100
AcDbLine
 10
90.44999999999999
 20
176.0069999999999
 30
0.0
 11
92.94999999999999
 21
176.0069999999999
 31
0.0
  0
LINE
  5
1FF
330
1E
100
AcDbEntity
  8
0
100
AcDbLine
 10
136.15
 20
176.0069999999999
 30
0.0
 11
138.65
 21
176.0069999999999
 31
0.0
  0
LINE
  5
200
330
1E
100
AcDbEntity
  8
0
100
AcDbLine
 10
139.05
 20
147.2069999999999
 30
0.0
 11
140.05
 21
148.507
 31
0.0
  0
LINE
  5
201
330
1E
100
AcDbEntity
  8
0
100
AcDbLine
 10
138.15
 20
147.0069999999999
 30
0.0
 11
139.05
 21
147.2069999999999
 31
0.0
  0
LINE
  5
202
330
1E
100
AcDbEntity
  8
0
100
AcDbLine
 10
139.15
 20
148.207
 30
0.0
 11
140.05
 21
148.507
 31
0.0
  0
LINE
  5
203
330
1E
100
AcDbEntity
  8
0
100
AcDbLine
 10
140.05
 20
148.507
 30
0.0
 11
140.05
 21
174.507
 31
0.0
  0
LINE
  5
204
330
1E
100
AcDbEntity
  8
0
100
AcDbLine
 10
140.05
 20
174.507
 30
0.0
 11
140.05
 21
148.507
 31
0.0
  0
LINE
  5
205
330
1E
100
AcDbEntity
  8
0
100
AcDbLine
 10
139.55
 20
176.0069999999999
 30
0.0
 11
140.05
 21
174.507
 31
0.0
  0
LINE
  5
206
330
1E
100
AcDbEntity
  8
0
100
AcDbLine
 10
138.05
 20
176.507
 30
0.0
 11
139.55
 21
176.0069999999999
 31
0.0
  0
LINE
  5
207
330
1E
100
AcDbEntity
  8
0
100
AcDbLine
 10
138.65
 20
176.0069999999999
 30
0.0
 11
139.55
 21
176.0069999999999
 31
0.0
  0
LINE
  5
208
330
1E
100
AcDbEntity
  8
0
100
AcDbLine
 10
137.0082524271839
 20
146.6739902912619
 30
0.0
 11
137.55
 21
144.507
 31
0.0
  0
LINE
  5
209
330
1E
100
AcDbEntity
  8
0
100
AcDbLine
 10
185.05
 20
146.0
 30
0.0
 11
185.05
 21
144.8
 31
0.0
  0
LINE
  5
20A
330
1E
100
AcDbEntity
  8
0
100
AcDbLine
 10
185.05
 20
111.9998999999999
 30
0.0
 11
185.05
 21
103.2
 31
0.0
  0
LINE
  5
20B
330
1E
100
AcDbEntity
  8
0
100
AcDbLine
 10
185.05
 20
111.9998999999999
 30
0.0
 11
185.05
 21
120.7999999999999
 31
0.0
  0
LINE
  5
20C
330
1E
100
AcDbEntity
  8
0
100
AcDbLine
 10
185.05
 20
103.2
 30
0.0
 11
185.05
 21
95.06669999999999
 31
0.0
  0
LINE
  5
20D
330
1E
100
AcDbEntity
  8
0
100
AcDbLine
 10
185.05
 20
103.2
 30
0.0
 11
185.05
 21
111.9998999999999
 31
0.0
  0
LINE
  5
20E
330
1E
100
AcDbEntity
  8
0
100
AcDbLine
 10
185.05
 20
95.06669999999999
 30
0.0
 11
185.05
 21
88.0
 31
0.0
  0
LINE
  5
20F
330
1E
100
AcDbEntity
  8
0
100
AcDbLine
 10
185.05
 20
95.06669999999999
 30
0.0
 11
185.05
 21
103.2
 31
0.0
  0
LINE
  5
210
330
1E
100
AcDbEntity
  8
0
100
AcDbLine
 10
64.55
 20
90.0
 30
0.0
 11
67.54999999999999
 21
90.0
 31
0.0
  0
LINE
  5
211
330
1E
100
AcDbEntity
  8
0
100
AcDbLine
 10
61.55
 20
90.0
 30
0.0
 11
64.55
 21
90.0
 31
0.0
  0
LINE
  5
212
330
1E
100
AcDbEntity
  8
0
100
AcDbLine
 10
62.65
 20
60.0
 30
0.0
 11
64.55
 21
60.0
 31
0.0
  0
LINE
  5
213
330
1E
100
AcDbEntity
  8
0
100
AcDbLine
 10
60.85
 20
0.10122
 30
0.0
 11
62.65
 21
0.0262499999999994
 31
0.0
  0
LINE
  5
214
330
1E
100
AcDbEntity
  8
0
100
AcDbLine
 10
62.65
 20
0.0262499999999994
 30
0.0
 11
64.55
 21
-0.0000000000000007
 31
0.0
  0
LINE
  5
215
330
1E
100
AcDbEntity
  8
0
100
AcDbLine
 10
55.45
 20
60.0
 30
0.0
 11
57.05
 21
60.0
 31
0.0
  0
LINE
  5
216
330
1E
100
AcDbEntity
  8
0
100
AcDbLine
 10
55.45
 20
60.0
 30
0.0
 11
57.14999999999999
 21
60.0
 31
0.0
  0
LINE
  5
21B
330
1E
100
AcDbEntity
  8
0
100
AcDbLine
 10
58.1864
 20
128.598079348932
 30
0.0
 11
70.9136
 21
129.633863682604
 31
0.0
  0
LINE
  5
21C
330
1E
100
AcDbEntity
  8
0
100
AcDbLine
 10
83.48269999999999
 20
129.4
 30
0.0
 11
85.12168066588401
 21
130.3244019209063
 31
0.0
  0
LINE
  5
21D
330
1E
100
AcDbEntity
  8
0
100
AcDbLine
 10
85.12168066588401
 20
130.3244019209063
 30
0.0
 11
87.51197287814262
 21
130.9215786969537
 31
0.0
  0
LINE
  5
21E
330
1E
100
AcDbEntity
  8
0
100
AcDbLine
 10
136.25
 20
127.9
 30
0.0
 11
130.6335611930691
 21
131.6223544801673
 31
0.0
  0
LINE
  5
21F
330
1E
100
AcDbEntity
  8
0
100
AcDbLine
 10
130.6335611930691
 20
131.6223544801673
 30
0.0
 11
123.8055852823854
 21
133.7314196918137
 31
0.0
  0
LINE
  5
220
330
1E
100
AcDbEntity
  8
0
100
AcDbLine
 10
123.8055852823854
 20
133.7314196918137
 30
0.0
 11
116.8120818619974
 21
134.4757958053687
 31
0.0
  0
LINE
  5
221
330
1E
100
AcDbEntity
  8
0
100
AcDbLine
 10
116.8120818619974
 20
134.4757958053687
 30
0.0
 11
110.7703567846064
 21
133.7314196918137
 31
0.0
  0
LINE
  5
222
330
1E
100
AcDbEntity
  8
0
100
AcDbLine
 10
110.7703567846064
 20
133.7314196918137
 30
0.0
 11
105.3499999999999
 21
131.4999999999999
 31
0.0
  0
LINE
  5
223
330
1E
100
AcDbEntity
  8
0
100
AcDbLine
 10
94.84999999999999
 20
106.2
 30
0.0
 11
94.04999999999999
 21
112.0
 31
0.0
  0
LINE
  5
224
330
1E
100
AcDbEntity
  8
0
100
AcDbLine
 10
79.83830000000001
 20
107.4
 30
0.0
 11
79.7323374961976
 21
111.9729898006254
 31
0.0
  0
LINE
  5
225
330
1E
100
AcDbEntity
  8
0
100
AcDbLine
 10
79.7323374961976
 20
111.9729898006254
 30
0.0
 11
79.83830000000001
 21
116.5999999999999
 31
0.0
  0
LINE
  5
226
330
1E
100
AcDbEntity
  8
0
100
AcDbLine
 10
83.48269999999999
 20
94.59999999999999
 30
0.0
 11
85.45900000000001
 21
93.665
 31
0.0
  0
LINE
  5
227
330
1E
100
AcDbEntity
  8
0
100
AcDbLine
 10
116.5499999999999
 20
89.50000000000001
 30
0.0
 11
123.75
 21
90.29999999999999
 31
0.0
  0
LINE
  5
228
330
1E
100
AcDbEntity
  8
0
100
AcDbLine
 10
110.7499999999999
 20
90.29999999999999
 30
0.0
 11
105.178242392495
 21
92.37835589395178
 31
0.0
  0
LINE
  5
229
330
1E
100
AcDbEntity
  8
0
100
AcDbLine
 10
105.178242392495
 20
92.37835589395178
 30
0.0
 11
100.65
 21
96.09999999999999
 31
0.0
  0
LINE
  5
22A
330
1E
100
AcDbEntity
  8
0
100
AcDbLine
 10
120.915
 20
83.8
 30
0.0
 11
126.65
 21
86.2
 31
0.0
  0
ENDSEC
  0
SECTION
  2
OBJECTS
  0
DICTIONARY
  5
C
330
0
100
AcDbDictionary
  3
ACAD_GROUP
350
D
  3
ACAD_LAYOUT
350
19
  3
ACAD_MLINESTYLE
350
16
  3
ACAD_PLOTSETTINGS
350
18
  3
ACAD_PLOTSTYLENAME
350
E
  3
ACDBHEADERROUNDTRIPXREC
350
22E
  3
ACDBVARIABLEDICTIONARY
350
22B
  0
DICTIONARY
  5
250
330
1E
100
AcDbDictionary
280
     1
  3
ACAD_LAYOUTSELFREF
360
251
  0
DICTIONARY
  5
24E
330
1A
100
AcDbDictionary
280
     1
  3
ACAD_LAYOUTSELFREF
360
24F
  0
DICTIONARY
  5
D
102
{ACAD_REACTORS
330
C
102
}
330
C
100
AcDbDictionary
  0
DICTIONARY
  5
19
102
{ACAD_REACTORS
330
C
102
}
330
C
100
AcDbDictionary
  0
DICTIONARY
  5
16
102
{ACAD_REACTORS
330
C
102
}
330
C
100
AcDbDictionary
  3
STANDARD
350
17
  0
DICTIONARY
  5
18
102
{ACAD_REACTORS
330
C
102
}
330
C
100
AcDbDictionary
  0
ACDBDICTIONARYWDFLT
  5
E
102
{ACAD_REACTORS
330
C
102
}
330
C
100
AcDbDictionary
281
     1
  3
Normal
350
F
100
AcDbDictionaryWithDefault
340
F
  0
DICTIONARY
  5
22E
102
{ACAD_REACTORS
330
C
102
}
330
C
100
AcDbDictionary
  3
CEPSNTYPE
350
238
  3
FINGERPRINTGUID
350
239
  3
HYPERLINKBASE
350
231
  3
INSUNITS
350
237
  3
LAYOUTDICT
350
233
  3
LWETCUNION
350
236
  3
PLOTSETDICT
350
234
  3
PLOTSTYLNAMDICT
350
235
  3
PSVPSCALE
350
23B
  3
PUCSBASE
350
23E
  3
PUCSORGBACK
350
244
  3
PUCSORGBOTTOM
350
240
  3
PUCSORGFRONT
350
243
  3
PUCSORGLEFT
350
241
  3
PUCSORGRIGHT
350
242
  3
PUCSORGTOP
350
23F
  3
PUCSORTHOREF
350
23C
  3
PUCSORTHOVIEW
350
23D
  3
STYLESHEET
350
232
  3
TSTACKALIGN
350
22F
  3
TSTACKSIZE
350
230
  3
UCSBASE
350
247
  3
UCSORGBACK
350
24D
  3
UCSORGBOTTOM
350
249
  3
UCSORGFRONT
350
24C
  3
UCSORGLEFT
350
24A
  3
UCSORGRIGHT
350
24B
  3
UCSORGTOP
350
248
  3
UCSORTHOREF
350
245
  3
UCSORTHOVIEW
350
246
  3
VERSIONGUID
350
23A
  0
DICTIONARY
  5
22B
102
{ACAD_REACTORS
330
C
102
}
330
C
100
AcDbDictionary
  3
DIMASSOC
350
22C
  0
XRECORD
  5
251
102
{ACAD_REACTORS
330
250
102
}
330
250
100
AcDbXrecord
340
1E
  0
XRECORD
  5
24F
102
{ACAD_REACTORS
330
24E
102
}
330
24E
100
AcDbXrecord
340
1A
  0
MLINESTYLE
  5
17
102
{ACAD_REACTORS
330
16
102
}
330
16
100
AcDbMlineStyle
  2
STANDARD
 70
     0
  3

 62
   256
 51
90.0
 52
90.0
 71
     2
 49
0.5
 62
   256
  6
BYLAYER
 49
-0.5
 62
   256
  6
BYLAYER
  0
ACDBPLACEHOLDER
  5
F
102
{ACAD_REACTORS
330
E
102
}
330
E
100
AcDbPlaceHolder
280
     0
  0
XRECORD
  5
238
102
{ACAD_REACTORS
330
22E
102
}
330
22E
100
AcDbXrecord
 90
        0
  0
XRECORD
  5
239
102
{ACAD_REACTORS
330
22E
102
}
330
22E
100
AcDbXrecord
  1
{1732E1BB-F83E-439A-98AD-243D1C2C3344}
  0
XRECORD
  5
231
102
{ACAD_REACTORS
330
22E
102
}
330
22E
100
AcDbXrecord
  1

  0
XRECORD
  5
237
102
{ACAD_REACTORS
330
22E
102
}
330
22E
100
AcDbXrecord
 90
        0
  0
XRECORD
  5
233
102
{ACAD_REACTORS
330
22E
102
}
330
22E
100
AcDbXrecord
340
19
  0
XRECORD
  5
236
102
{ACAD_REACTORS
330
22E
102
}
330
22E
100
AcDbXrecord
 90
    10781
  0
XRECORD
  5
234
102
{ACAD_REACTORS
330
22E
102
}
330
22E
100
AcDbXrecord
340
18
  0
XRECORD
  5
235
102
{ACAD_REACTORS
330
22E
102
}
330
22E
100
AcDbXrecord
340
E
  0
XRECORD
  5
23B
102
{ACAD_REACTORS
330
22E
102
}
330
22E
100
AcDbXrecord
 40
0.0
  0
XRECORD
  5
23E
102
{ACAD_REACTORS
330
22E
102
}
330
22E
100
AcDbXrecord
340
0
  0
XRECORD
  5
244
102
{ACAD_REACTORS
330
22E
102
}
330
22E
100
AcDbXrecord
 10
0.0
 20
0.0
 30
0.0
  0
XRECORD
  5
240
102
{ACAD_REACTORS
330
22E
102
}
330
22E
100
AcDbXrecord
 10
0.0
 20
0.0
 30
0.0
  0
XRECORD
  5
243
102
{ACAD_REACTORS
330
22E
102
}
330
22E
100
AcDbXrecord
 10
0.0
 20
0.0
 30
0.0
  0
XRECORD
  5
241
102
{ACAD_REACTORS
330
22E
102
}
330
22E
100
AcDbXrecord
 10
0.0
 20
0.0
 30
0.0
  0
XRECORD
  5
242
102
{ACAD_REACTORS
330
22E
102
}
330
22E
100
AcDbXrecord
 10
0.0
 20
0.0
 30
0.0
  0
XRECORD
  5
23F
102
{ACAD_REACTORS
330
22E
102
}
330
22E
100
AcDbXrecord
 10
0.0
 20
0.0
 30
0.0
  0
XRECORD
  5
23C
102
{ACAD_REACTORS
330
22E
102
}
330
22E
100
AcDbXrecord
340
0
  0
XRECORD
  5
23D
102
{ACAD_REACTORS
330
22E
102
}
330
22E
100
AcDbXrecord
 70
     0
  0
XRECORD
  5
232
102
{ACAD_REACTORS
330
22E
102
}
330
22E
100
AcDbXrecord
  1

  0
XRECORD
  5
22F
102
{ACAD_REACTORS
330
22E
102
}
330
22E
100
AcDbXrecord
 90
        1
  0
XRECORD
  5
230
102
{ACAD_REACTORS
330
22E
102
}
330
22E
100
AcDbXrecord
 90
       70
  0
XRECORD
  5
247
102
{ACAD_REACTORS
330
22E
102
}
330
22E
100
AcDbXrecord
340
0
  0
XRECORD
  5
24D
102
{ACAD_REACTORS
330
22E
102
}
330
22E
100
AcDbXrecord
 10
0.0
 20
0.0
 30
0.0
  0
XRECORD
  5
249
102
{ACAD_REACTORS
330
22E
102
}
330
22E
100
AcDbXrecord
 10
0.0
 20
0.0
 30
0.0
  0
XRECORD
  5
24C
102
{ACAD_REACTORS
330
22E
102
}
330
22E
100
AcDbXrecord
 10
0.0
 20
0.0
 30
0.0
  0
XRECORD
  5
24A
102
{ACAD_REACTORS
330
22E
102
}
330
22E
100
AcDbXrecord
 10
0.0
 20
0.0
 30
0.0
  0
XRECORD
  5
24B
102
{ACAD_REACTORS
330
22E
102
}
330
22E
100
AcDbXrecord
 10
0.0
 20
0.0
 30
0.0
  0
XRECORD
  5
248
102
{ACAD_REACTORS
330
22E
102
}
330
22E
100
AcDbXrecord
 10
0.0
 20
0.0
 30
0.0
  0
XRECORD
  5
245
102
{ACAD_REACTORS
330
22E
102
}
330
22E
100
AcDbXrecord
340
0
  0
XRECORD
  5
246
102
{ACAD_REACTORS
330
22E
102
}
330
22E
100
AcDbXrecord
 70
     1
  0
XRECORD
  5
23A
102
{ACAD_REACTORS
330
22E
102
}
330
22E
100
AcDbXrecord
  1
{F7A4B8AB-493E-4DB5-8698-30396C68AF81}
  0
DICTIONARYVAR
  5
22C
102
{ACAD_REACTORS
330
22B
102
}
330
22B
100
DictionaryVariables
280
     0
  1
1
  0
ENDSEC
  0
EOF
