  0
SECTION
  2
HEADER
  9
$ACADVER
  1
AC1014
  9
$ACADMAINTVER
 70
     9
  9
$DWGCODEPAGE
  3
ANSI_1252
  9
$INSBASE
 10
0.0
 20
0.0
 30
0.0
  9
$EXTMIN
 10
0.0000000000000061
 20
0.0000000000000031
 30
0.0
  9
$EXTMAX
 10
220.0
 20
190.0
 30
0.0
  9
$LIMMIN
 10
0.0
 20
0.0
  9
$LIMMAX
 10
12.0
 20
9.0
  9
$ORTHOMODE
 70
     0
  9
$REGENMODE
 70
     1
  9
$FILLMODE
 70
     1
  9
$QTEXTMODE
 70
     0
  9
$MIRRTEXT
 70
     1
  9
$DRAGMODE
 70
     2
  9
$LTSCALE
 40
1.0
  9
$OSMODE
 70
    37
  9
$ATTMODE
 70
     1
  9
$TEXTSIZE
 40
0.2
  9
$TRACEWID
 40
0.05
  9
$TEXTSTYLE
  7
STANDARD
  9
$CLAYER
  8
0
  9
$CELTYPE
  6
CONTINUOUS
  9
$CECOLOR
 62
   256
  9
$CELTSCALE
 40
1.0
  9
$DELOBJ
 70
     1
  9
$DISPSILH
 70
     0
  9
$DIMSCALE
 40
1.0
  9
$DIMASZ
 40
0.18
  9
$DIMEXO
 40
0.0625
  9
$DIMDLI
 40
0.38
  9
$DIMRND
 40
0.0
  9
$DIMDLE
 40
0.0
  9
$DIMEXE
 40
0.18
  9
$DIMTP
 40
0.0
  9
$DIMTM
 40
0.0
  9
$DIMTXT
 40
0.18
  9
$DIMCEN
 40
0.09
  9
$DIMTSZ
 40
0.0
  9
$DIMTOL
 70
     0
  9
$DIMLIM
 70
     0
  9
$DIMTIH
 70
     1
  9
$DIMTOH
 70
     1
  9
$DIMSE1
 70
     0
  9
$DIMSE2
 70
     0
  9
$DIMTAD
 70
     0
  9
$DIMZIN
 70
     0
  9
$DIMBLK
  1

  9
$DIMASO
 70
     1
  9
$DIMSHO
 70
     1
  9
$DIMPOST
  1

  9
$DIMAPOST
  1

  9
$DIMALT
 70
     0
  9
$DIMALTD
 70
     2
  9
$DIMALTF
 40
25.4
  9
$DIMLFAC
 40
1.0
  9
$DIMTOFL
 70
     0
  9
$DIMTVP
 40
0.0
  9
$DIMTIX
 70
     0
  9
$DIMSOXD
 70
     0
  9
$DIMSAH
 70
     0
  9
$DIMBLK1
  1

  9
$DIMBLK2
  1

  9
$DIMSTYLE
  2
STANDARD
  9
$DIMCLRD
 70
     0
  9
$DIMCLRE
 70
     0
  9
$DIMCLRT
 70
     0
  9
$DIMTFAC
 40
1.0
  9
$DIMGAP
 40
0.09
  9
$DIMJUST
 70
     0
  9
$DIMSD1
 70
     0
  9
$DIMSD2
 70
     0
  9
$DIMTOLJ
 70
     1
  9
$DIMTZIN
 70
     0
  9
$DIMALTZ
 70
     0
  9
$DIMALTTZ
 70
     0
  9
$DIMFIT
 70
     3
  9
$DIMUPT
 70
     0
  9
$DIMUNIT
 70
     2
  9
$DIMDEC
 70
     4
  9
$DIMTDEC
 70
     4
  9
$DIMALTU
 70
     2
  9
$DIMALTTD
 70
     2
  9
$DIMTXSTY
  7
STANDARD
  9
$DIMAUNIT
 70
     0
  9
$LUNITS
 70
     2
  9
$LUPREC
 70
     4
  9
$SKETCHINC
 40
0.1
  9
$FILLETRAD
 40
0.0
  9
$AUNITS
 70
     0
  9
$AUPREC
 70
     0
  9
$MENU
  1
.
  9
$ELEVATION
 40
0.0
  9
$PELEVATION
 40
0.0
  9
$THICKNESS
 40
0.0
  9
$LIMCHECK
 70
     0
  9
$BLIPMODE
 70
     0
  9
$CHAMFERA
 40
0.0
  9
$CHAMFERB
 40
0.0
  9
$CHAMFERC
 40
0.0
  9
$CHAMFERD
 40
0.0
  9
$SKPOLY
 70
     0
  9
$TDCREATE
 40
2454700.330971134
  9
$TDUPDATE
 40
2454700.335044849
  9
$TDINDWG
 40
0.0040738889
  9
$TDUSRTIMER
 40
0.0040738889
  9
$USRTIMER
 70
     1
  9
$ANGBASE
 50
0.0
  9
$ANGDIR
 70
     0
  9
$PDMODE
 70
     0
  9
$PDSIZE
 40
0.0
  9
$PLINEWID
 40
0.0
  9
$COORDS
 70
     1
  9
$SPLFRAME
 70
     0
  9
$SPLINETYPE
 70
     6
  9
$SPLINESEGS
 70
     8
  9
$ATTDIA
 70
     0
  9
$ATTREQ
 70
     1
  9
$HANDLING
 70
 22529
  9
$HANDSEED
  5
205
  9
$SURFTAB1
 70
     6
  9
$SURFTAB2
 70
     6
  9
$SURFTYPE
 70
     6
  9
$SURFU
 70
     6
  9
$SURFV
 70
     6
  9
$UCSNAME
  2

  9
$UCSORG
 10
0.0
 20
0.0
 30
0.0
  9
$UCSXDIR
 10
1.0
 20
0.0
 30
0.0
  9
$UCSYDIR
 10
0.0
 20
1.0
 30
0.0
  9
$PUCSNAME
  2

  9
$PUCSORG
 10
0.0
 20
0.0
 30
0.0
  9
$PUCSXDIR
 10
1.0
 20
0.0
 30
0.0
  9
$PUCSYDIR
 10
0.0
 20
1.0
 30
0.0
  9
$USERI1
 70
     0
  9
$USERI2
 70
     0
  9
$USERI3
 70
     0
  9
$USERI4
 70
     0
  9
$USERI5
 70
     0
  9
$USERR1
 40
0.0
  9
$USERR2
 40
0.0
  9
$USERR3
 40
0.0
  9
$USERR4
 40
0.0
  9
$USERR5
 40
0.0
  9
$WORLDVIEW
 70
     1
  9
$SHADEDGE
 70
     3
  9
$SHADEDIF
 70
    70
  9
$TILEMODE
 70
     1
  9
$MAXACTVP
 70
    64
  9
$PINSBASE
 10
0.0
 20
0.0
 30
0.0
  9
$PLIMCHECK
 70
     0
  9
$PEXTMIN
 10
1.000000000000000E+20
 20
1.000000000000000E+20
 30
1.000000000000000E+20
  9
$PEXTMAX
 10
-1.000000000000000E+20
 20
-1.000000000000000E+20
 30
-1.000000000000000E+20
  9
$PLIMMIN
 10
0.0
 20
0.0
  9
$PLIMMAX
 10
12.0
 20
9.0
  9
$UNITMODE
 70
     0
  9
$VISRETAIN
 70
     1
  9
$PLINEGEN
 70
     0
  9
$PSLTSCALE
 70
     1
  9
$TREEDEPTH
 70
  3020
  9
$PICKSTYLE
 70
     1
  9
$CMLSTYLE
  2
STANDARD
  9
$CMLJUST
 70
     0
  9
$CMLSCALE
 40
1.0
  9
$PROXYGRAPHICS
 70
     1
  9
$MEASUREMENT
 70
     0
  0
ENDSEC
  0
SECTION
  2
CLASSES
  0
CLASS
  1
ACDBDICTIONARYWDFLT
  2
AcDbDictionaryWithDefault
  3
AutoCAD 2000
 90
        0
280
     0
281
     0
  0
CLASS
  1
ACDBPLACEHOLDER
  2
AcDbPlaceHolder
  3
AutoCAD 2000
 90
        0
280
     0
281
     0
  0
CLASS
  1
LAYOUT
  2
AcDbLayout
  3
AutoCAD 2000
 90
        0
280
     0
281
     0
  0
CLASS
  1
DICTIONARYVAR
  2
AcDbDictionaryVar
  3
AutoCAD 2000
 90
        0
280
     0
281
     0
  0
CLASS
  1
LONG_TRANSACTION
  2
AcDbLongTransaction
  3
AutoCAD 2000
 90
        0
280
     0
281
     0
  0
CLASS
  1
LWPOLYLINE
  2
AcDbPolyline
  3
AutoCAD 2000
 90
        0
280
     0
281
     1
  0
CLASS
  1
HATCH
  2
AcDbHatch
  3
AutoCAD 2000
 90
        0
280
     0
281
     1
  0
CLASS
  1
XRECORD
  2
AcDbXrecord
  3
AutoCAD 2000
 90
        0
280
     0
281
     0
  0
ENDSEC
  0
SECTION
  2
TABLES
  0
TABLE
  2
VPORT
  5
8
330
0
100
AcDbSymbolTable
 70
     2
  0
VPORT
  5
1E0
330
8
100
AcDbSymbolTableRecord
100
AcDbViewportTableRecord
  2
*ACTIVE
 70
     0
 10
0.0
 20
0.0
 11
1.0
 21
1.0
 12
110.0
 22
95.0
 13
0.0
 23
0.0
 14
1.0
 24
1.0
 15
0.0
 25
0.0
 16
0.0
 26
0.0
 36
1.0
 17
0.0
 27
0.0
 37
0.0
 40
191.4578005115089
 41
2.078104993597951
 42
50.0
 43
0.0
 44
0.0
 50
0.0
 51
0.0
 71
     0
 72
   100
 73
     1
 74
     3
 75
     0
 76
     0
 77
     0
 78
     0
  0
ENDTAB
  0
TABLE
  2
LTYPE
  5
5
330
0
100
AcDbSymbolTable
 70
     1
  0
LTYPE
  5
13
330
5
100
AcDbSymbolTableRecord
100
AcDbLinetypeTableRecord
  2
BYBLOCK
 70
     0
  3

 72
    65
 73
     0
 40
0.0
  0
LTYPE
  5
14
330
5
100
AcDbSymbolTableRecord
100
AcDbLinetypeTableRecord
  2
BYLAYER
 70
     0
  3

 72
    65
 73
     0
 40
0.0
  0
LTYPE
  5
15
330
5
100
AcDbSymbolTableRecord
100
AcDbLinetypeTableRecord
  2
CONTINUOUS
 70
     0
  3
Solid line
 72
    65
 73
     0
 40
0.0
  0
ENDTAB
  0
TABLE
  2
LAYER
  5
2
330
0
100
AcDbSymbolTable
 70
     1
  0
LAYER
  5
10
330
2
100
AcDbSymbolTableRecord
100
AcDbLayerTableRecord
  2
0
 70
     0
 62
     7
  6
CONTINUOUS
  0
ENDTAB
  0
TABLE
  2
STYLE
  5
3
330
0
100
AcDbSymbolTable
 70
     1
  0
STYLE
  5
11
330
3
100
AcDbSymbolTableRecord
100
AcDbTextStyleTableRecord
  2
STANDARD
 70
     0
 40
0.0
 41
1.0
 50
0.0
 71
     0
 42
0.2
  3
txt
  4

  0
ENDTAB
  0
TABLE
  2
VIEW
  5
6
330
0
100
AcDbSymbolTable
 70
     0
  0
ENDTAB
  0
TABLE
  2
UCS
  5
7
330
0
100
AcDbSymbolTable
 70
     0
  0
ENDTAB
  0
TABLE
  2
APPID
  5
9
330
0
100
AcDbSymbolTable
 70
     1
  0
APPID
  5
12
330
9
100
AcDbSymbolTableRecord
100
AcDbRegAppTableRecord
  2
ACAD
 70
     0
  0
ENDTAB
  0
TABLE
  2
DIMSTYLE
  5
A
330
0
100
AcDbSymbolTable
 70
     1
  0
DIMSTYLE
105
1D7
330
A
100
AcDbSymbolTableRecord
100
AcDbDimStyleTableRecord
  2
STANDARD
 70
     0
  3

  4

  5

  6

  7

 40
1.0
 41
0.18
 42
0.0625
 43
0.38
 44
0.18
 45
0.0
 46
0.0
 47
0.0
 48
0.0
140
0.18
141
0.09
142
0.0
143
25.4
144
1.0
145
0.0
146
1.0
147
0.09
 71
     0
 72
     0
 73
     1
 74
     1
 75
     0
 76
     0
 77
     0
 78
     0
170
     0
171
     2
172
     0
173
     0
174
     0
175
     0
176
     0
177
     0
178
     0
270
     2
271
     4
272
     4
273
     2
274
     2
340
11
275
     0
280
     0
281
     0
282
     0
283
     1
284
     0
285
     0
286
     0
287
     3
288
     0
  0
ENDTAB
  0
TABLE
  2
BLOCK_RECORD
  5
1
330
0
100
AcDbSymbolTable
 70
     0
  0
BLOCK_RECORD
  5
1E
102
{ACAD_XDICTIONARY
360
203
102
}
330
1
100
AcDbSymbolTableRecord
100
AcDbBlockTableRecord
  2
*MODEL_SPACE
  0
BLOCK_RECORD
  5
1A
102
{ACAD_XDICTIONARY
360
201
102
}
330
1
100
AcDbSymbolTableRecord
100
AcDbBlockTableRecord
  2
*PAPER_SPACE
  0
ENDTAB
  0
ENDSEC
  0
SECTION
  2
BLOCKS
  0
BLOCK
  5
1F
330
1E
100
AcDbEntity
  8
0
100
AcDbBlockBegin
  2
*MODEL_SPACE
 70
     0
 10
0.0
 20
0.0
 30
0.0
  3
*MODEL_SPACE
  1

  0
ENDBLK
  5
20
330
1E
100
AcDbEntity
  8
0
100
AcDbBlockEnd
  0
BLOCK
  5
1B
330
1A
100
AcDbEntity
 67
     1
  8
0
100
AcDbBlockBegin
  2
*PAPER_SPACE
 70
     0
 10
0.0
 20
0.0
 30
0.0
  3
*PAPER_SPACE
  1

  0
ENDBLK
  5
1C
330
1A
100
AcDbEntity
 67
     1
  8
0
100
AcDbBlockEnd
  0
ENDSEC
  0
SECTION
  2
ENTITIES
  0
LINE
  5
22
330
1E
100
AcDbEntity
  8
0
100
AcDbLine
 10
87.0
 20
107.0
 30
0.0
 11
90.0
 21
20.0
 31
0.0
  0
LINE
  5
23
330
1E
100
AcDbEntity
  8
0
100
AcDbLine
 10
87.0
 20
107.0
 30
0.0
 11
90.0
 21
20.0
 31
0.0
  0
LINE
  5
24
330
1E
100
AcDbEntity
  8
0
100
AcDbLine
 10
87.5
 20
107.0
 30
0.0
 11
90.5
 21
20.0
 31
0.0
  0
LINE
  5
25
330
1E
100
AcDbEntity
  8
0
100
AcDbLine
 10
87.5
 20
107.0
 30
0.0
 11
90.5
 21
20.0
 31
0.0
  0
LINE
  5
26
330
1E
100
AcDbEntity
  8
0
100
AcDbLine
 10
87.06839999999999
 20
110.0829999999999
 30
0.0
 11
87.5
 21
107.0
 31
0.0
  0
LINE
  5
27
330
1E
100
AcDbEntity
  8
0
100
AcDbLine
 10
77.0
 20
117.0
 30
0.0
 11
80.17000000000001
 21
116.5599999999999
 31
0.0
  0
LINE
  5
28
330
1E
100
AcDbEntity
  8
0
100
AcDbLine
 10
80.17000000000001
 20
116.5599999999999
 30
0.0
 11
82.9
 21
115.23
 31
0.0
  0
LINE
  5
29
330
1E
100
AcDbEntity
  8
0
100
AcDbLine
 10
85.66599999999999
 20
113.3229999999999
 30
0.0
 11
87.06839999999999
 21
110.0829999999999
 31
0.0
  0
LINE
  5
2A
330
1E
100
AcDbEntity
  8
0
100
AcDbLine
 10
83.3669
 20
115.6439999999999
 30
0.0
 11
85.66599999999999
 21
113.3229999999999
 31
0.0
  0
LINE
  5
2B
330
1E
100
AcDbEntity
  8
0
100
AcDbLine
 10
82.9
 20
115.23
 30
0.0
 11
85.23999999999999
 21
112.9199999999999
 31
0.0
  0
LINE
  5
2C
330
1E
100
AcDbEntity
  8
0
100
AcDbLine
 10
85.23999999999999
 20
112.9199999999999
 30
0.0
 11
86.65
 21
110.07
 31
0.0
  0
LINE
  5
2D
330
1E
100
AcDbEntity
  8
0
100
AcDbLine
 10
35.0
 20
117.0
 30
0.0
 11
77.0
 21
117.0
 31
0.0
  0
LINE
  5
2E
330
1E
100
AcDbEntity
  8
0
100
AcDbLine
 10
86.65
 20
110.07
 30
0.0
 11
87.0
 21
107.0
 31
0.0
  0
LINE
  5
2F
330
1E
100
AcDbEntity
  8
0
100
AcDbLine
 10
30.8
 20
117.0
 30
0.0
 11
35.0
 21
117.0
 31
0.0
  0
LINE
  5
30
330
1E
100
AcDbEntity
  8
0
100
AcDbLine
 10
26.6
 20
117.0
 30
0.0
 11
30.8
 21
117.0
 31
0.0
  0
LINE
  5
31
330
1E
100
AcDbEntity
  8
0
100
AcDbLine
 10
23.3
 20
117.0
 30
0.0
 11
26.6
 21
117.0
 31
0.0
  0
LINE
  5
32
330
1E
100
AcDbEntity
  8
0
100
AcDbLine
 10
20.69999999999999
 20
117.0
 30
0.0
 11
23.3
 21
117.0
 31
0.0
  0
LINE
  5
33
330
1E
100
AcDbEntity
  8
0
100
AcDbLine
 10
19.1
 20
117.0
 30
0.0
 11
20.69999999999999
 21
117.0
 31
0.0
  0
LINE
  5
34
330
1E
100
AcDbEntity
  8
0
100
AcDbLine
 10
80.4471
 20
117.091
 30
0.0
 11
83.3669
 21
115.6439999999999
 31
0.0
  0
LINE
  5
35
330
1E
100
AcDbEntity
  8
0
100
AcDbLine
 10
77.0
 20
117.5
 30
0.0
 11
80.4471
 21
117.091
 31
0.0
  0
LINE
  5
36
330
1E
100
AcDbEntity
  8
0
100
AcDbLine
 10
35.0
 20
117.5
 30
0.0
 11
77.0
 21
117.5
 31
0.0
  0
LINE
  5
37
330
1E
100
AcDbEntity
  8
0
100
AcDbLine
 10
30.6
 20
117.5
 30
0.0
 11
35.0
 21
117.5
 31
0.0
  0
LINE
  5
38
330
1E
100
AcDbEntity
  8
0
100
AcDbLine
 10
26.5
 20
117.5
 30
0.0
 11
30.6
 21
117.5
 31
0.0
  0
LINE
  5
39
330
1E
100
AcDbEntity
  8
0
100
AcDbLine
 10
23.0
 20
117.5
 30
0.0
 11
26.5
 21
117.5
 31
0.0
  0
LINE
  5
3A
330
1E
100
AcDbEntity
  8
0
100
AcDbLine
 10
20.3
 20
117.5
 30
0.0
 11
23.0
 21
117.5
 31
0.0
  0
LINE
  5
3B
330
1E
100
AcDbEntity
  8
0
100
AcDbLine
 10
18.6
 20
117.5
 30
0.0
 11
20.3
 21
117.5
 31
0.0
  0
LINE
  5
3C
330
1E
100
AcDbEntity
  8
0
100
AcDbLine
 10
18.5
 20
117.0
 30
0.0
 11
19.1
 21
117.0
 31
0.0
  0
LINE
  5
3D
330
1E
100
AcDbEntity
  8
0
100
AcDbLine
 10
18.0
 20
117.5
 30
0.0
 11
18.0
 21
131.0
 31
0.0
  0
LINE
  5
3E
330
1E
100
AcDbEntity
  8
0
100
AcDbLine
 10
18.0
 20
117.5
 30
0.0
 11
18.5
 21
117.0
 31
0.0
  0
LINE
  5
3F
330
1E
100
AcDbEntity
  8
0
100
AcDbLine
 10
18.0
 20
117.5
 30
0.0
 11
18.6
 21
117.5
 31
0.0
  0
LINE
  5
40
330
1E
100
AcDbEntity
  8
0
100
AcDbLine
 10
88.0
 20
120.0
 30
0.0
 11
88.8
 21
125.7
 31
0.0
  0
LINE
  5
41
330
1E
100
AcDbEntity
  8
0
100
AcDbLine
 10
88.0
 20
120.0
 30
0.0
 11
95.33329999999999
 21
57.5
 31
0.0
  0
LINE
  5
42
330
1E
100
AcDbEntity
  8
0
100
AcDbLine
 10
18.0
 20
131.0
 30
0.0
 11
18.0
 21
117.5
 31
0.0
  0
LINE
  5
43
330
1E
100
AcDbEntity
  8
0
100
AcDbLine
 10
18.0
 20
131.0
 30
0.0
 11
18.0
 21
144.5
 31
0.0
  0
LINE
  5
44
330
1E
100
AcDbEntity
  8
0
100
AcDbLine
 10
87.5000000000006
 20
120.000000000004
 30
0.0
 11
88.3
 21
125.8279999999999
 31
0.0
  0
LINE
  5
45
330
1E
100
AcDbEntity
  8
0
100
AcDbLine
 10
88.3
 20
125.8279999999999
 30
0.0
 11
90.5
 21
131.2019999999999
 31
0.0
  0
LINE
  5
46
330
1E
100
AcDbEntity
  8
0
100
AcDbLine
 10
87.5
 20
120.0
 30
0.0
 11
88.3
 21
125.8
 31
0.0
  0
LINE
  5
47
330
1E
100
AcDbEntity
  8
0
100
AcDbLine
 10
87.5
 20
120.0
 30
0.0
 11
95.0
 21
57.5
 31
0.0
  0
LINE
  5
48
330
1E
100
AcDbEntity
  8
0
100
AcDbLine
 10
93.00920000000001
 20
10.40699999999999
 30
0.0
 11
96.2451
 21
6.177699999999999
 31
0.0
  0
LINE
  5
49
330
1E
100
AcDbEntity
  8
0
100
AcDbLine
 10
92.611
 20
10.10839999999999
 30
0.0
 11
95.8469
 21
5.82941
 31
0.0
  0
LINE
  5
4A
330
1E
100
AcDbEntity
  8
0
100
AcDbLine
 10
91.2171
 20
14.8353
 30
0.0
 11
93.00920000000001
 21
10.40699999999999
 31
0.0
  0
LINE
  5
4B
330
1E
100
AcDbEntity
  8
0
100
AcDbLine
 10
90.6694
 20
14.7358
 30
0.0
 11
92.611
 21
10.10839999999999
 31
0.0
  0
LINE
  5
4C
330
1E
100
AcDbEntity
  8
0
100
AcDbLine
 10
90.5
 20
20.0
 30
0.0
 11
91.2171
 21
14.8353
 31
0.0
  0
LINE
  5
4D
330
1E
100
AcDbEntity
  8
0
100
AcDbLine
 10
90.0
 20
20.0
 30
0.0
 11
90.6694
 21
14.7358
 31
0.0
  0
LINE
  5
4E
330
1E
100
AcDbEntity
  8
0
100
AcDbLine
 10
90.0
 20
20.0
 30
0.0
 11
90.7
 21
14.9
 31
0.0
  0
LINE
  5
4F
330
1E
100
AcDbEntity
  8
0
100
AcDbLine
 10
88.8
 20
125.7
 30
0.0
 11
90.90000000000001
 21
130.9
 31
0.0
  0
LINE
  5
50
330
1E
100
AcDbEntity
  8
0
100
AcDbLine
 10
90.90000000000001
 20
130.9
 30
0.0
 11
94.50000000000001
 21
135.4999999999999
 31
0.0
  0
LINE
  5
51
330
1E
100
AcDbEntity
  8
0
100
AcDbLine
 10
88.3
 20
125.8
 30
0.0
 11
90.5
 21
131.1999999999999
 31
0.0
  0
LINE
  5
52
330
1E
100
AcDbEntity
  8
0
100
AcDbLine
 10
90.5
 20
131.2019999999999
 30
0.0
 11
90.5878048780487
 21
131.314634146341
 31
0.0
  0
LINE
  5
53
330
1E
100
AcDbEntity
  8
0
100
AcDbLine
 10
90.5
 20
131.1999999999999
 30
0.0
 11
94.1
 21
135.8999999999999
 31
0.0
  0
LINE
  5
55
330
1E
100
AcDbEntity
  8
0
100
AcDbLine
 10
100.0784
 20
3.29184
 30
0.0
 11
104.4593
 21
1.35135
 31
0.0
  0
LINE
  5
56
330
1E
100
AcDbEntity
  8
0
100
AcDbLine
 10
99.8793
 20
2.74453
 30
0.0
 11
104.2600999999999
 21
0.8040330000000029
 31
0.0
  0
LINE
  5
57
330
1E
100
AcDbEntity
  8
0
100
AcDbLine
 10
96.2451
 20
6.177699999999999
 30
0.0
 11
100.0784
 21
3.29184
 31
0.0
  0
LINE
  5
58
330
1E
100
AcDbEntity
  8
0
100
AcDbLine
 10
95.8469
 20
5.82941
 30
0.0
 11
99.8793
 21
2.74453
 31
0.0
  0
LINE
  5
59
330
1E
100
AcDbEntity
  8
0
100
AcDbLine
 10
95.33329999999999
 20
57.5
 30
0.0
 11
95.86669999999999
 21
53.7
 31
0.0
  0
LINE
  5
72
330
1E
100
AcDbEntity
  8
0
100
AcDbLine
 10
95.86669999999999
 20
53.7
 30
0.0
 11
97.2667
 21
50.2333
 31
0.0
  0
LINE
  5
73
330
1E
100
AcDbEntity
  8
0
100
AcDbLine
 10
97.2667
 20
50.2333
 30
0.0
 11
99.6667
 21
47.16669999999999
 31
0.0
  0
LINE
  5
74
330
1E
100
AcDbEntity
  8
0
100
AcDbLine
 10
95.5333
 20
53.6333
 30
0.0
 11
97.0
 21
50.0333
 31
0.0
  0
LINE
  5
75
330
1E
100
AcDbEntity
  8
0
100
AcDbLine
 10
97.0
 20
50.0333
 30
0.0
 11
99.40000000000001
 21
46.9
 31
0.0
  0
LINE
  5
76
330
1E
100
AcDbEntity
  8
0
100
AcDbLine
 10
99.6667
 20
47.16669999999999
 30
0.0
 11
102.7333
 21
44.7667
 31
0.0
  0
LINE
  5
77
330
1E
100
AcDbEntity
  8
0
100
AcDbLine
 10
102.7333
 20
44.7667
 30
0.0
 11
106.2
 21
43.3667
 31
0.0
  0
LINE
  5
78
330
1E
100
AcDbEntity
  8
0
100
AcDbLine
 10
99.40000000000001
 20
46.9
 30
0.0
 11
102.5333
 21
44.5
 31
0.0
  0
LINE
  5
79
330
1E
100
AcDbEntity
  8
0
100
AcDbLine
 10
102.5333
 20
44.5
 30
0.0
 11
106.1333
 21
43.03329999999999
 31
0.0
  0
LINE
  5
7A
330
1E
100
AcDbEntity
  8
0
100
AcDbLine
 10
94.50000000000001
 20
135.4999999999999
 30
0.0
 11
99.1
 21
139.1
 31
0.0
  0
LINE
  5
7B
330
1E
100
AcDbEntity
  8
0
100
AcDbLine
 10
99.1
 20
139.1
 30
0.0
 11
104.2999999999999
 21
141.1999999999999
 31
0.0
  0
LINE
  5
7C
330
1E
100
AcDbEntity
  8
0
100
AcDbLine
 10
94.1
 20
135.8999999999999
 30
0.0
 11
98.8
 21
139.5
 31
0.0
  0
LINE
  5
7D
330
1E
100
AcDbEntity
  8
0
100
AcDbLine
 10
1.3
 20
185.0
 30
0.0
 11
4.700000000000009
 21
185.0
 31
0.0
  0
LINE
  5
7E
330
1E
100
AcDbEntity
  8
0
100
AcDbLine
 10
1.3
 20
185.0
 30
0.0
 11
4.700000000000009
 21
185.0
 31
0.0
  0
LINE
  5
7F
330
1E
100
AcDbEntity
  8
0
100
AcDbLine
 10
4.700000000000009
 20
185.0
 30
0.0
 11
10.3
 21
185.0
 31
0.0
  0
LINE
  5
80
330
1E
100
AcDbEntity
  8
0
100
AcDbLine
 10
10.3
 20
185.0
 30
0.0
 11
17.6
 21
185.0
 31
0.0
  0
LINE
  5
81
330
1E
100
AcDbEntity
  8
0
100
AcDbLine
 10
17.6
 20
185.0
 30
0.0
 11
26.0
 21
185.0
 31
0.0
  0
LINE
  5
82
330
1E
100
AcDbEntity
  8
0
100
AcDbLine
 10
0.0000000000000073
 20
185.0
 30
0.0
 11
0.0000000000000073
 21
190.0
 31
0.0
  0
LINE
  5
83
330
1E
100
AcDbEntity
  8
0
100
AcDbLine
 10
0.0000000000000073
 20
185.0
 30
0.0
 11
21.0
 21
165.0
 31
0.0
  0
LINE
  5
84
330
1E
100
AcDbEntity
  8
0
100
AcDbLine
 10
0.0000000000000073
 20
185.0
 30
0.0
 11
1.3
 21
185.0
 31
0.0
  0
LINE
  5
85
330
1E
100
AcDbEntity
  8
0
100
AcDbLine
 10
0.0000000000000073
 20
190.0
 30
0.0
 11
0.0000000000000073
 21
185.0
 31
0.0
  0
LINE
  5
86
330
1E
100
AcDbEntity
  8
0
100
AcDbLine
 10
0.0000000000000073
 20
190.0
 30
0.0
 11
1.3
 21
190.0
 31
0.0
  0
LINE
  5
87
330
1E
100
AcDbEntity
  8
0
100
AcDbLine
 10
1.3
 20
190.0
 30
0.0
 11
4.700000000000009
 21
190.0
 31
0.0
  0
LINE
  5
88
330
1E
100
AcDbEntity
  8
0
100
AcDbLine
 10
4.700000000000009
 20
190.0
 30
0.0
 11
10.3
 21
190.0
 31
0.0
  0
LINE
  5
89
330
1E
100
AcDbEntity
  8
0
100
AcDbLine
 10
10.3
 20
190.0
 30
0.0
 11
17.6
 21
190.0
 31
0.0
  0
LINE
  5
8A
330
1E
100
AcDbEntity
  8
0
100
AcDbLine
 10
17.6
 20
190.0
 30
0.0
 11
26.0
 21
190.0
 31
0.0
  0
LINE
  5
8B
330
1E
100
AcDbEntity
  8
0
100
AcDbLine
 10
0.0000000000000061
 20
185.0
 30
0.0
 11
21.0
 21
165.0
 31
0.0
  0
LINE
  5
8C
330
1E
100
AcDbEntity
  8
0
100
AcDbLine
 10
35.0
 20
144.5
 30
0.0
 11
110.0
 21
144.5
 31
0.0
  0
LINE
  5
8D
330
1E
100
AcDbEntity
  8
0
100
AcDbLine
 10
30.6
 20
144.5
 30
0.0
 11
35.0
 21
144.5
 31
0.0
  0
LINE
  5
8E
330
1E
100
AcDbEntity
  8
0
100
AcDbLine
 10
26.5
 20
144.5
 30
0.0
 11
30.6
 21
144.5
 31
0.0
  0
LINE
  5
8F
330
1E
100
AcDbEntity
  8
0
100
AcDbLine
 10
23.0
 20
144.5
 30
0.0
 11
26.5
 21
144.5
 31
0.0
  0
LINE
  5
90
330
1E
100
AcDbEntity
  8
0
100
AcDbLine
 10
20.3
 20
144.5
 30
0.0
 11
23.0
 21
144.5
 31
0.0
  0
LINE
  5
91
330
1E
100
AcDbEntity
  8
0
100
AcDbLine
 10
46.0
 20
145.0
 30
0.0
 11
48.0
 21
147.0
 31
0.0
  0
LINE
  5
92
330
1E
100
AcDbEntity
  8
0
100
AcDbLine
 10
35.0
 20
145.0
 30
0.0
 11
110.0
 21
145.0
 31
0.0
  0
LINE
  5
93
330
1E
100
AcDbEntity
  8
0
100
AcDbLine
 10
30.8
 20
145.0
 30
0.0
 11
35.0
 21
145.0
 31
0.0
  0
LINE
  5
94
330
1E
100
AcDbEntity
  8
0
100
AcDbLine
 10
26.6
 20
145.0
 30
0.0
 11
30.8
 21
145.0
 31
0.0
  0
LINE
  5
95
330
1E
100
AcDbEntity
  8
0
100
AcDbLine
 10
23.3
 20
145.0
 30
0.0
 11
26.6
 21
145.0
 31
0.0
  0
LINE
  5
96
330
1E
100
AcDbEntity
  8
0
100
AcDbLine
 10
20.69999999999999
 20
145.0
 30
0.0
 11
23.3
 21
145.0
 31
0.0
  0
LINE
  5
97
330
1E
100
AcDbEntity
  8
0
100
AcDbLine
 10
22.0
 20
155.0
 30
0.0
 11
22.0
 21
152.0
 31
0.0
  0
LINE
  5
98
330
1E
100
AcDbEntity
  8
0
100
AcDbLine
 10
22.0
 20
155.0
 30
0.0
 11
22.0
 21
157.0
 31
0.0
  0
LINE
  5
99
330
1E
100
AcDbEntity
  8
0
100
AcDbLine
 10
21.0
 20
165.0
 30
0.0
 11
21.49999999999999
 21
165.0
 31
0.0
  0
LINE
  5
9A
330
1E
100
AcDbEntity
  8
0
100
AcDbLine
 10
21.49999999999999
 20
165.0
 30
0.0
 11
22.9
 21
165.0
 31
0.0
  0
LINE
  5
9B
330
1E
100
AcDbEntity
  8
0
100
AcDbLine
 10
22.0
 20
157.0
 30
0.0
 11
22.5
 21
157.0
 31
0.0
  0
LINE
  5
9C
330
1E
100
AcDbEntity
  8
0
100
AcDbLine
 10
22.0
 20
157.0
 30
0.0
 11
24.0
 21
159.0
 31
0.0
  0
LINE
  5
9D
330
1E
100
AcDbEntity
  8
0
100
AcDbLine
 10
22.0
 20
157.0
 30
0.0
 11
22.0
 21
155.0
 31
0.0
  0
LINE
  5
9E
330
1E
100
AcDbEntity
  8
0
100
AcDbLine
 10
22.0
 20
152.0
 30
0.0
 11
22.0
 21
149.0
 31
0.0
  0
LINE
  5
9F
330
1E
100
AcDbEntity
  8
0
100
AcDbLine
 10
22.0
 20
152.0
 30
0.0
 11
22.0
 21
155.0
 31
0.0
  0
LINE
  5
A0
330
1E
100
AcDbEntity
  8
0
100
AcDbLine
 10
22.0
 20
149.0
 30
0.0
 11
22.0
 21
147.0
 31
0.0
  0
LINE
  5
A1
330
1E
100
AcDbEntity
  8
0
100
AcDbLine
 10
22.0
 20
149.0
 30
0.0
 11
22.0
 21
152.0
 31
0.0
  0
LINE
  5
A2
330
1E
100
AcDbEntity
  8
0
100
AcDbLine
 10
48.0
 20
147.0
 30
0.0
 11
48.0
 21
149.0
 31
0.0
  0
LINE
  5
A3
330
1E
100
AcDbEntity
  8
0
100
AcDbLine
 10
22.5
 20
147.0
 30
0.0
 11
48.0
 21
147.0
 31
0.0
  0
LINE
  5
A8
330
1E
100
AcDbEntity
  8
0
100
AcDbLine
 10
24.0
 20
159.0
 30
0.0
 11
24.39999999999999
 21
159.0
 31
0.0
  0
LINE
  5
A9
330
1E
100
AcDbEntity
  8
0
100
AcDbLine
 10
24.0
 20
159.0
 30
0.0
 11
24.0
 21
165.0
 31
0.0
  0
LINE
  5
AA
330
1E
100
AcDbEntity
  8
0
100
AcDbLine
 10
24.39999999999999
 20
159.0
 30
0.0
 11
25.5
 21
159.0
 31
0.0
  0
LINE
  5
AB
330
1E
100
AcDbEntity
  8
0
100
AcDbLine
 10
25.5
 20
159.0
 30
0.0
 11
27.2
 21
159.0
 31
0.0
  0
LINE
  5
AC
330
1E
100
AcDbEntity
  8
0
100
AcDbLine
 10
24.0
 20
165.0
 30
0.0
 11
24.0
 21
159.0
 31
0.0
  0
LINE
  5
AD
330
1E
100
AcDbEntity
  8
0
100
AcDbLine
 10
24.0
 20
165.0
 30
0.0
 11
24.39999999999999
 21
165.0
 31
0.0
  0
LINE
  5
AE
330
1E
100
AcDbEntity
  8
0
100
AcDbLine
 10
25.1
 20
165.0
 30
0.0
 11
28.0
 21
165.0
 31
0.0
  0
LINE
  5
AF
330
1E
100
AcDbEntity
  8
0
100
AcDbLine
 10
24.39999999999999
 20
165.0
 30
0.0
 11
25.5
 21
165.0
 31
0.0
  0
LINE
  5
B0
330
1E
100
AcDbEntity
  8
0
100
AcDbLine
 10
25.5
 20
165.0
 30
0.0
 11
27.2
 21
165.0
 31
0.0
  0
LINE
  5
B1
330
1E
100
AcDbEntity
  8
0
100
AcDbLine
 10
28.0
 20
165.0
 30
0.0
 11
31.4
 21
165.0
 31
0.0
  0
LINE
  5
B2
330
1E
100
AcDbEntity
  8
0
100
AcDbLine
 10
27.2
 20
165.0
 30
0.0
 11
29.5
 21
165.0
 31
0.0
  0
LINE
  5
B3
330
1E
100
AcDbEntity
  8
0
100
AcDbLine
 10
26.0
 20
190.0
 30
0.0
 11
35.0
 21
190.0
 31
0.0
  0
LINE
  5
B4
330
1E
100
AcDbEntity
  8
0
100
AcDbLine
 10
26.0
 20
185.0
 30
0.0
 11
35.0
 21
185.0
 31
0.0
  0
LINE
  5
B5
330
1E
100
AcDbEntity
  8
0
100
AcDbLine
 10
29.5
 20
165.0
 30
0.0
 11
32.2
 21
165.0
 31
0.0
  0
LINE
  5
B6
330
1E
100
AcDbEntity
  8
0
100
AcDbLine
 10
22.9
 20
165.0
 30
0.0
 11
24.0
 21
165.0
 31
0.0
  0
LINE
  5
B7
330
1E
100
AcDbEntity
  8
0
100
AcDbLine
 10
22.9
 20
165.0
 30
0.0
 11
25.1
 21
165.0
 31
0.0
  0
LINE
  5
B8
330
1E
100
AcDbEntity
  8
0
100
AcDbLine
 10
27.2
 20
159.0
 30
0.0
 11
29.5
 21
159.0
 31
0.0
  0
LINE
  5
B9
330
1E
100
AcDbEntity
  8
0
100
AcDbLine
 10
31.4
 20
165.0
 30
0.0
 11
35.0
 21
165.0
 31
0.0
  0
LINE
  5
BA
330
1E
100
AcDbEntity
  8
0
100
AcDbLine
 10
32.2
 20
165.0
 30
0.0
 11
35.0
 21
165.0
 31
0.0
  0
LINE
  5
BB
330
1E
100
AcDbEntity
  8
0
100
AcDbLine
 10
29.5
 20
159.0
 30
0.0
 11
32.2
 21
159.0
 31
0.0
  0
LINE
  5
BD
330
1E
100
AcDbEntity
  8
0
100
AcDbLine
 10
37.79999999999999
 20
159.0
 30
0.0
 11
40.49999999999999
 21
159.0
 31
0.0
  0
LINE
  5
BF
330
1E
100
AcDbEntity
  8
0
100
AcDbLine
 10
35.0
 20
159.0
 30
0.0
 11
37.79999999999999
 21
159.0
 31
0.0
  0
LINE
  5
C0
330
1E
100
AcDbEntity
  8
0
100
AcDbLine
 10
37.79999999999999
 20
165.0
 30
0.0
 11
40.49999999999999
 21
165.0
 31
0.0
  0
LINE
  5
C1
330
1E
100
AcDbEntity
  8
0
100
AcDbLine
 10
40.49999999999999
 20
159.0
 30
0.0
 11
42.8
 21
159.0
 31
0.0
  0
LINE
  5
C2
330
1E
100
AcDbEntity
  8
0
100
AcDbLine
 10
42.8
 20
159.0
 30
0.0
 11
44.5
 21
159.0
 31
0.0
  0
LINE
  5
C4
330
1E
100
AcDbEntity
  8
0
100
AcDbLine
 10
44.5
 20
159.0
 30
0.0
 11
45.6
 21
159.0
 31
0.0
  0
LINE
  5
C5
330
1E
100
AcDbEntity
  8
0
100
AcDbLine
 10
45.6
 20
159.0
 30
0.0
 11
46.0
 21
159.0
 31
0.0
  0
LINE
  5
C6
330
1E
100
AcDbEntity
  8
0
100
AcDbLine
 10
48.0
 20
157.0
 30
0.0
 11
48.0
 21
152.0
 31
0.0
  0
LINE
  5
C7
330
1E
100
AcDbEntity
  8
0
100
AcDbLine
 10
22.5
 20
157.0
 30
0.0
 11
48.0
 21
157.0
 31
0.0
  0
LINE
  5
C8
330
1E
100
AcDbEntity
  8
0
100
AcDbLine
 10
48.0
 20
152.0
 30
0.0
 11
48.0
 21
149.0
 31
0.0
  0
LINE
  5
C9
330
1E
100
AcDbEntity
  8
0
100
AcDbLine
 10
48.0
 20
152.0
 30
0.0
 11
48.0
 21
157.0
 31
0.0
  0
LINE
  5
CA
330
1E
100
AcDbEntity
  8
0
100
AcDbLine
 10
46.0
 20
165.0
 30
0.0
 11
46.0
 21
159.0
 31
0.0
  0
LINE
  5
CB
330
1E
100
AcDbEntity
  8
0
100
AcDbLine
 10
46.0
 20
165.0
 30
0.0
 11
47.09999999999999
 21
165.0
 31
0.0
  0
LINE
  5
CC
330
1E
100
AcDbEntity
  8
0
100
AcDbLine
 10
46.0
 20
159.0
 30
0.0
 11
48.0
 21
157.0
 31
0.0
  0
LINE
  5
CD
330
1E
100
AcDbEntity
  8
0
100
AcDbLine
 10
46.0
 20
159.0
 30
0.0
 11
46.0
 21
165.0
 31
0.0
  0
LINE
  5
CE
330
1E
100
AcDbEntity
  8
0
100
AcDbLine
 10
48.0
 20
149.0
 30
0.0
 11
48.0
 21
147.0
 31
0.0
  0
LINE
  5
CF
330
1E
100
AcDbEntity
  8
0
100
AcDbLine
 10
48.0
 20
149.0
 30
0.0
 11
48.0
 21
152.0
 31
0.0
  0
LINE
  5
D0
330
1E
100
AcDbEntity
  8
0
100
AcDbLine
 10
49.0
 20
165.0
 30
0.0
 11
70.0
 21
185.0
 31
0.0
  0
LINE
  5
D1
330
1E
100
AcDbEntity
  8
0
100
AcDbLine
 10
45.6
 20
165.0
 30
0.0
 11
46.0
 21
165.0
 31
0.0
  0
LINE
  5
D2
330
1E
100
AcDbEntity
  8
0
100
AcDbLine
 10
48.5
 20
165.0
 30
0.0
 11
49.0
 21
165.0
 31
0.0
  0
LINE
  5
D3
330
1E
100
AcDbEntity
  8
0
100
AcDbLine
 10
44.5
 20
165.0
 30
0.0
 11
45.6
 21
165.0
 31
0.0
  0
LINE
  5
D4
330
1E
100
AcDbEntity
  8
0
100
AcDbLine
 10
47.09999999999999
 20
165.0
 30
0.0
 11
48.5
 21
165.0
 31
0.0
  0
LINE
  5
D5
330
1E
100
AcDbEntity
  8
0
100
AcDbLine
 10
42.8
 20
165.0
 30
0.0
 11
44.5
 21
165.0
 31
0.0
  0
LINE
  5
D6
330
1E
100
AcDbEntity
  8
0
100
AcDbLine
 10
44.9
 20
165.0
 30
0.0
 11
47.09999999999999
 21
165.0
 31
0.0
  0
LINE
  5
D7
330
1E
100
AcDbEntity
  8
0
100
AcDbLine
 10
40.49999999999999
 20
165.0
 30
0.0
 11
42.8
 21
165.0
 31
0.0
  0
LINE
  5
D8
330
1E
100
AcDbEntity
  8
0
100
AcDbLine
 10
42.0
 20
165.0
 30
0.0
 11
44.9
 21
165.0
 31
0.0
  0
LINE
  5
D9
330
1E
100
AcDbEntity
  8
0
100
AcDbLine
 10
38.6
 20
165.0
 30
0.0
 11
42.0
 21
165.0
 31
0.0
  0
LINE
  5
DA
330
1E
100
AcDbEntity
  8
0
100
AcDbLine
 10
35.0
 20
190.0
 30
0.0
 11
44.0
 21
190.0
 31
0.0
  0
LINE
  5
DB
330
1E
100
AcDbEntity
  8
0
100
AcDbLine
 10
70.0
 20
185.0
 30
0.0
 11
70.0
 21
190.0
 31
0.0
  0
LINE
  5
DC
330
1E
100
AcDbEntity
  8
0
100
AcDbLine
 10
68.7
 20
185.0
 30
0.0
 11
70.0
 21
185.0
 31
0.0
  0
LINE
  5
DD
330
1E
100
AcDbEntity
  8
0
100
AcDbLine
 10
65.3
 20
185.0
 30
0.0
 11
68.7
 21
185.0
 31
0.0
  0
LINE
  5
DE
330
1E
100
AcDbEntity
  8
0
100
AcDbLine
 10
59.7
 20
185.0
 30
0.0
 11
65.3
 21
185.0
 31
0.0
  0
LINE
  5
DF
330
1E
100
AcDbEntity
  8
0
100
AcDbLine
 10
52.4
 20
185.0
 30
0.0
 11
59.7
 21
185.0
 31
0.0
  0
LINE
  5
E0
330
1E
100
AcDbEntity
  8
0
100
AcDbLine
 10
70.0
 20
190.0
 30
0.0
 11
70.0
 21
185.0
 31
0.0
  0
LINE
  5
E1
330
1E
100
AcDbEntity
  8
0
100
AcDbLine
 10
68.7
 20
190.0
 30
0.0
 11
70.0
 21
190.0
 31
0.0
  0
LINE
  5
E2
330
1E
100
AcDbEntity
  8
0
100
AcDbLine
 10
65.3
 20
190.0
 30
0.0
 11
68.7
 21
190.0
 31
0.0
  0
LINE
  5
E3
330
1E
100
AcDbEntity
  8
0
100
AcDbLine
 10
59.7
 20
190.0
 30
0.0
 11
65.3
 21
190.0
 31
0.0
  0
LINE
  5
E4
330
1E
100
AcDbEntity
  8
0
100
AcDbLine
 10
52.4
 20
190.0
 30
0.0
 11
59.7
 21
190.0
 31
0.0
  0
LINE
  5
E5
330
1E
100
AcDbEntity
  8
0
100
AcDbLine
 10
44.0
 20
190.0
 30
0.0
 11
52.4
 21
190.0
 31
0.0
  0
LINE
  5
E6
330
1E
100
AcDbEntity
  8
0
100
AcDbLine
 10
44.0
 20
185.0
 30
0.0
 11
52.4
 21
185.0
 31
0.0
  0
LINE
  5
E7
330
1E
100
AcDbEntity
  8
0
100
AcDbLine
 10
35.0
 20
185.0
 30
0.0
 11
44.0
 21
185.0
 31
0.0
  0
LINE
  5
E8
330
1E
100
AcDbEntity
  8
0
100
AcDbLine
 10
35.0
 20
165.0
 30
0.0
 11
38.6
 21
165.0
 31
0.0
  0
LINE
  5
E9
330
1E
100
AcDbEntity
  8
0
100
AcDbLine
 10
35.0
 20
165.0
 30
0.0
 11
37.79999999999999
 21
165.0
 31
0.0
  0
LINE
  5
EA
330
1E
100
AcDbEntity
  8
0
100
AcDbLine
 10
32.2
 20
159.0
 30
0.0
 11
35.0
 21
159.0
 31
0.0
  0
LINE
  5
EC
330
1E
100
AcDbEntity
  8
0
100
AcDbLine
 10
22.0
 20
147.0
 30
0.0
 11
24.0
 21
145.0
 31
0.0
  0
LINE
  5
ED
330
1E
100
AcDbEntity
  8
0
100
AcDbLine
 10
22.0
 20
147.0
 30
0.0
 11
22.0
 21
149.0
 31
0.0
  0
LINE
  5
EE
330
1E
100
AcDbEntity
  8
0
100
AcDbLine
 10
22.0
 20
147.0
 30
0.0
 11
22.5
 21
147.0
 31
0.0
  0
LINE
  5
EF
330
1E
100
AcDbEntity
  8
0
100
AcDbLine
 10
19.1
 20
145.0
 30
0.0
 11
20.69999999999999
 21
145.0
 31
0.0
  0
LINE
  5
F0
330
1E
100
AcDbEntity
  8
0
100
AcDbLine
 10
18.5
 20
145.0
 30
0.0
 11
19.1
 21
145.0
 31
0.0
  0
LINE
  5
F1
330
1E
100
AcDbEntity
  8
0
100
AcDbLine
 10
18.6
 20
144.5
 30
0.0
 11
20.3
 21
144.5
 31
0.0
  0
LINE
  5
F2
330
1E
100
AcDbEntity
  8
0
100
AcDbLine
 10
18.0
 20
144.5
 30
0.0
 11
18.0
 21
131.0
 31
0.0
  0
LINE
  5
F3
330
1E
100
AcDbEntity
  8
0
100
AcDbLine
 10
18.0
 20
144.5
 30
0.0
 11
18.6
 21
144.5
 31
0.0
  0
LINE
  5
F4
330
1E
100
AcDbEntity
  8
0
100
AcDbLine
 10
18.0
 20
144.5
 30
0.0
 11
18.5
 21
145.0
 31
0.0
  0
LINE
  5
F5
330
1E
100
AcDbEntity
  8
0
100
AcDbLine
 10
103.2608695652169
 20
141.3173913043479
 30
0.0
 11
104.2
 21
141.712
 31
0.0
  0
LINE
  5
F6
330
1E
100
AcDbEntity
  8
0
100
AcDbLine
 10
104.2
 20
141.712
 30
0.0
 11
110.0
 21
142.5
 31
0.0
  0
LINE
  5
F7
330
1E
100
AcDbEntity
  8
0
100
AcDbLine
 10
98.8
 20
139.5
 30
0.0
 11
104.2
 21
141.6999999999999
 31
0.0
  0
LINE
  5
FA
330
1E
100
AcDbEntity
  8
0
100
AcDbLine
 10
104.4593
 20
1.35135
 30
0.0
 11
110.0
 21
0.5000000000000031
 31
0.0
  0
LINE
  5
FB
330
1E
100
AcDbEntity
  8
0
100
AcDbLine
 10
104.2600999999999
 20
0.8040330000000029
 30
0.0
 11
110.0
 21
0.0000000000000031
 31
0.0
  0
LINE
  5
FD
330
1E
100
AcDbEntity
  8
0
100
AcDbLine
 10
110.0
 20
0.5000000000000031
 30
0.0
 11
115.5407
 21
1.35135
 31
0.0
  0
LINE
  5
FE
330
1E
100
AcDbEntity
  8
0
100
AcDbLine
 10
110.0
 20
0.0000000000000032
 30
0.0
 11
115.7399
 21
0.8040330000000029
 31
0.0
  0
LINE
  5
FF
330
1E
100
AcDbEntity
  8
0
100
AcDbLine
 10
110.0
 20
42.8333
 30
0.0
 11
113.7999999999999
 21
43.3667
 31
0.0
  0
LINE
  5
101
330
1E
100
AcDbEntity
  8
0
100
AcDbLine
 10
115.7399
 20
0.8040330000000029
 30
0.0
 11
120.1206999999999
 21
2.74453
 31
0.0
  0
LINE
  5
103
330
1E
100
AcDbEntity
  8
0
100
AcDbLine
 10
115.5407
 20
1.35135
 30
0.0
 11
119.9216
 21
3.29184
 31
0.0
  0
LINE
  5
104
330
1E
100
AcDbEntity
  8
0
100
AcDbLine
 10
120.1206999999999
 20
2.74453
 30
0.0
 11
124.1530999999999
 21
5.82941
 31
0.0
  0
LINE
  5
105
330
1E
100
AcDbEntity
  8
0
100
AcDbLine
 10
119.9216
 20
3.29184
 30
0.0
 11
123.7549
 21
6.177699999999999
 31
0.0
  0
LINE
  5
106
330
1E
100
AcDbEntity
  8
0
100
AcDbLine
 10
124.1530999999999
 20
5.82941
 30
0.0
 11
127.3889999999999
 21
10.10839999999999
 31
0.0
  0
LINE
  5
107
330
1E
100
AcDbEntity
  8
0
100
AcDbLine
 10
123.7549
 20
6.177699999999999
 30
0.0
 11
126.9908
 21
10.40699999999999
 31
0.0
  0
LINE
  5
108
330
1E
100
AcDbEntity
  8
0
100
AcDbLine
 10
127.3889999999999
 20
10.10839999999999
 30
0.0
 11
129.3306
 21
14.7358
 31
0.0
  0
LINE
  5
109
330
1E
100
AcDbEntity
  8
0
100
AcDbLine
 10
126.9908
 20
10.40699999999999
 30
0.0
 11
128.7829
 21
14.8353
 31
0.0
  0
LINE
  5
10A
330
1E
100
AcDbEntity
  8
0
100
AcDbLine
 10
129.3
 20
14.9
 30
0.0
 11
130.0
 21
20.0
 31
0.0
  0
LINE
  5
10B
330
1E
100
AcDbEntity
  8
0
100
AcDbLine
 10
128.7829
 20
14.8353
 30
0.0
 11
129.4999999999999
 21
20.0
 31
0.0
  0
LINE
  5
10C
330
1E
100
AcDbEntity
  8
0
100
AcDbLine
 10
129.3306
 20
14.7358
 30
0.0
 11
130.0
 21
20.0
 31
0.0
  0
LINE
  5
10D
330
1E
100
AcDbEntity
  8
0
100
AcDbLine
 10
129.4999999999999
 20
20.0
 30
0.0
 11
132.4999999999999
 21
107.0
 31
0.0
  0
LINE
  5
10E
330
1E
100
AcDbEntity
  8
0
100
AcDbLine
 10
130.0
 20
20.0
 30
0.0
 11
133.0
 21
107.0
 31
0.0
  0
LINE
  5
10F
330
1E
100
AcDbEntity
  8
0
100
AcDbLine
 10
129.4999999999999
 20
20.0
 30
0.0
 11
132.4999999999999
 21
107.0
 31
0.0
  0
LINE
  5
110
330
1E
100
AcDbEntity
  8
0
100
AcDbLine
 10
130.0
 20
20.0
 30
0.0
 11
133.0
 21
107.0
 31
0.0
  0
LINE
  5
111
330
1E
100
AcDbEntity
  8
0
100
AcDbLine
 10
113.7999999999999
 20
43.3667
 30
0.0
 11
117.2667
 21
44.7667
 31
0.0
  0
LINE
  5
112
330
1E
100
AcDbEntity
  8
0
100
AcDbLine
 10
110.0
 20
42.5
 30
0.0
 11
113.8666999999999
 21
43.03329999999999
 31
0.0
  0
LINE
  5
113
330
1E
100
AcDbEntity
  8
0
100
AcDbLine
 10
117.2667
 20
44.7667
 30
0.0
 11
120.3332999999999
 21
47.16669999999999
 31
0.0
  0
LINE
  5
114
330
1E
100
AcDbEntity
  8
0
100
AcDbLine
 10
117.4667
 20
44.5
 30
0.0
 11
120.5999999999999
 21
46.9
 31
0.0
  0
LINE
  5
115
330
1E
100
AcDbEntity
  8
0
100
AcDbLine
 10
122.7333
 20
50.2333
 30
0.0
 11
124.1333
 21
53.7
 31
0.0
  0
LINE
  5
116
330
1E
100
AcDbEntity
  8
0
100
AcDbLine
 10
120.3332999999999
 20
47.16669999999999
 30
0.0
 11
122.7333
 21
50.2333
 31
0.0
  0
LINE
  5
117
330
1E
100
AcDbEntity
  8
0
100
AcDbLine
 10
124.1333
 20
53.7
 30
0.0
 11
124.6667
 21
57.5
 31
0.0
  0
LINE
  5
118
330
1E
100
AcDbEntity
  8
0
100
AcDbLine
 10
123.0
 20
50.0333
 30
0.0
 11
124.4666999999999
 21
53.6333
 31
0.0
  0
LINE
  5
119
330
1E
100
AcDbEntity
  8
0
100
AcDbLine
 10
120.5999999999999
 20
46.9
 30
0.0
 11
123.0
 21
50.0333
 31
0.0
  0
LINE
  5
11A
330
1E
100
AcDbEntity
  8
0
100
AcDbLine
 10
125.0
 20
57.5
 30
0.0
 11
132.4999999999999
 21
120.0
 31
0.0
  0
LINE
  5
133
330
1E
100
AcDbEntity
  8
0
100
AcDbLine
 10
129.0999999999999
 20
130.9
 30
0.0
 11
131.1999999999999
 21
125.7
 31
0.0
  0
LINE
  5
134
330
1E
100
AcDbEntity
  8
0
100
AcDbLine
 10
124.6667
 20
57.5
 30
0.0
 11
132.0
 21
120.0
 31
0.0
  0
LINE
  5
135
330
1E
100
AcDbEntity
  8
0
100
AcDbLine
 10
129.4999999999999
 20
131.2019999999999
 30
0.0
 11
131.6999999999999
 21
125.8279999999999
 31
0.0
  0
LINE
  5
136
330
1E
100
AcDbEntity
  8
0
100
AcDbLine
 10
120.9
 20
139.1
 30
0.0
 11
125.5
 21
135.4999999999999
 31
0.0
  0
LINE
  5
137
330
1E
100
AcDbEntity
  8
0
100
AcDbLine
 10
115.7
 20
141.1999999999999
 30
0.0
 11
120.9
 21
139.1
 31
0.0
  0
LINE
  5
138
330
1E
100
AcDbEntity
  8
0
100
AcDbLine
 10
125.5
 20
135.4999999999999
 30
0.0
 11
129.0999999999999
 21
130.9
 31
0.0
  0
LINE
  5
139
330
1E
100
AcDbEntity
  8
0
100
AcDbLine
 10
125.9
 20
135.8999999999999
 30
0.0
 11
129.4999999999999
 21
131.1999999999999
 31
0.0
  0
LINE
  5
13A
330
1E
100
AcDbEntity
  8
0
100
AcDbLine
 10
121.1999999999999
 20
139.5
 30
0.0
 11
125.9
 21
135.8999999999999
 31
0.0
  0
LINE
  5
13B
330
1E
100
AcDbEntity
  8
0
100
AcDbLine
 10
129.412195121951
 20
131.314634146341
 30
0.0
 11
129.4999999999999
 21
131.2019999999999
 31
0.0
  0
LINE
  5
13C
330
1E
100
AcDbEntity
  8
0
100
AcDbLine
 10
132.4999999999999
 20
107.0
 30
0.0
 11
132.9316
 21
110.0829999999999
 31
0.0
  0
LINE
  5
13D
330
1E
100
AcDbEntity
  8
0
100
AcDbLine
 10
134.7599999999999
 20
112.9199999999999
 30
0.0
 11
137.0999999999999
 21
115.23
 31
0.0
  0
LINE
  5
13E
330
1E
100
AcDbEntity
  8
0
100
AcDbLine
 10
133.3499999999999
 20
110.07
 30
0.0
 11
134.7599999999999
 21
112.9199999999999
 31
0.0
  0
LINE
  5
13F
330
1E
100
AcDbEntity
  8
0
100
AcDbLine
 10
133.0
 20
107.0
 30
0.0
 11
133.3499999999999
 21
110.07
 31
0.0
  0
LINE
  5
140
330
1E
100
AcDbEntity
  8
0
100
AcDbLine
 10
132.9316
 20
110.0829999999999
 30
0.0
 11
134.3339999999999
 21
113.3229999999999
 31
0.0
  0
LINE
  5
141
330
1E
100
AcDbEntity
  8
0
100
AcDbLine
 10
134.3339999999999
 20
113.3229999999999
 30
0.0
 11
136.6329999999999
 21
115.6439999999999
 31
0.0
  0
LINE
  5
142
330
1E
100
AcDbEntity
  8
0
100
AcDbLine
 10
139.83
 20
116.5599999999999
 30
0.0
 11
143.0
 21
117.0
 31
0.0
  0
LINE
  5
143
330
1E
100
AcDbEntity
  8
0
100
AcDbLine
 10
137.0999999999999
 20
115.23
 30
0.0
 11
139.83
 21
116.5599999999999
 31
0.0
  0
LINE
  5
144
330
1E
100
AcDbEntity
  8
0
100
AcDbLine
 10
143.0
 20
117.0
 30
0.0
 11
185.0
 21
117.0
 31
0.0
  0
LINE
  5
145
330
1E
100
AcDbEntity
  8
0
100
AcDbLine
 10
136.6329999999999
 20
115.6439999999999
 30
0.0
 11
139.5529999999999
 21
117.091
 31
0.0
  0
LINE
  5
146
330
1E
100
AcDbEntity
  8
0
100
AcDbLine
 10
139.5529999999999
 20
117.091
 30
0.0
 11
143.0
 21
117.5
 31
0.0
  0
LINE
  5
147
330
1E
100
AcDbEntity
  8
0
100
AcDbLine
 10
201.5
 20
117.0
 30
0.0
 11
202.0
 21
117.5
 31
0.0
  0
LINE
  5
148
330
1E
100
AcDbEntity
  8
0
100
AcDbLine
 10
200.8999999999999
 20
117.0
 30
0.0
 11
201.5
 21
117.0
 31
0.0
  0
LINE
  5
149
330
1E
100
AcDbEntity
  8
0
100
AcDbLine
 10
199.3
 20
117.0
 30
0.0
 11
200.8999999999999
 21
117.0
 31
0.0
  0
LINE
  5
14A
330
1E
100
AcDbEntity
  8
0
100
AcDbLine
 10
196.6999999999999
 20
117.0
 30
0.0
 11
199.3
 21
117.0
 31
0.0
  0
LINE
  5
14B
330
1E
100
AcDbEntity
  8
0
100
AcDbLine
 10
193.4
 20
117.0
 30
0.0
 11
196.6999999999999
 21
117.0
 31
0.0
  0
LINE
  5
14C
330
1E
100
AcDbEntity
  8
0
100
AcDbLine
 10
189.1999999999999
 20
117.0
 30
0.0
 11
193.4
 21
117.0
 31
0.0
  0
LINE
  5
14D
330
1E
100
AcDbEntity
  8
0
100
AcDbLine
 10
185.0
 20
117.5
 30
0.0
 11
189.4
 21
117.5
 31
0.0
  0
LINE
  5
14E
330
1E
100
AcDbEntity
  8
0
100
AcDbLine
 10
189.4
 20
117.5
 30
0.0
 11
193.5
 21
117.5
 31
0.0
  0
LINE
  5
14F
330
1E
100
AcDbEntity
  8
0
100
AcDbLine
 10
193.5
 20
117.5
 30
0.0
 11
197.0
 21
117.5
 31
0.0
  0
LINE
  5
150
330
1E
100
AcDbEntity
  8
0
100
AcDbLine
 10
197.0
 20
117.5
 30
0.0
 11
199.6999999999999
 21
117.5
 31
0.0
  0
LINE
  5
151
330
1E
100
AcDbEntity
  8
0
100
AcDbLine
 10
199.6999999999999
 20
117.5
 30
0.0
 11
201.4
 21
117.5
 31
0.0
  0
LINE
  5
152
330
1E
100
AcDbEntity
  8
0
100
AcDbLine
 10
201.4
 20
117.5
 30
0.0
 11
202.0
 21
117.5
 31
0.0
  0
LINE
  5
153
330
1E
100
AcDbEntity
  8
0
100
AcDbLine
 10
202.0
 20
117.5
 30
0.0
 11
202.0
 21
131.0
 31
0.0
  0
LINE
  5
154
330
1E
100
AcDbEntity
  8
0
100
AcDbLine
 10
185.0
 20
117.0
 30
0.0
 11
189.1999999999999
 21
117.0
 31
0.0
  0
LINE
  5
155
330
1E
100
AcDbEntity
  8
0
100
AcDbLine
 10
143.0
 20
117.5
 30
0.0
 11
185.0
 21
117.5
 31
0.0
  0
LINE
  5
156
330
1E
100
AcDbEntity
  8
0
100
AcDbLine
 10
131.1999999999999
 20
125.7
 30
0.0
 11
132.0
 21
120.0
 31
0.0
  0
LINE
  5
157
330
1E
100
AcDbEntity
  8
0
100
AcDbLine
 10
131.6999999999999
 20
125.8
 30
0.0
 11
132.4999999999999
 21
120.0
 31
0.0
  0
LINE
  5
158
330
1E
100
AcDbEntity
  8
0
100
AcDbLine
 10
202.0
 20
131.0
 30
0.0
 11
202.0
 21
144.5
 31
0.0
  0
LINE
  5
159
330
1E
100
AcDbEntity
  8
0
100
AcDbLine
 10
202.0
 20
131.0
 30
0.0
 11
202.0
 21
117.5
 31
0.0
  0
LINE
  5
15A
330
1E
100
AcDbEntity
  8
0
100
AcDbLine
 10
131.6999999999999
 20
125.8279999999999
 30
0.0
 11
132.4999999999999
 21
120.0
 31
0.0
  0
LINE
  5
15B
330
1E
100
AcDbEntity
  8
0
100
AcDbLine
 10
129.4999999999999
 20
131.1999999999999
 30
0.0
 11
131.6999999999999
 21
125.8
 31
0.0
  0
LINE
  5
15C
330
1E
100
AcDbEntity
  8
0
100
AcDbLine
 10
106.2
 20
43.3667
 30
0.0
 11
110.0
 21
42.8333
 31
0.0
  0
LINE
  5
15D
330
1E
100
AcDbEntity
  8
0
100
AcDbLine
 10
106.1333
 20
43.03329999999999
 30
0.0
 11
110.0
 21
42.5
 31
0.0
  0
LINE
  5
15E
330
1E
100
AcDbEntity
  8
0
100
AcDbLine
 10
110.0
 20
142.0
 30
0.0
 11
115.7
 21
141.1999999999999
 31
0.0
  0
LINE
  5
15F
330
1E
100
AcDbEntity
  8
0
100
AcDbLine
 10
115.7999999999999
 20
141.712
 30
0.0
 11
116.739130434783
 21
141.3173913043479
 31
0.0
  0
LINE
  5
160
330
1E
100
AcDbEntity
  8
0
100
AcDbLine
 10
110.0
 20
145.0
 30
0.0
 11
185.0
 21
145.0
 31
0.0
  0
LINE
  5
161
330
1E
100
AcDbEntity
  8
0
100
AcDbLine
 10
110.0
 20
144.5
 30
0.0
 11
185.0
 21
144.5
 31
0.0
  0
LINE
  5
162
330
1E
100
AcDbEntity
  8
0
100
AcDbLine
 10
110.0
 20
142.5
 30
0.0
 11
115.7999999999999
 21
141.712
 31
0.0
  0
LINE
  5
163
330
1E
100
AcDbEntity
  8
0
100
AcDbLine
 10
110.0
 20
142.5
 30
0.0
 11
115.7999999999999
 21
141.6999999999999
 31
0.0
  0
LINE
  5
164
330
1E
100
AcDbEntity
  8
0
100
AcDbLine
 10
185.0
 20
144.5
 30
0.0
 11
189.4
 21
144.5
 31
0.0
  0
LINE
  5
165
330
1E
100
AcDbEntity
  8
0
100
AcDbLine
 10
189.4
 20
144.5
 30
0.0
 11
193.5
 21
144.5
 31
0.0
  0
LINE
  5
166
330
1E
100
AcDbEntity
  8
0
100
AcDbLine
 10
196.0
 20
145.0
 30
0.0
 11
198.0
 21
147.0
 31
0.0
  0
LINE
  5
167
330
1E
100
AcDbEntity
  8
0
100
AcDbLine
 10
193.5
 20
144.5
 30
0.0
 11
197.0
 21
144.5
 31
0.0
  0
LINE
  5
168
330
1E
100
AcDbEntity
  8
0
100
AcDbLine
 10
197.0
 20
144.5
 30
0.0
 11
199.6999999999999
 21
144.5
 31
0.0
  0
LINE
  5
169
330
1E
100
AcDbEntity
  8
0
100
AcDbLine
 10
199.6999999999999
 20
144.5
 30
0.0
 11
201.4
 21
144.5
 31
0.0
  0
LINE
  5
16A
330
1E
100
AcDbEntity
  8
0
100
AcDbLine
 10
202.0
 20
144.5
 30
0.0
 11
202.0
 21
131.0
 31
0.0
  0
LINE
  5
16B
330
1E
100
AcDbEntity
  8
0
100
AcDbLine
 10
201.5
 20
145.0
 30
0.0
 11
202.0
 21
144.5
 31
0.0
  0
LINE
  5
16C
330
1E
100
AcDbEntity
  8
0
100
AcDbLine
 10
201.4
 20
144.5
 30
0.0
 11
202.0
 21
144.5
 31
0.0
  0
LINE
  5
16D
330
1E
100
AcDbEntity
  8
0
100
AcDbLine
 10
200.8999999999999
 20
145.0
 30
0.0
 11
201.5
 21
145.0
 31
0.0
  0
LINE
  5
16E
330
1E
100
AcDbEntity
  8
0
100
AcDbLine
 10
199.3
 20
145.0
 30
0.0
 11
200.8999999999999
 21
145.0
 31
0.0
  0
LINE
  5
16F
330
1E
100
AcDbEntity
  8
0
100
AcDbLine
 10
196.6999999999999
 20
145.0
 30
0.0
 11
199.3
 21
145.0
 31
0.0
  0
LINE
  5
170
330
1E
100
AcDbEntity
  8
0
100
AcDbLine
 10
193.4
 20
145.0
 30
0.0
 11
196.6999999999999
 21
145.0
 31
0.0
  0
LINE
  5
171
330
1E
100
AcDbEntity
  8
0
100
AcDbLine
 10
189.1999999999999
 20
145.0
 30
0.0
 11
193.4
 21
145.0
 31
0.0
  0
LINE
  5
172
330
1E
100
AcDbEntity
  8
0
100
AcDbLine
 10
172.0
 20
155.0
 30
0.0
 11
172.0
 21
152.0
 31
0.0
  0
LINE
  5
173
330
1E
100
AcDbEntity
  8
0
100
AcDbLine
 10
172.0
 20
155.0
 30
0.0
 11
172.0
 21
157.0
 31
0.0
  0
LINE
  5
174
330
1E
100
AcDbEntity
  8
0
100
AcDbLine
 10
172.0
 20
157.0
 30
0.0
 11
174.0
 21
159.0
 31
0.0
  0
LINE
  5
175
330
1E
100
AcDbEntity
  8
0
100
AcDbLine
 10
172.0
 20
157.0
 30
0.0
 11
172.0
 21
155.0
 31
0.0
  0
LINE
  5
176
330
1E
100
AcDbEntity
  8
0
100
AcDbLine
 10
172.0
 20
157.0
 30
0.0
 11
172.5
 21
157.0
 31
0.0
  0
LINE
  5
177
330
1E
100
AcDbEntity
  8
0
100
AcDbLine
 10
172.0
 20
152.0
 30
0.0
 11
172.0
 21
149.0
 31
0.0
  0
LINE
  5
178
330
1E
100
AcDbEntity
  8
0
100
AcDbLine
 10
172.0
 20
152.0
 30
0.0
 11
172.0
 21
155.0
 31
0.0
  0
LINE
  5
179
330
1E
100
AcDbEntity
  8
0
100
AcDbLine
 10
172.0
 20
149.0
 30
0.0
 11
172.0
 21
147.0
 31
0.0
  0
LINE
  5
17A
330
1E
100
AcDbEntity
  8
0
100
AcDbLine
 10
172.0
 20
149.0
 30
0.0
 11
172.0
 21
152.0
 31
0.0
  0
LINE
  5
17B
330
1E
100
AcDbEntity
  8
0
100
AcDbLine
 10
174.0
 20
159.0
 30
0.0
 11
174.3999999999999
 21
159.0
 31
0.0
  0
LINE
  5
17C
330
1E
100
AcDbEntity
  8
0
100
AcDbLine
 10
174.0
 20
159.0
 30
0.0
 11
174.0
 21
165.0
 31
0.0
  0
LINE
  5
181
330
1E
100
AcDbEntity
  8
0
100
AcDbLine
 10
174.3999999999999
 20
159.0
 30
0.0
 11
175.5
 21
159.0
 31
0.0
  0
LINE
  5
182
330
1E
100
AcDbEntity
  8
0
100
AcDbLine
 10
175.5
 20
159.0
 30
0.0
 11
177.2
 21
159.0
 31
0.0
  0
LINE
  5
183
330
1E
100
AcDbEntity
  8
0
100
AcDbLine
 10
177.2
 20
159.0
 30
0.0
 11
179.4999999999999
 21
159.0
 31
0.0
  0
LINE
  5
184
330
1E
100
AcDbEntity
  8
0
100
AcDbLine
 10
179.4999999999999
 20
159.0
 30
0.0
 11
182.1999999999999
 21
159.0
 31
0.0
  0
LINE
  5
185
330
1E
100
AcDbEntity
  8
0
100
AcDbLine
 10
182.1999999999999
 20
159.0
 30
0.0
 11
185.0
 21
159.0
 31
0.0
  0
LINE
  5
186
330
1E
100
AcDbEntity
  8
0
100
AcDbLine
 10
172.0
 20
147.0
 30
0.0
 11
174.0
 21
145.0
 31
0.0
  0
LINE
  5
187
330
1E
100
AcDbEntity
  8
0
100
AcDbLine
 10
172.0
 20
147.0
 30
0.0
 11
172.5
 21
147.0
 31
0.0
  0
LINE
  5
188
330
1E
100
AcDbEntity
  8
0
100
AcDbLine
 10
172.0
 20
147.0
 30
0.0
 11
172.0
 21
149.0
 31
0.0
  0
LINE
  5
189
330
1E
100
AcDbEntity
  8
0
100
AcDbLine
 10
187.8
 20
159.0
 30
0.0
 11
190.5
 21
159.0
 31
0.0
  0
LINE
  5
18B
330
1E
100
AcDbEntity
  8
0
100
AcDbLine
 10
174.0
 20
165.0
 30
0.0
 11
174.3999999999999
 21
165.0
 31
0.0
  0
LINE
  5
18C
330
1E
100
AcDbEntity
  8
0
100
AcDbLine
 10
174.0
 20
165.0
 30
0.0
 11
174.0
 21
159.0
 31
0.0
  0
LINE
  5
18D
330
1E
100
AcDbEntity
  8
0
100
AcDbLine
 10
171.0
 20
165.0
 30
0.0
 11
171.5
 21
165.0
 31
0.0
  0
LINE
  5
18E
330
1E
100
AcDbEntity
  8
0
100
AcDbLine
 10
174.3999999999999
 20
165.0
 30
0.0
 11
175.5
 21
165.0
 31
0.0
  0
LINE
  5
18F
330
1E
100
AcDbEntity
  8
0
100
AcDbLine
 10
171.5
 20
165.0
 30
0.0
 11
172.9
 21
165.0
 31
0.0
  0
LINE
  5
190
330
1E
100
AcDbEntity
  8
0
100
AcDbLine
 10
175.5
 20
165.0
 30
0.0
 11
177.2
 21
165.0
 31
0.0
  0
LINE
  5
191
330
1E
100
AcDbEntity
  8
0
100
AcDbLine
 10
172.9
 20
165.0
 30
0.0
 11
175.0999999999999
 21
165.0
 31
0.0
  0
LINE
  5
192
330
1E
100
AcDbEntity
  8
0
100
AcDbLine
 10
172.9
 20
165.0
 30
0.0
 11
174.0
 21
165.0
 31
0.0
  0
LINE
  5
193
330
1E
100
AcDbEntity
  8
0
100
AcDbLine
 10
177.2
 20
165.0
 30
0.0
 11
179.4999999999999
 21
165.0
 31
0.0
  0
LINE
  5
194
330
1E
100
AcDbEntity
  8
0
100
AcDbLine
 10
175.0999999999999
 20
165.0
 30
0.0
 11
178.0
 21
165.0
 31
0.0
  0
LINE
  5
195
330
1E
100
AcDbEntity
  8
0
100
AcDbLine
 10
179.4999999999999
 20
165.0
 30
0.0
 11
182.1999999999999
 21
165.0
 31
0.0
  0
LINE
  5
196
330
1E
100
AcDbEntity
  8
0
100
AcDbLine
 10
150.0
 20
185.0
 30
0.0
 11
171.0
 21
165.0
 31
0.0
  0
LINE
  5
197
330
1E
100
AcDbEntity
  8
0
100
AcDbLine
 10
150.0
 20
185.0
 30
0.0
 11
151.3
 21
185.0
 31
0.0
  0
LINE
  5
198
330
1E
100
AcDbEntity
  8
0
100
AcDbLine
 10
150.0
 20
185.0
 30
0.0
 11
150.0
 21
190.0
 31
0.0
  0
LINE
  5
199
330
1E
100
AcDbEntity
  8
0
100
AcDbLine
 10
151.3
 20
185.0
 30
0.0
 11
154.6999999999999
 21
185.0
 31
0.0
  0
LINE
  5
19A
330
1E
100
AcDbEntity
  8
0
100
AcDbLine
 10
154.6999999999999
 20
185.0
 30
0.0
 11
160.3
 21
185.0
 31
0.0
  0
LINE
  5
19B
330
1E
100
AcDbEntity
  8
0
100
AcDbLine
 10
160.3
 20
185.0
 30
0.0
 11
167.5999999999999
 21
185.0
 31
0.0
  0
LINE
  5
19C
330
1E
100
AcDbEntity
  8
0
100
AcDbLine
 10
167.5999999999999
 20
185.0
 30
0.0
 11
176.0
 21
185.0
 31
0.0
  0
LINE
  5
19D
330
1E
100
AcDbEntity
  8
0
100
AcDbLine
 10
176.0
 20
185.0
 30
0.0
 11
185.0
 21
185.0
 31
0.0
  0
LINE
  5
19E
330
1E
100
AcDbEntity
  8
0
100
AcDbLine
 10
178.0
 20
165.0
 30
0.0
 11
181.4
 21
165.0
 31
0.0
  0
LINE
  5
19F
330
1E
100
AcDbEntity
  8
0
100
AcDbLine
 10
182.1999999999999
 20
165.0
 30
0.0
 11
185.0
 21
165.0
 31
0.0
  0
LINE
  5
1A0
330
1E
100
AcDbEntity
  8
0
100
AcDbLine
 10
181.4
 20
165.0
 30
0.0
 11
185.0
 21
165.0
 31
0.0
  0
LINE
  5
1A1
330
1E
100
AcDbEntity
  8
0
100
AcDbLine
 10
150.0
 20
190.0
 30
0.0
 11
151.3
 21
190.0
 31
0.0
  0
LINE
  5
1A2
330
1E
100
AcDbEntity
  8
0
100
AcDbLine
 10
150.0
 20
190.0
 30
0.0
 11
150.0
 21
185.0
 31
0.0
  0
LINE
  5
1A3
330
1E
100
AcDbEntity
  8
0
100
AcDbLine
 10
151.3
 20
190.0
 30
0.0
 11
154.6999999999999
 21
190.0
 31
0.0
  0
LINE
  5
1A4
330
1E
100
AcDbEntity
  8
0
100
AcDbLine
 10
154.6999999999999
 20
190.0
 30
0.0
 11
160.3
 21
190.0
 31
0.0
  0
LINE
  5
1A5
330
1E
100
AcDbEntity
  8
0
100
AcDbLine
 10
160.3
 20
190.0
 30
0.0
 11
167.5999999999999
 21
190.0
 31
0.0
  0
LINE
  5
1A6
330
1E
100
AcDbEntity
  8
0
100
AcDbLine
 10
167.5999999999999
 20
190.0
 30
0.0
 11
176.0
 21
190.0
 31
0.0
  0
LINE
  5
1A7
330
1E
100
AcDbEntity
  8
0
100
AcDbLine
 10
176.0
 20
190.0
 30
0.0
 11
185.0
 21
190.0
 31
0.0
  0
LINE
  5
1A8
330
1E
100
AcDbEntity
  8
0
100
AcDbLine
 10
185.0
 20
190.0
 30
0.0
 11
194.0
 21
190.0
 31
0.0
  0
LINE
  5
1A9
330
1E
100
AcDbEntity
  8
0
100
AcDbLine
 10
185.0
 20
185.0
 30
0.0
 11
194.0
 21
185.0
 31
0.0
  0
LINE
  5
1AA
330
1E
100
AcDbEntity
  8
0
100
AcDbLine
 10
187.8
 20
165.0
 30
0.0
 11
190.5
 21
165.0
 31
0.0
  0
LINE
  5
1AB
330
1E
100
AcDbEntity
  8
0
100
AcDbLine
 10
185.0
 20
165.0
 30
0.0
 11
187.8
 21
165.0
 31
0.0
  0
LINE
  5
1AC
330
1E
100
AcDbEntity
  8
0
100
AcDbLine
 10
185.0
 20
165.0
 30
0.0
 11
188.5999999999999
 21
165.0
 31
0.0
  0
LINE
  5
1AD
330
1E
100
AcDbEntity
  8
0
100
AcDbLine
 10
185.0
 20
159.0
 30
0.0
 11
187.8
 21
159.0
 31
0.0
  0
LINE
  5
1AE
330
1E
100
AcDbEntity
  8
0
100
AcDbLine
 10
172.5
 20
147.0
 30
0.0
 11
198.0
 21
147.0
 31
0.0
  0
LINE
  5
1AF
330
1E
100
AcDbEntity
  8
0
100
AcDbLine
 10
188.5999999999999
 20
165.0
 30
0.0
 11
192.0
 21
165.0
 31
0.0
  0
LINE
  5
1B0
330
1E
100
AcDbEntity
  8
0
100
AcDbLine
 10
190.5
 20
165.0
 30
0.0
 11
192.8
 21
165.0
 31
0.0
  0
LINE
  5
1B1
330
1E
100
AcDbEntity
  8
0
100
AcDbLine
 10
190.5
 20
159.0
 30
0.0
 11
192.8
 21
159.0
 31
0.0
  0
LINE
  5
1B2
330
1E
100
AcDbEntity
  8
0
100
AcDbLine
 10
198.0
 20
147.0
 30
0.0
 11
198.0
 21
157.0
 31
0.0
  0
LINE
  5
1B3
330
1E
100
AcDbEntity
  8
0
100
AcDbLine
 10
198.0
 20
157.0
 30
0.0
 11
198.0
 21
147.0
 31
0.0
  0
LINE
  5
1B4
330
1E
100
AcDbEntity
  8
0
100
AcDbLine
 10
195.5999999999999
 20
159.0
 30
0.0
 11
196.0
 21
159.0
 31
0.0
  0
LINE
  5
1B5
330
1E
100
AcDbEntity
  8
0
100
AcDbLine
 10
196.0
 20
159.0
 30
0.0
 11
198.0
 21
157.0
 31
0.0
  0
LINE
  5
1B6
330
1E
100
AcDbEntity
  8
0
100
AcDbLine
 10
196.0
 20
159.0
 30
0.0
 11
196.0
 21
165.0
 31
0.0
  0
LINE
  5
1B7
330
1E
100
AcDbEntity
  8
0
100
AcDbLine
 10
172.5
 20
157.0
 30
0.0
 11
198.0
 21
157.0
 31
0.0
  0
LINE
  5
1B8
330
1E
100
AcDbEntity
  8
0
100
AcDbLine
 10
194.5
 20
159.0
 30
0.0
 11
195.5999999999999
 21
159.0
 31
0.0
  0
LINE
  5
1B9
330
1E
100
AcDbEntity
  8
0
100
AcDbLine
 10
192.0
 20
165.0
 30
0.0
 11
194.9
 21
165.0
 31
0.0
  0
LINE
  5
1BA
330
1E
100
AcDbEntity
  8
0
100
AcDbLine
 10
194.9
 20
165.0
 30
0.0
 11
197.1
 21
165.0
 31
0.0
  0
LINE
  5
1BB
330
1E
100
AcDbEntity
  8
0
100
AcDbLine
 10
195.5999999999999
 20
165.0
 30
0.0
 11
196.0
 21
165.0
 31
0.0
  0
LINE
  5
1BC
330
1E
100
AcDbEntity
  8
0
100
AcDbLine
 10
194.5
 20
165.0
 30
0.0
 11
195.5999999999999
 21
165.0
 31
0.0
  0
LINE
  5
1BD
330
1E
100
AcDbEntity
  8
0
100
AcDbLine
 10
194.0
 20
190.0
 30
0.0
 11
202.4
 21
190.0
 31
0.0
  0
LINE
  5
1BE
330
1E
100
AcDbEntity
  8
0
100
AcDbLine
 10
194.0
 20
185.0
 30
0.0
 11
202.4
 21
185.0
 31
0.0
  0
LINE
  5
1BF
330
1E
100
AcDbEntity
  8
0
100
AcDbLine
 10
192.8
 20
165.0
 30
0.0
 11
194.5
 21
165.0
 31
0.0
  0
LINE
  5
1C0
330
1E
100
AcDbEntity
  8
0
100
AcDbLine
 10
199.0
 20
165.0
 30
0.0
 11
220.0
 21
185.0
 31
0.0
  0
LINE
  5
1C1
330
1E
100
AcDbEntity
  8
0
100
AcDbLine
 10
198.5
 20
165.0
 30
0.0
 11
199.0
 21
165.0
 31
0.0
  0
LINE
  5
1C2
330
1E
100
AcDbEntity
  8
0
100
AcDbLine
 10
218.6999999999999
 20
185.0
 30
0.0
 11
220.0
 21
185.0
 31
0.0
  0
LINE
  5
1C3
330
1E
100
AcDbEntity
  8
0
100
AcDbLine
 10
215.3
 20
185.0
 30
0.0
 11
218.6999999999999
 21
185.0
 31
0.0
  0
LINE
  5
1C4
330
1E
100
AcDbEntity
  8
0
100
AcDbLine
 10
209.6999999999999
 20
185.0
 30
0.0
 11
215.3
 21
185.0
 31
0.0
  0
LINE
  5
1C5
330
1E
100
AcDbEntity
  8
0
100
AcDbLine
 10
218.6999999999999
 20
190.0
 30
0.0
 11
220.0
 21
190.0
 31
0.0
  0
LINE
  5
1C6
330
1E
100
AcDbEntity
  8
0
100
AcDbLine
 10
220.0
 20
190.0
 30
0.0
 11
220.0
 21
185.0
 31
0.0
  0
LINE
  5
1C7
330
1E
100
AcDbEntity
  8
0
100
AcDbLine
 10
215.3
 20
190.0
 30
0.0
 11
218.6999999999999
 21
190.0
 31
0.0
  0
LINE
  5
1C8
330
1E
100
AcDbEntity
  8
0
100
AcDbLine
 10
209.6999999999999
 20
190.0
 30
0.0
 11
215.3
 21
190.0
 31
0.0
  0
LINE
  5
1C9
330
1E
100
AcDbEntity
  8
0
100
AcDbLine
 10
202.4
 20
190.0
 30
0.0
 11
209.6999999999999
 21
190.0
 31
0.0
  0
LINE
  5
1CA
330
1E
100
AcDbEntity
  8
0
100
AcDbLine
 10
202.4
 20
185.0
 30
0.0
 11
209.6999999999999
 21
185.0
 31
0.0
  0
LINE
  5
1CB
330
1E
100
AcDbEntity
  8
0
100
AcDbLine
 10
220.0
 20
185.0
 30
0.0
 11
220.0
 21
190.0
 31
0.0
  0
LINE
  5
1CC
330
1E
100
AcDbEntity
  8
0
100
AcDbLine
 10
197.1
 20
165.0
 30
0.0
 11
198.5
 21
165.0
 31
0.0
  0
LINE
  5
1CD
330
1E
100
AcDbEntity
  8
0
100
AcDbLine
 10
196.0
 20
165.0
 30
0.0
 11
197.1
 21
165.0
 31
0.0
  0
LINE
  5
1CE
330
1E
100
AcDbEntity
  8
0
100
AcDbLine
 10
196.0
 20
165.0
 30
0.0
 11
196.0
 21
159.0
 31
0.0
  0
LINE
  5
1CF
330
1E
100
AcDbEntity
  8
0
100
AcDbLine
 10
192.8
 20
159.0
 30
0.0
 11
194.5
 21
159.0
 31
0.0
  0
LINE
  5
1D3
330
1E
100
AcDbEntity
  8
0
100
AcDbLine
 10
185.0
 20
145.0
 30
0.0
 11
189.1999999999999
 21
145.0
 31
0.0
  0
LINE
  5
1D4
330
1E
100
AcDbEntity
  8
0
100
AcDbLine
 10
115.7999999999999
 20
141.6999999999999
 30
0.0
 11
121.1999999999999
 21
139.5
 31
0.0
  0
LINE
  5
1D5
330
1E
100
AcDbEntity
  8
0
100
AcDbLine
 10
104.2999999999999
 20
141.1999999999999
 30
0.0
 11
110.0
 21
142.0
 31
0.0
  0
LINE
  5
1D6
330
1E
100
AcDbEntity
  8
0
100
AcDbLine
 10
104.2
 20
141.6999999999999
 30
0.0
 11
110.0
 21
142.5
 31
0.0
  0
LINE
  5
1DB
330
1E
100
AcDbEntity
  8
0
100
AcDbLine
 10
113.8666999999999
 20
43.03329999999999
 30
0.0
 11
117.4667
 21
44.5
 31
0.0
  0
LINE
  5
1DC
330
1E
100
AcDbEntity
  8
0
100
AcDbLine
 10
95.5333
 20
53.6333
 30
0.0
 11
95.0
 21
57.5
 31
0.0
  0
LINE
  5
1DD
330
1E
100
AcDbEntity
  8
0
100
AcDbLine
 10
124.4666999999999
 20
53.6333
 30
0.0
 11
125.0
 21
57.5
 31
0.0
  0
ENDSEC
  0
SECTION
  2
OBJECTS
  0
DICTIONARY
  5
C
330
0
100
AcDbDictionary
  3
ACAD_GROUP
350
D
  3
ACAD_LAYOUT
350
19
  3
ACAD_MLINESTYLE
350
16
  3
ACAD_PLOTSETTINGS
350
18
  3
ACAD_PLOTSTYLENAME
350
E
  3
ACDBHEADERROUNDTRIPXREC
350
1E1
  3
ACDBVARIABLEDICTIONARY
350
1DE
  0
DICTIONARY
  5
203
330
1E
100
AcDbDictionary
280
     1
  3
ACAD_LAYOUTSELFREF
360
204
  0
DICTIONARY
  5
201
330
1A
100
AcDbDictionary
280
     1
  3
ACAD_LAYOUTSELFREF
360
202
  0
DICTIONARY
  5
D
102
{ACAD_REACTORS
330
C
102
}
330
C
100
AcDbDictionary
  0
DICTIONARY
  5
19
102
{ACAD_REACTORS
330
C
102
}
330
C
100
AcDbDictionary
  0
DICTIONARY
  5
16
102
{ACAD_REACTORS
330
C
102
}
330
C
100
AcDbDictionary
  3
STANDARD
350
17
  0
DICTIONARY
  5
18
102
{ACAD_REACTORS
330
C
102
}
330
C
100
AcDbDictionary
  0
ACDBDICTIONARYWDFLT
  5
E
102
{ACAD_REACTORS
330
C
102
}
330
C
100
AcDbDictionary
281
     1
  3
Normal
350
F
100
AcDbDictionaryWithDefault
340
F
  0
DICTIONARY
  5
1E1
102
{ACAD_REACTORS
330
C
102
}
330
C
100
AcDbDictionary
  3
CEPSNTYPE
350
1EB
  3
FINGERPRINTGUID
350
1EC
  3
HYPERLINKBASE
350
1E4
  3
INSUNITS
350
1EA
  3
LAYOUTDICT
350
1E6
  3
LWETCUNION
350
1E9
  3
PLOTSETDICT
350
1E7
  3
PLOTSTYLNAMDICT
350
1E8
  3
PSVPSCALE
350
1EE
  3
PUCSBASE
350
1F1
  3
PUCSORGBACK
350
1F7
  3
PUCSORGBOTTOM
350
1F3
  3
PUCSORGFRONT
350
1F6
  3
PUCSORGLEFT
350
1F4
  3
PUCSORGRIGHT
350
1F5
  3
PUCSORGTOP
350
1F2
  3
PUCSORTHOREF
350
1EF
  3
PUCSORTHOVIEW
350
1F0
  3
STYLESHEET
350
1E5
  3
TSTACKALIGN
350
1E2
  3
TSTACKSIZE
350
1E3
  3
UCSBASE
350
1FA
  3
UCSORGBACK
350
200
  3
UCSORGBOTTOM
350
1FC
  3
UCSORGFRONT
350
1FF
  3
UCSORGLEFT
350
1FD
  3
UCSORGRIGHT
350
1FE
  3
UCSORGTOP
350
1FB
  3
UCSORTHOREF
350
1F8
  3
UCSORTHOVIEW
350
1F9
  3
VERSIONGUID
350
1ED
  0
DICTIONARY
  5
1DE
102
{ACAD_REACTORS
330
C
102
}
330
C
100
AcDbDictionary
  3
DIMASSOC
350
1DF
  0
XRECORD
  5
204
102
{ACAD_REACTORS
330
203
102
}
330
203
100
AcDbXrecord
340
1E
  0
XRECORD
  5
202
102
{ACAD_REACTORS
330
201
102
}
330
201
100
AcDbXrecord
340
1A
  0
MLINESTYLE
  5
17
102
{ACAD_REACTORS
330
16
102
}
330
16
100
AcDbMlineStyle
  2
STANDARD
 70
     0
  3

 62
   256
 51
90.0
 52
90.0
 71
     2
 49
0.5
 62
   256
  6
BYLAYER
 49
-0.5
 62
   256
  6
BYLAYER
  0
ACDBPLACEHOLDER
  5
F
102
{ACAD_REACTORS
330
E
102
}
330
E
100
AcDbPlaceHolder
280
     0
  0
XRECORD
  5
1EB
102
{ACAD_REACTORS
330
1E1
102
}
330
1E1
100
AcDbXrecord
 90
        0
  0
XRECORD
  5
1EC
102
{ACAD_REACTORS
330
1E1
102
}
330
1E1
100
AcDbXrecord
  1
{A149E968-5F8C-45B2-A372-485E5B2CF0CB}
  0
XRECORD
  5
1E4
102
{ACAD_REACTORS
330
1E1
102
}
330
1E1
100
AcDbXrecord
  1

  0
XRECORD
  5
1EA
102
{ACAD_REACTORS
330
1E1
102
}
330
1E1
100
AcDbXrecord
 90
        0
  0
XRECORD
  5
1E6
102
{ACAD_REACTORS
330
1E1
102
}
330
1E1
100
AcDbXrecord
340
19
  0
XRECORD
  5
1E9
102
{ACAD_REACTORS
330
1E1
102
}
330
1E1
100
AcDbXrecord
 90
    10781
  0
XRECORD
  5
1E7
102
{ACAD_REACTORS
330
1E1
102
}
330
1E1
100
AcDbXrecord
340
18
  0
XRECORD
  5
1E8
102
{ACAD_REACTORS
330
1E1
102
}
330
1E1
100
AcDbXrecord
340
E
  0
XRECORD
  5
1EE
102
{ACAD_REACTORS
330
1E1
102
}
330
1E1
100
AcDbXrecord
 40
0.0
  0
XRECORD
  5
1F1
102
{ACAD_REACTORS
330
1E1
102
}
330
1E1
100
AcDbXrecord
340
0
  0
XRECORD
  5
1F7
102
{ACAD_REACTORS
330
1E1
102
}
330
1E1
100
AcDbXrecord
 10
0.0
 20
0.0
 30
0.0
  0
XRECORD
  5
1F3
102
{ACAD_REACTORS
330
1E1
102
}
330
1E1
100
AcDbXrecord
 10
0.0
 20
0.0
 30
0.0
  0
XRECORD
  5
1F6
102
{ACAD_REACTORS
330
1E1
102
}
330
1E1
100
AcDbXrecord
 10
0.0
 20
0.0
 30
0.0
  0
XRECORD
  5
1F4
102
{ACAD_REACTORS
330
1E1
102
}
330
1E1
100
AcDbXrecord
 10
0.0
 20
0.0
 30
0.0
  0
XRECORD
  5
1F5
102
{ACAD_REACTORS
330
1E1
102
}
330
1E1
100
AcDbXrecord
 10
0.0
 20
0.0
 30
0.0
  0
XRECORD
  5
1F2
102
{ACAD_REACTORS
330
1E1
102
}
330
1E1
100
AcDbXrecord
 10
0.0
 20
0.0
 30
0.0
  0
XRECORD
  5
1EF
102
{ACAD_REACTORS
330
1E1
102
}
330
1E1
100
AcDbXrecord
340
0
  0
XRECORD
  5
1F0
102
{ACAD_REACTORS
330
1E1
102
}
330
1E1
100
AcDbXrecord
 70
     0
  0
XRECORD
  5
1E5
102
{ACAD_REACTORS
330
1E1
102
}
330
1E1
100
AcDbXrecord
  1

  0
XRECORD
  5
1E2
102
{ACAD_REACTORS
330
1E1
102
}
330
1E1
100
AcDbXrecord
 90
        1
  0
XRECORD
  5
1E3
102
{ACAD_REACTORS
330
1E1
102
}
330
1E1
100
AcDbXrecord
 90
       70
  0
XRECORD
  5
1FA
102
{ACAD_REACTORS
330
1E1
102
}
330
1E1
100
AcDbXrecord
340
0
  0
XRECORD
  5
200
102
{ACAD_REACTORS
330
1E1
102
}
330
1E1
100
AcDbXrecord
 10
0.0
 20
0.0
 30
0.0
  0
XRECORD
  5
1FC
102
{ACAD_REACTORS
330
1E1
102
}
330
1E1
100
AcDbXrecord
 10
0.0
 20
0.0
 30
0.0
  0
XRECORD
  5
1FF
102
{ACAD_REACTORS
330
1E1
102
}
330
1E1
100
AcDbXrecord
 10
0.0
 20
0.0
 30
0.0
  0
XRECORD
  5
1FD
102
{ACAD_REACTORS
330
1E1
102
}
330
1E1
100
AcDbXrecord
 10
0.0
 20
0.0
 30
0.0
  0
XRECORD
  5
1FE
102
{ACAD_REACTORS
330
1E1
102
}
330
1E1
100
AcDbXrecord
 10
0.0
 20
0.0
 30
0.0
  0
XRECORD
  5
1FB
102
{ACAD_REACTORS
330
1E1
102
}
330
1E1
100
AcDbXrecord
 10
0.0
 20
0.0
 30
0.0
  0
XRECORD
  5
1F8
102
{ACAD_REACTORS
330
1E1
102
}
330
1E1
100
AcDbXrecord
340
0
  0
XRECORD
  5
1F9
102
{ACAD_REACTORS
330
1E1
102
}
330
1E1
100
AcDbXrecord
 70
     1
  0
XRECORD
  5
1ED
102
{ACAD_REACTORS
330
1E1
102
}
330
1E1
100
AcDbXrecord
  1
{CD33D833-B069-4488-BFF5-691C52BD1C38}
  0
DICTIONARYVAR
  5
1DF
102
{ACAD_REACTORS
330
1DE
102
}
330
1DE
100
DictionaryVariables
280
     0
  1
1
  0
ENDSEC
  0
EOF
