  0
SECTION
  2
HEADER
  9
$ACADVER
  1
AC1014
  9
$ACADMAINTVER
 70
     9
  9
$DWGCODEPAGE
  3
ANSI_1252
  9
$INSBASE
 10
0.0
 20
0.0
 30
0.0
  9
$EXTMIN
 10
0.0000000000000073
 20
0.098499999999995
 30
0.0
  9
$EXTMAX
 10
220.0
 20
192.9014999999999
 30
0.0
  9
$LIMMIN
 10
0.0
 20
0.0
  9
$LIMMAX
 10
12.0
 20
9.0
  9
$ORTHOMODE
 70
     0
  9
$REGENMODE
 70
     1
  9
$FILLMODE
 70
     1
  9
$QTEXTMODE
 70
     0
  9
$MIRRTEXT
 70
     1
  9
$DRAGMODE
 70
     2
  9
$LTSCALE
 40
1.0
  9
$OSMODE
 70
    37
  9
$ATTMODE
 70
     1
  9
$TEXTSIZE
 40
0.2
  9
$TRACEWID
 40
0.05
  9
$TEXTSTYLE
  7
STANDARD
  9
$CLAYER
  8
0
  9
$CELTYPE
  6
CONTINUOUS
  9
$CECOLOR
 62
   256
  9
$CELTSCALE
 40
1.0
  9
$DELOBJ
 70
     1
  9
$DISPSILH
 70
     0
  9
$DIMSCALE
 40
1.0
  9
$DIMASZ
 40
0.18
  9
$DIMEXO
 40
0.0625
  9
$DIMDLI
 40
0.38
  9
$DIMRND
 40
0.0
  9
$DIMDLE
 40
0.0
  9
$DIMEXE
 40
0.18
  9
$DIMTP
 40
0.0
  9
$DIMTM
 40
0.0
  9
$DIMTXT
 40
0.18
  9
$DIMCEN
 40
0.09
  9
$DIMTSZ
 40
0.0
  9
$DIMTOL
 70
     0
  9
$DIMLIM
 70
     0
  9
$DIMTIH
 70
     1
  9
$DIMTOH
 70
     1
  9
$DIMSE1
 70
     0
  9
$DIMSE2
 70
     0
  9
$DIMTAD
 70
     0
  9
$DIMZIN
 70
     0
  9
$DIMBLK
  1

  9
$DIMASO
 70
     1
  9
$DIMSHO
 70
     1
  9
$DIMPOST
  1

  9
$DIMAPOST
  1

  9
$DIMALT
 70
     0
  9
$DIMALTD
 70
     2
  9
$DIMALTF
 40
25.4
  9
$DIMLFAC
 40
1.0
  9
$DIMTOFL
 70
     0
  9
$DIMTVP
 40
0.0
  9
$DIMTIX
 70
     0
  9
$DIMSOXD
 70
     0
  9
$DIMSAH
 70
     0
  9
$DIMBLK1
  1

  9
$DIMBLK2
  1

  9
$DIMSTYLE
  2
STANDARD
  9
$DIMCLRD
 70
     0
  9
$DIMCLRE
 70
     0
  9
$DIMCLRT
 70
     0
  9
$DIMTFAC
 40
1.0
  9
$DIMGAP
 40
0.09
  9
$DIMJUST
 70
     0
  9
$DIMSD1
 70
     0
  9
$DIMSD2
 70
     0
  9
$DIMTOLJ
 70
     1
  9
$DIMTZIN
 70
     0
  9
$DIMALTZ
 70
     0
  9
$DIMALTTZ
 70
     0
  9
$DIMFIT
 70
     3
  9
$DIMUPT
 70
     0
  9
$DIMUNIT
 70
     2
  9
$DIMDEC
 70
     4
  9
$DIMTDEC
 70
     4
  9
$DIMALTU
 70
     2
  9
$DIMALTTD
 70
     2
  9
$DIMTXSTY
  7
STANDARD
  9
$DIMAUNIT
 70
     0
  9
$LUNITS
 70
     2
  9
$LUPREC
 70
     4
  9
$SKETCHINC
 40
0.1
  9
$FILLETRAD
 40
0.0
  9
$AUNITS
 70
     0
  9
$AUPREC
 70
     0
  9
$MENU
  1
.
  9
$ELEVATION
 40
0.0
  9
$PELEVATION
 40
0.0
  9
$THICKNESS
 40
0.0
  9
$LIMCHECK
 70
     0
  9
$BLIPMODE
 70
     0
  9
$CHAMFERA
 40
0.0
  9
$CHAMFERB
 40
0.0
  9
$CHAMFERC
 40
0.0
  9
$CHAMFERD
 40
0.0
  9
$SKPOLY
 70
     0
  9
$TDCREATE
 40
2454700.330973842
  9
$TDUPDATE
 40
2454700.333755057
  9
$TDINDWG
 40
0.0027814005
  9
$TDUSRTIMER
 40
0.0027814005
  9
$USRTIMER
 70
     1
  9
$ANGBASE
 50
0.0
  9
$ANGDIR
 70
     0
  9
$PDMODE
 70
     0
  9
$PDSIZE
 40
0.0
  9
$PLINEWID
 40
0.0
  9
$COORDS
 70
     1
  9
$SPLFRAME
 70
     0
  9
$SPLINETYPE
 70
     6
  9
$SPLINESEGS
 70
     8
  9
$ATTDIA
 70
     0
  9
$ATTREQ
 70
     1
  9
$HANDLING
 70
 22529
  9
$HANDSEED
  5
24A
  9
$SURFTAB1
 70
     6
  9
$SURFTAB2
 70
     6
  9
$SURFTYPE
 70
     6
  9
$SURFU
 70
     6
  9
$SURFV
 70
     6
  9
$UCSNAME
  2

  9
$UCSORG
 10
0.0
 20
0.0
 30
0.0
  9
$UCSXDIR
 10
1.0
 20
0.0
 30
0.0
  9
$UCSYDIR
 10
0.0
 20
1.0
 30
0.0
  9
$PUCSNAME
  2

  9
$PUCSORG
 10
0.0
 20
0.0
 30
0.0
  9
$PUCSXDIR
 10
1.0
 20
0.0
 30
0.0
  9
$PUCSYDIR
 10
0.0
 20
1.0
 30
0.0
  9
$USERI1
 70
     0
  9
$USERI2
 70
     0
  9
$USERI3
 70
     0
  9
$USERI4
 70
     0
  9
$USERI5
 70
     0
  9
$USERR1
 40
0.0
  9
$USERR2
 40
0.0
  9
$USERR3
 40
0.0
  9
$USERR4
 40
0.0
  9
$USERR5
 40
0.0
  9
$WORLDVIEW
 70
     1
  9
$SHADEDGE
 70
     3
  9
$SHADEDIF
 70
    70
  9
$TILEMODE
 70
     1
  9
$MAXACTVP
 70
    64
  9
$PINSBASE
 10
0.0
 20
0.0
 30
0.0
  9
$PLIMCHECK
 70
     0
  9
$PEXTMIN
 10
1.000000000000000E+20
 20
1.000000000000000E+20
 30
1.000000000000000E+20
  9
$PEXTMAX
 10
-1.000000000000000E+20
 20
-1.000000000000000E+20
 30
-1.000000000000000E+20
  9
$PLIMMIN
 10
0.0
 20
0.0
  9
$PLIMMAX
 10
12.0
 20
9.0
  9
$UNITMODE
 70
     0
  9
$VISRETAIN
 70
     1
  9
$PLINEGEN
 70
     0
  9
$PSLTSCALE
 70
     1
  9
$TREEDEPTH
 70
  3020
  9
$PICKSTYLE
 70
     1
  9
$CMLSTYLE
  2
STANDARD
  9
$CMLJUST
 70
     0
  9
$CMLSCALE
 40
1.0
  9
$PROXYGRAPHICS
 70
     1
  9
$MEASUREMENT
 70
     0
  0
ENDSEC
  0
SECTION
  2
CLASSES
  0
CLASS
  1
ACDBDICTIONARYWDFLT
  2
AcDbDictionaryWithDefault
  3
AutoCAD 2000
 90
        0
280
     0
281
     0
  0
CLASS
  1
ACDBPLACEHOLDER
  2
AcDbPlaceHolder
  3
AutoCAD 2000
 90
        0
280
     0
281
     0
  0
CLASS
  1
LAYOUT
  2
AcDbLayout
  3
AutoCAD 2000
 90
        0
280
     0
281
     0
  0
CLASS
  1
DICTIONARYVAR
  2
AcDbDictionaryVar
  3
AutoCAD 2000
 90
        0
280
     0
281
     0
  0
CLASS
  1
LONG_TRANSACTION
  2
AcDbLongTransaction
  3
AutoCAD 2000
 90
        0
280
     0
281
     0
  0
CLASS
  1
LWPOLYLINE
  2
AcDbPolyline
  3
AutoCAD 2000
 90
        0
280
     0
281
     1
  0
CLASS
  1
HATCH
  2
AcDbHatch
  3
AutoCAD 2000
 90
        0
280
     0
281
     1
  0
CLASS
  1
XRECORD
  2
AcDbXrecord
  3
AutoCAD 2000
 90
        0
280
     0
281
     0
  0
ENDSEC
  0
SECTION
  2
TABLES
  0
TABLE
  2
VPORT
  5
8
330
0
100
AcDbSymbolTable
 70
     2
  0
VPORT
  5
225
330
8
100
AcDbSymbolTableRecord
100
AcDbViewportTableRecord
  2
*ACTIVE
 70
     0
 10
0.0
 20
0.0
 11
1.0
 21
1.0
 12
110.0
 22
96.5
 13
0.0
 23
0.0
 14
1.0
 24
1.0
 15
0.0
 25
0.0
 16
0.0
 26
0.0
 36
1.0
 17
0.0
 27
0.0
 37
0.0
 40
194.2823069053708
 41
2.078104993597951
 42
50.0
 43
0.0
 44
0.0
 50
0.0
 51
0.0
 71
     0
 72
   100
 73
     1
 74
     3
 75
     0
 76
     0
 77
     0
 78
     0
  0
ENDTAB
  0
TABLE
  2
LTYPE
  5
5
330
0
100
AcDbSymbolTable
 70
     1
  0
LTYPE
  5
13
330
5
100
AcDbSymbolTableRecord
100
AcDbLinetypeTableRecord
  2
BYBLOCK
 70
     0
  3

 72
    65
 73
     0
 40
0.0
  0
LTYPE
  5
14
330
5
100
AcDbSymbolTableRecord
100
AcDbLinetypeTableRecord
  2
BYLAYER
 70
     0
  3

 72
    65
 73
     0
 40
0.0
  0
LTYPE
  5
15
330
5
100
AcDbSymbolTableRecord
100
AcDbLinetypeTableRecord
  2
CONTINUOUS
 70
     0
  3
Solid line
 72
    65
 73
     0
 40
0.0
  0
ENDTAB
  0
TABLE
  2
LAYER
  5
2
330
0
100
AcDbSymbolTable
 70
     1
  0
LAYER
  5
10
330
2
100
AcDbSymbolTableRecord
100
AcDbLayerTableRecord
  2
0
 70
     0
 62
     7
  6
CONTINUOUS
  0
ENDTAB
  0
TABLE
  2
STYLE
  5
3
330
0
100
AcDbSymbolTable
 70
     1
  0
STYLE
  5
11
330
3
100
AcDbSymbolTableRecord
100
AcDbTextStyleTableRecord
  2
STANDARD
 70
     0
 40
0.0
 41
1.0
 50
0.0
 71
     0
 42
0.2
  3
txt
  4

  0
ENDTAB
  0
TABLE
  2
VIEW
  5
6
330
0
100
AcDbSymbolTable
 70
     0
  0
ENDTAB
  0
TABLE
  2
UCS
  5
7
330
0
100
AcDbSymbolTable
 70
     0
  0
ENDTAB
  0
TABLE
  2
APPID
  5
9
330
0
100
AcDbSymbolTable
 70
     1
  0
APPID
  5
12
330
9
100
AcDbSymbolTableRecord
100
AcDbRegAppTableRecord
  2
ACAD
 70
     0
  0
ENDTAB
  0
TABLE
  2
DIMSTYLE
  5
A
330
0
100
AcDbSymbolTable
 70
     1
  0
DIMSTYLE
105
20D
330
A
100
AcDbSymbolTableRecord
100
AcDbDimStyleTableRecord
  2
STANDARD
 70
     0
  3

  4

  5

  6

  7

 40
1.0
 41
0.18
 42
0.0625
 43
0.38
 44
0.18
 45
0.0
 46
0.0
 47
0.0
 48
0.0
140
0.18
141
0.09
142
0.0
143
25.4
144
1.0
145
0.0
146
1.0
147
0.09
 71
     0
 72
     0
 73
     1
 74
     1
 75
     0
 76
     0
 77
     0
 78
     0
170
     0
171
     2
172
     0
173
     0
174
     0
175
     0
176
     0
177
     0
178
     0
270
     2
271
     4
272
     4
273
     2
274
     2
340
11
275
     0
280
     0
281
     0
282
     0
283
     1
284
     0
285
     0
286
     0
287
     3
288
     0
  0
ENDTAB
  0
TABLE
  2
BLOCK_RECORD
  5
1
330
0
100
AcDbSymbolTable
 70
     0
  0
BLOCK_RECORD
  5
1E
102
{ACAD_XDICTIONARY
360
248
102
}
330
1
100
AcDbSymbolTableRecord
100
AcDbBlockTableRecord
  2
*MODEL_SPACE
  0
BLOCK_RECORD
  5
1A
102
{ACAD_XDICTIONARY
360
246
102
}
330
1
100
AcDbSymbolTableRecord
100
AcDbBlockTableRecord
  2
*PAPER_SPACE
  0
ENDTAB
  0
ENDSEC
  0
SECTION
  2
BLOCKS
  0
BLOCK
  5
1F
330
1E
100
AcDbEntity
  8
0
100
AcDbBlockBegin
  2
*MODEL_SPACE
 70
     0
 10
0.0
 20
0.0
 30
0.0
  3
*MODEL_SPACE
  1

  0
ENDBLK
  5
20
330
1E
100
AcDbEntity
  8
0
100
AcDbBlockEnd
  0
BLOCK
  5
1B
330
1A
100
AcDbEntity
 67
     1
  8
0
100
AcDbBlockBegin
  2
*PAPER_SPACE
 70
     0
 10
0.0
 20
0.0
 30
0.0
  3
*PAPER_SPACE
  1

  0
ENDBLK
  5
1C
330
1A
100
AcDbEntity
 67
     1
  8
0
100
AcDbBlockEnd
  0
ENDSEC
  0
SECTION
  2
ENTITIES
  0
LINE
  5
22
330
1E
100
AcDbEntity
  8
0
100
AcDbLine
 10
1.3
 20
116.9014999999999
 30
0.0
 11
4.700000000000009
 21
125.3014999999999
 31
0.0
  0
LINE
  5
23
330
1E
100
AcDbEntity
  8
0
100
AcDbLine
 10
0.0000000000000073
 20
107.9015
 30
0.0
 11
1.3
 21
98.9015
 31
0.0
  0
LINE
  5
24
330
1E
100
AcDbEntity
  8
0
100
AcDbLine
 10
0.0000000000000073
 20
107.9015
 30
0.0
 11
1.3
 21
116.9014999999999
 31
0.0
  0
LINE
  5
25
330
1E
100
AcDbEntity
  8
0
100
AcDbLine
 10
1.3
 20
116.9014999999999
 30
0.0
 11
4.700000000000009
 21
125.3014999999999
 31
0.0
  0
LINE
  5
26
330
1E
100
AcDbEntity
  8
0
100
AcDbLine
 10
4.700000000000009
 20
125.3014999999999
 30
0.0
 11
10.3
 21
132.6014999999999
 31
0.0
  0
LINE
  5
27
330
1E
100
AcDbEntity
  8
0
100
AcDbLine
 10
10.3
 20
132.6014999999999
 30
0.0
 11
17.6
 21
138.2015
 31
0.0
  0
LINE
  5
28
330
1E
100
AcDbEntity
  8
0
100
AcDbLine
 10
1.3
 20
98.9015
 30
0.0
 11
4.700000000000009
 21
90.5015
 31
0.0
  0
LINE
  5
29
330
1E
100
AcDbEntity
  8
0
100
AcDbLine
 10
1.3
 20
98.9015
 30
0.0
 11
4.700000000000009
 21
90.5015
 31
0.0
  0
LINE
  5
2A
330
1E
100
AcDbEntity
  8
0
100
AcDbLine
 10
4.700000000000009
 20
90.5015
 30
0.0
 11
10.3
 21
83.20149999999999
 31
0.0
  0
LINE
  5
2B
330
1E
100
AcDbEntity
  8
0
100
AcDbLine
 10
17.6
 20
138.2015
 30
0.0
 11
26.0
 21
141.6014999999999
 31
0.0
  0
LINE
  5
2C
330
1E
100
AcDbEntity
  8
0
100
AcDbLine
 10
10.3
 20
83.20149999999999
 30
0.0
 11
17.6
 21
77.6015
 31
0.0
  0
LINE
  5
2D
330
1E
100
AcDbEntity
  8
0
100
AcDbLine
 10
17.6
 20
77.6015
 30
0.0
 11
26.0
 21
74.20149999999999
 31
0.0
  0
LINE
  5
2E
330
1E
100
AcDbEntity
  8
0
100
AcDbLine
 10
26.0
 20
74.20149999999999
 30
0.0
 11
35.0
 21
72.9015
 31
0.0
  0
LINE
  5
2F
330
1E
100
AcDbEntity
  8
0
100
AcDbLine
 10
35.0
 20
72.9015
 30
0.0
 11
44.0
 21
74.20149999999999
 31
0.0
  0
LINE
  5
30
330
1E
100
AcDbEntity
  8
0
100
AcDbLine
 10
35.0
 20
91.4015
 30
0.0
 11
101.0
 21
91.4015
 31
0.0
  0
LINE
  5
31
330
1E
100
AcDbEntity
  8
0
100
AcDbLine
 10
65.3
 20
90.5015
 30
0.0
 11
65.46190476190479
 21
90.90149999999999
 31
0.0
  0
LINE
  5
32
330
1E
100
AcDbEntity
  8
0
100
AcDbLine
 10
59.7
 20
83.20149999999999
 30
0.0
 11
65.3
 21
90.5015
 31
0.0
  0
LINE
  5
33
330
1E
100
AcDbEntity
  8
0
100
AcDbLine
 10
52.4
 20
77.6015
 30
0.0
 11
59.7
 21
83.20149999999999
 31
0.0
  0
LINE
  5
34
330
1E
100
AcDbEntity
  8
0
100
AcDbLine
 10
44.0
 20
74.20149999999999
 30
0.0
 11
52.4
 21
77.6015
 31
0.0
  0
LINE
  5
35
330
1E
100
AcDbEntity
  8
0
100
AcDbLine
 10
77.0
 20
90.90149999999999
 30
0.0
 11
86.0035
 21
90.90149999999999
 31
0.0
  0
LINE
  5
36
330
1E
100
AcDbEntity
  8
0
100
AcDbLine
 10
86.0035
 20
90.90149999999999
 30
0.0
 11
93.42879999999999
 21
90.90149999999999
 31
0.0
  0
LINE
  5
37
330
1E
100
AcDbEntity
  8
0
100
AcDbLine
 10
35.0
 20
90.90149999999999
 30
0.0
 11
77.0
 21
90.90149999999999
 31
0.0
  0
LINE
  5
38
330
1E
100
AcDbEntity
  8
0
100
AcDbLine
 10
35.0
 20
90.90149999999999
 30
0.0
 11
101.0
 21
90.90149999999999
 31
0.0
  0
LINE
  5
39
330
1E
100
AcDbEntity
  8
0
100
AcDbLine
 10
30.8
 20
92.00149999999998
 30
0.0
 11
35.0
 21
91.4015
 31
0.0
  0
LINE
  5
3A
330
1E
100
AcDbEntity
  8
0
100
AcDbLine
 10
26.6
 20
93.6015
 30
0.0
 11
30.8
 21
92.00149999999998
 31
0.0
  0
LINE
  5
3B
330
1E
100
AcDbEntity
  8
0
100
AcDbLine
 10
30.6
 20
91.5015
 30
0.0
 11
35.0
 21
90.90149999999999
 31
0.0
  0
LINE
  5
3C
330
1E
100
AcDbEntity
  8
0
100
AcDbLine
 10
26.5
 20
93.20149999999999
 30
0.0
 11
30.6
 21
91.5015
 31
0.0
  0
LINE
  5
3D
330
1E
100
AcDbEntity
  8
0
100
AcDbLine
 10
23.3
 20
96.2015
 30
0.0
 11
26.6
 21
93.6015
 31
0.0
  0
LINE
  5
3E
330
1E
100
AcDbEntity
  8
0
100
AcDbLine
 10
20.69999999999999
 20
99.5015
 30
0.0
 11
23.3
 21
96.2015
 31
0.0
  0
LINE
  5
3F
330
1E
100
AcDbEntity
  8
0
100
AcDbLine
 10
23.0
 20
95.90149999999999
 30
0.0
 11
26.5
 21
93.20149999999999
 31
0.0
  0
LINE
  5
40
330
1E
100
AcDbEntity
  8
0
100
AcDbLine
 10
20.3
 20
99.4015
 30
0.0
 11
23.0
 21
95.90149999999999
 31
0.0
  0
LINE
  5
41
330
1E
100
AcDbEntity
  8
0
100
AcDbLine
 10
20.69999999999999
 20
116.3015
 30
0.0
 11
23.3
 21
119.6015
 31
0.0
  0
LINE
  5
42
330
1E
100
AcDbEntity
  8
0
100
AcDbLine
 10
19.1
 20
112.1015
 30
0.0
 11
20.69999999999999
 21
116.3015
 31
0.0
  0
LINE
  5
43
330
1E
100
AcDbEntity
  8
0
100
AcDbLine
 10
26.6
 20
122.2015
 30
0.0
 11
30.8
 21
123.8015
 31
0.0
  0
LINE
  5
44
330
1E
100
AcDbEntity
  8
0
100
AcDbLine
 10
23.3
 20
119.6015
 30
0.0
 11
26.6
 21
122.2015
 31
0.0
  0
LINE
  5
45
330
1E
100
AcDbEntity
  8
0
100
AcDbLine
 10
26.0
 20
141.6014999999999
 30
0.0
 11
35.0
 21
142.9014999999999
 31
0.0
  0
LINE
  5
46
330
1E
100
AcDbEntity
  8
0
100
AcDbLine
 10
77.0
 20
124.4015
 30
0.0
 11
80.17000000000001
 21
124.4015
 31
0.0
  0
LINE
  5
47
330
1E
100
AcDbEntity
  8
0
100
AcDbLine
 10
80.17000000000001
 20
124.4015
 30
0.0
 11
82.9
 21
124.4015
 31
0.0
  0
LINE
  5
48
330
1E
100
AcDbEntity
  8
0
100
AcDbLine
 10
82.9
 20
124.4015
 30
0.0
 11
85.23999999999999
 21
124.4015
 31
0.0
  0
LINE
  5
49
330
1E
100
AcDbEntity
  8
0
100
AcDbLine
 10
85.23999999999999
 20
124.4015
 30
0.0
 11
86.65
 21
124.4015
 31
0.0
  0
LINE
  5
4A
330
1E
100
AcDbEntity
  8
0
100
AcDbLine
 10
35.0
 20
142.9014999999999
 30
0.0
 11
44.0
 21
141.6014999999999
 31
0.0
  0
LINE
  5
4B
330
1E
100
AcDbEntity
  8
0
100
AcDbLine
 10
85.66599999999999
 20
124.9014999999999
 30
0.0
 11
87.06839999999999
 21
124.9014999999999
 31
0.0
  0
LINE
  5
4C
330
1E
100
AcDbEntity
  8
0
100
AcDbLine
 10
83.3669
 20
124.9014999999999
 30
0.0
 11
85.66599999999999
 21
124.9014999999999
 31
0.0
  0
LINE
  5
4D
330
1E
100
AcDbEntity
  8
0
100
AcDbLine
 10
80.4471
 20
124.9014999999999
 30
0.0
 11
83.3669
 21
124.9014999999999
 31
0.0
  0
LINE
  5
4E
330
1E
100
AcDbEntity
  8
0
100
AcDbLine
 10
65.3
 20
125.3014999999999
 30
0.0
 11
65.46190476190479
 21
124.9014999999999
 31
0.0
  0
LINE
  5
4F
330
1E
100
AcDbEntity
  8
0
100
AcDbLine
 10
59.7
 20
132.6014999999999
 30
0.0
 11
65.3
 21
125.3014999999999
 31
0.0
  0
LINE
  5
50
330
1E
100
AcDbEntity
  8
0
100
AcDbLine
 10
52.4
 20
138.2015
 30
0.0
 11
59.7
 21
132.6014999999999
 31
0.0
  0
LINE
  5
51
330
1E
100
AcDbEntity
  8
0
100
AcDbLine
 10
44.0
 20
141.6014999999999
 30
0.0
 11
52.4
 21
138.2015
 31
0.0
  0
LINE
  5
52
330
1E
100
AcDbEntity
  8
0
100
AcDbLine
 10
77.0
 20
124.9014999999999
 30
0.0
 11
80.4471
 21
124.9014999999999
 31
0.0
  0
LINE
  5
53
330
1E
100
AcDbEntity
  8
0
100
AcDbLine
 10
35.0
 20
124.9014999999999
 30
0.0
 11
77.0
 21
124.9014999999999
 31
0.0
  0
LINE
  5
54
330
1E
100
AcDbEntity
  8
0
100
AcDbLine
 10
35.0
 20
124.4015
 30
0.0
 11
77.0
 21
124.4015
 31
0.0
  0
LINE
  5
55
330
1E
100
AcDbEntity
  8
0
100
AcDbLine
 10
87.5
 20
124.9014999999999
 30
0.0
 11
90.5
 21
124.9014999999999
 31
0.0
  0
LINE
  5
56
330
1E
100
AcDbEntity
  8
0
100
AcDbLine
 10
87.0
 20
124.4015
 30
0.0
 11
90.0
 21
124.4015
 31
0.0
  0
LINE
  5
57
330
1E
100
AcDbEntity
  8
0
100
AcDbLine
 10
87.06839999999999
 20
124.9014999999999
 30
0.0
 11
87.5
 21
124.9014999999999
 31
0.0
  0
LINE
  5
58
330
1E
100
AcDbEntity
  8
0
100
AcDbLine
 10
86.65
 20
124.4015
 30
0.0
 11
87.0
 21
124.4015
 31
0.0
  0
LINE
  5
59
330
1E
100
AcDbEntity
  8
0
100
AcDbLine
 10
30.8
 20
123.8015
 30
0.0
 11
35.0
 21
124.4015
 31
0.0
  0
LINE
  5
5A
330
1E
100
AcDbEntity
  8
0
100
AcDbLine
 10
30.6
 20
124.3014999999999
 30
0.0
 11
35.0
 21
124.9014999999999
 31
0.0
  0
LINE
  5
5B
330
1E
100
AcDbEntity
  8
0
100
AcDbLine
 10
26.5
 20
122.6015
 30
0.0
 11
30.6
 21
124.3014999999999
 31
0.0
  0
LINE
  5
5C
330
1E
100
AcDbEntity
  8
0
100
AcDbLine
 10
23.0
 20
119.9014999999999
 30
0.0
 11
26.5
 21
122.6015
 31
0.0
  0
LINE
  5
5D
330
1E
100
AcDbEntity
  8
0
100
AcDbLine
 10
20.3
 20
116.4015
 30
0.0
 11
23.0
 21
119.9014999999999
 31
0.0
  0
LINE
  5
5E
330
1E
100
AcDbEntity
  8
0
100
AcDbLine
 10
18.6
 20
112.3015
 30
0.0
 11
20.3
 21
116.4015
 31
0.0
  0
LINE
  5
5F
330
1E
100
AcDbEntity
  8
0
100
AcDbLine
 10
19.1
 20
103.7015
 30
0.0
 11
20.69999999999999
 21
99.5015
 31
0.0
  0
LINE
  5
60
330
1E
100
AcDbEntity
  8
0
100
AcDbLine
 10
18.5
 20
107.9015
 30
0.0
 11
19.1
 21
103.7015
 31
0.0
  0
LINE
  5
61
330
1E
100
AcDbEntity
  8
0
100
AcDbLine
 10
18.5
 20
107.9015
 30
0.0
 11
19.1
 21
112.1015
 31
0.0
  0
LINE
  5
62
330
1E
100
AcDbEntity
  8
0
100
AcDbLine
 10
18.6
 20
103.5015
 30
0.0
 11
20.3
 21
99.4015
 31
0.0
  0
LINE
  5
63
330
1E
100
AcDbEntity
  8
0
100
AcDbLine
 10
18.0
 20
107.9015
 30
0.0
 11
18.6
 21
103.5015
 31
0.0
  0
LINE
  5
64
330
1E
100
AcDbEntity
  8
0
100
AcDbLine
 10
18.0
 20
107.9015
 30
0.0
 11
18.6
 21
112.3015
 31
0.0
  0
LINE
  5
65
330
1E
100
AcDbEntity
  8
0
100
AcDbLine
 10
87.5
 20
154.4014999999999
 30
0.0
 11
87.5
 21
189.9015
 31
0.0
  0
LINE
  5
66
330
1E
100
AcDbEntity
  8
0
100
AcDbLine
 10
87.5
 20
154.4014999999999
 30
0.0
 11
88.0
 21
153.9015
 31
0.0
  0
LINE
  5
67
330
1E
100
AcDbEntity
  8
0
100
AcDbLine
 10
87.5
 20
154.4014999999999
 30
0.0
 11
88.3
 21
154.4014999999999
 31
0.0
  0
LINE
  5
68
330
1E
100
AcDbEntity
  8
0
100
AcDbLine
 10
87.5
 20
188.4014999999999
 30
0.0
 11
95.0
 21
188.4014999999999
 31
0.0
  0
LINE
  5
69
330
1E
100
AcDbEntity
  8
0
100
AcDbLine
 10
87.5
 20
191.4015
 30
0.0
 11
88.0
 21
191.9014999999999
 31
0.0
  0
LINE
  5
6A
330
1E
100
AcDbEntity
  8
0
100
AcDbLine
 10
87.5
 20
191.4015
 30
0.0
 11
125.0
 21
191.4015
 31
0.0
  0
LINE
  5
6B
330
1E
100
AcDbEntity
  8
0
100
AcDbLine
 10
87.5
 20
191.4015
 30
0.0
 11
87.5
 21
189.9015
 31
0.0
  0
LINE
  5
6C
330
1E
100
AcDbEntity
  8
0
100
AcDbLine
 10
88.0
 20
152.4783999999999
 30
0.0
 11
88.32349999999999
 21
153.0937999999999
 31
0.0
  0
LINE
  5
6D
330
1E
100
AcDbEntity
  8
0
100
AcDbLine
 10
88.0
 20
152.4783999999999
 30
0.0
 11
88.0
 21
124.9014999999999
 31
0.0
  0
LINE
  5
6E
330
1E
100
AcDbEntity
  8
0
100
AcDbLine
 10
88.0
 20
124.9014999999999
 30
0.0
 11
88.0
 21
152.4783999999999
 31
0.0
  0
LINE
  5
6F
330
1E
100
AcDbEntity
  8
0
100
AcDbLine
 10
88.0
 20
153.9015
 30
0.0
 11
88.8
 21
153.9015
 31
0.0
  0
LINE
  5
70
330
1E
100
AcDbEntity
  8
0
100
AcDbLine
 10
88.3
 20
154.4014999999999
 30
0.0
 11
90.5
 21
154.4014999999999
 31
0.0
  0
LINE
  5
71
330
1E
100
AcDbEntity
  8
0
100
AcDbLine
 10
88.32349999999999
 20
153.0937999999999
 30
0.0
 11
89.1
 21
153.0937999999999
 31
0.0
  0
LINE
  5
72
330
1E
100
AcDbEntity
  8
0
100
AcDbLine
 10
88.32349999999999
 20
153.0937999999999
 30
0.0
 11
88.49999999999999
 21
153.1777268273839
 31
0.0
  0
LINE
  5
73
330
1E
100
AcDbEntity
  8
0
100
AcDbLine
 10
89.1
 20
153.0937999999999
 30
0.0
 11
91.2353
 21
153.0937999999999
 31
0.0
  0
LINE
  5
74
330
1E
100
AcDbEntity
  8
0
100
AcDbLine
 10
90.7
 20
124.4015
 30
0.0
 11
92.70000000000001
 21
124.4015
 31
0.0
  0
LINE
  5
75
330
1E
100
AcDbEntity
  8
0
100
AcDbLine
 10
90.6694
 20
124.4015
 30
0.0
 11
92.611
 21
124.4015
 31
0.0
  0
LINE
  5
76
330
1E
100
AcDbEntity
  8
0
100
AcDbLine
 10
90.5
 20
124.9014999999999
 30
0.0
 11
91.2171
 21
124.9014999999999
 31
0.0
  0
LINE
  5
77
330
1E
100
AcDbEntity
  8
0
100
AcDbLine
 10
90.0
 20
124.4015
 30
0.0
 11
90.6694
 21
124.4015
 31
0.0
  0
LINE
  5
78
330
1E
100
AcDbEntity
  8
0
100
AcDbLine
 10
90.0
 20
124.4015
 30
0.0
 11
90.7
 21
124.4015
 31
0.0
  0
LINE
  5
79
330
1E
100
AcDbEntity
  8
0
100
AcDbLine
 10
88.8
 20
153.9015
 30
0.0
 11
90.90000000000001
 21
153.9015
 31
0.0
  0
LINE
  5
7A
330
1E
100
AcDbEntity
  8
0
100
AcDbLine
 10
92.70000000000001
 20
124.4015
 30
0.0
 11
95.90000000000001
 21
124.4015
 31
0.0
  0
LINE
  5
7B
330
1E
100
AcDbEntity
  8
0
100
AcDbLine
 10
93.42879999999999
 20
90.90149999999999
 30
0.0
 11
101.0
 21
90.90149999999999
 31
0.0
  0
LINE
  5
7C
330
1E
100
AcDbEntity
  8
0
100
AcDbLine
 10
93.00920000000001
 20
124.9014999999999
 30
0.0
 11
96.2451
 21
124.9014999999999
 31
0.0
  0
LINE
  5
7D
330
1E
100
AcDbEntity
  8
0
100
AcDbLine
 10
92.611
 20
124.4015
 30
0.0
 11
95.8469
 21
124.4015
 31
0.0
  0
LINE
  5
7E
330
1E
100
AcDbEntity
  8
0
100
AcDbLine
 10
94.66469999999999
 20
153.0937999999999
 30
0.0
 11
99.1941
 21
153.0937999999999
 31
0.0
  0
LINE
  5
7F
330
1E
100
AcDbEntity
  8
0
100
AcDbLine
 10
91.2353
 20
153.0937999999999
 30
0.0
 11
94.66469999999999
 21
153.0937999999999
 31
0.0
  0
LINE
  5
80
330
1E
100
AcDbEntity
  8
0
100
AcDbLine
 10
91.2171
 20
124.9014999999999
 30
0.0
 11
93.00920000000001
 21
124.9014999999999
 31
0.0
  0
LINE
  5
81
330
1E
100
AcDbEntity
  8
0
100
AcDbLine
 10
90.90000000000001
 20
153.9015
 30
0.0
 11
94.50000000000001
 21
153.9015
 31
0.0
  0
LINE
  5
82
330
1E
100
AcDbEntity
  8
0
100
AcDbLine
 10
94.50000000000001
 20
153.9015
 30
0.0
 11
99.1
 21
153.9015
 31
0.0
  0
LINE
  5
83
330
1E
100
AcDbEntity
  8
0
100
AcDbLine
 10
88.49999999999999
 20
153.1777268273839
 30
0.0
 11
88.49999999999999
 21
153.9015
 31
0.0
  0
LINE
  5
84
330
1E
100
AcDbEntity
  8
0
100
AcDbLine
 10
90.5
 20
154.4014999999999
 30
0.0
 11
94.1
 21
154.4014999999999
 31
0.0
  0
LINE
  5
85
330
1E
100
AcDbEntity
  8
0
100
AcDbLine
 10
94.1
 20
154.4014999999999
 30
0.0
 11
98.8
 21
154.4014999999999
 31
0.0
  0
LINE
  5
86
330
1E
100
AcDbEntity
  8
0
100
AcDbLine
 10
88.49999999999999
 20
153.9015
 30
0.0
 11
88.49999999999999
 21
153.1777268273839
 31
0.0
  0
LINE
  5
87
330
1E
100
AcDbEntity
  8
0
100
AcDbLine
 10
95.90000000000001
 20
124.4015
 30
0.0
 11
100.0
 21
124.4015
 31
0.0
  0
LINE
  5
88
330
1E
100
AcDbEntity
  8
0
100
AcDbLine
 10
96.2451
 20
124.9014999999999
 30
0.0
 11
100.0784
 21
124.9014999999999
 31
0.0
  0
LINE
  5
89
330
1E
100
AcDbEntity
  8
0
100
AcDbLine
 10
95.8469
 20
124.4015
 30
0.0
 11
99.8793
 21
124.4015
 31
0.0
  0
LINE
  5
8C
330
1E
100
AcDbEntity
  8
0
100
AcDbLine
 10
98.0
 20
99.55197
 30
0.0
 11
98.43200000000001
 21
98.50129
 31
0.0
  0
LINE
  5
8D
330
1E
100
AcDbEntity
  8
0
100
AcDbLine
 10
98.0
 20
99.55197
 30
0.0
 11
98.0
 21
106.788456521739
 31
0.0
  0
LINE
  5
8E
330
1E
100
AcDbEntity
  8
0
100
AcDbLine
 10
98.71999999999999
 20
98.0051
 30
0.0
 11
99.87200000000001
 21
97.05289999999999
 31
0.0
  0
LINE
  5
8F
330
1E
100
AcDbEntity
  8
0
100
AcDbLine
 10
98.43200000000001
 20
98.50129
 30
0.0
 11
98.71999999999999
 21
98.0051
 31
0.0
  0
LINE
  5
90
330
1E
100
AcDbEntity
  8
0
100
AcDbLine
 10
98.71999999999999
 20
100.07364
 30
0.0
 11
99.87200000000001
 21
101.02583
 31
0.0
  0
LINE
  5
91
330
1E
100
AcDbEntity
  8
0
100
AcDbLine
 10
98.28800000000001
 20
99.03936999999999
 30
0.0
 11
98.71999999999999
 21
100.07364
 31
0.0
  0
LINE
  5
92
330
1E
100
AcDbEntity
  8
0
100
AcDbLine
 10
98.28800000000001
 20
99.03936999999999
 30
0.0
 11
98.71999999999999
 21
98.0051
 31
0.0
  0
LINE
  5
93
330
1E
100
AcDbEntity
  8
0
100
AcDbLine
 10
98.0
 20
106.788456521739
 30
0.0
 11
98.0
 21
99.55197
 31
0.0
  0
LINE
  5
94
330
1E
100
AcDbEntity
  8
0
100
AcDbLine
 10
99.0
 20
88.09459999999999
 30
0.0
 11
101.0
 21
60.0959
 31
0.0
  0
LINE
  5
95
330
1E
100
AcDbEntity
  8
0
100
AcDbLine
 10
99.0
 20
88.09459999999999
 30
0.0
 11
100.0
 21
90.09449999999999
 31
0.0
  0
LINE
  5
96
330
1E
100
AcDbEntity
  8
0
100
AcDbLine
 10
99.1941
 20
153.0937999999999
 30
0.0
 11
104.4353
 21
153.0937999999999
 31
0.0
  0
LINE
  5
97
330
1E
100
AcDbEntity
  8
0
100
AcDbLine
 10
99.1
 20
153.9015
 30
0.0
 11
104.2999999999999
 21
153.9015
 31
0.0
  0
LINE
  5
98
330
1E
100
AcDbEntity
  8
0
100
AcDbLine
 10
98.8
 20
154.4014999999999
 30
0.0
 11
104.2
 21
154.4014999999999
 31
0.0
  0
LINE
  5
9D
330
1E
100
AcDbEntity
  8
0
100
AcDbLine
 10
95.33329999999999
 20
191.9014999999999
 30
0.0
 11
95.86669999999999
 21
191.9014999999999
 31
0.0
  0
LINE
  5
9E
330
1E
100
AcDbEntity
  8
0
100
AcDbLine
 10
95.86669999999999
 20
191.9014999999999
 30
0.0
 11
97.2667
 21
191.9014999999999
 31
0.0
  0
LINE
  5
9F
330
1E
100
AcDbEntity
  8
0
100
AcDbLine
 10
97.2667
 20
191.9014999999999
 30
0.0
 11
99.6667
 21
191.9014999999999
 31
0.0
  0
LINE
  5
A1
330
1E
100
AcDbEntity
  8
0
100
AcDbLine
 10
99.87200000000001
 20
97.05289999999999
 30
0.0
 11
101.744
 21
96.2157
 31
0.0
  0
LINE
  5
A2
330
1E
100
AcDbEntity
  8
0
100
AcDbLine
 10
99.87200000000001
 20
101.02583
 30
0.0
 11
101.744
 21
101.86309
 31
0.0
  0
LINE
  5
A3
330
1E
100
AcDbEntity
  8
0
100
AcDbLine
 10
100.0
 20
90.09449999999999
 30
0.0
 11
100.4
 21
90.11920000000001
 31
0.0
  0
LINE
  5
A4
330
1E
100
AcDbEntity
  8
0
100
AcDbLine
 10
101.2999999999999
 20
60.0741
 30
0.0
 11
102.2
 21
60.0533
 31
0.0
  0
LINE
  5
A5
330
1E
100
AcDbEntity
  8
0
100
AcDbLine
 10
101.0
 20
94.714
 30
0.0
 11
101.0
 21
90.13433333333329
 31
0.0
  0
LINE
  5
A6
330
1E
100
AcDbEntity
  8
0
100
AcDbLine
 10
101.0
 20
90.13433333333329
 30
0.0
 11
101.0
 21
94.714
 31
0.0
  0
LINE
  5
A7
330
1E
100
AcDbEntity
  8
0
100
AcDbLine
 10
101.2999999999999
 20
90.14190000000001
 30
0.0
 11
102.9
 21
90.1618
 31
0.0
  0
LINE
  5
A8
330
1E
100
AcDbEntity
  8
0
100
AcDbLine
 10
100.4
 20
90.11920000000001
 30
0.0
 11
101.2999999999999
 21
90.14190000000001
 31
0.0
  0
LINE
  5
A9
330
1E
100
AcDbEntity
  8
0
100
AcDbLine
 10
101.2999999999999
 20
60.1177
 30
0.0
 11
102.2
 21
60.1385
 31
0.0
  0
LINE
  5
AA
330
1E
100
AcDbEntity
  8
0
100
AcDbLine
 10
101.0
 20
60.0959
 30
0.0
 11
101.2999999999999
 21
60.1177
 31
0.0
  0
LINE
  5
AB
330
1E
100
AcDbEntity
  8
0
100
AcDbLine
 10
101.0
 20
60.0959
 30
0.0
 11
101.2999999999999
 21
60.0741
 31
0.0
  0
LINE
  5
AC
330
1E
100
AcDbEntity
  8
0
100
AcDbLine
 10
102.4999999999999
 20
60.0959
 30
0.0
 11
102.8
 21
60.1139
 31
0.0
  0
LINE
  5
AD
330
1E
100
AcDbEntity
  8
0
100
AcDbLine
 10
102.4999999999999
 20
60.0959
 30
0.0
 11
102.4999999999999
 21
0.098499999999995
 31
0.0
  0
LINE
  5
AE
330
1E
100
AcDbEntity
  8
0
100
AcDbLine
 10
102.4999999999999
 20
0.098499999999998
 30
0.0
 11
102.4999999999999
 21
60.0959
 31
0.0
  0
LINE
  5
AF
330
1E
100
AcDbEntity
  8
0
100
AcDbLine
 10
102.4999999999999
 20
0.098499999999998
 30
0.0
 11
102.8626999999999
 21
0.142499999999995
 31
0.0
  0
LINE
  5
B0
330
1E
100
AcDbEntity
  8
0
100
AcDbLine
 10
102.4999999999999
 20
0.098499999999998
 30
0.0
 11
102.8626999999999
 21
0.106499999999993
 31
0.0
  0
LINE
  5
B1
330
1E
100
AcDbEntity
  8
0
100
AcDbLine
 10
102.2
 20
60.0533
 30
0.0
 11
102.4999999999999
 21
60.0494428571429
 31
0.0
  0
LINE
  5
B2
330
1E
100
AcDbEntity
  8
0
100
AcDbLine
 10
102.2
 20
60.1385
 30
0.0
 11
103.6
 21
60.1565
 31
0.0
  0
LINE
  5
B3
330
1E
100
AcDbEntity
  8
0
100
AcDbLine
 10
101.744
 20
96.2157
 30
0.0
 11
104.192
 21
95.57540000000001
 31
0.0
  0
LINE
  5
B4
330
1E
100
AcDbEntity
  8
0
100
AcDbLine
 10
101.744
 20
101.86309
 30
0.0
 11
104.192
 21
102.5033499999999
 31
0.0
  0
LINE
  5
B5
330
1E
100
AcDbEntity
  8
0
100
AcDbLine
 10
100.0
 20
124.4015
 30
0.0
 11
104.8
 21
124.4015
 31
0.0
  0
LINE
  5
B6
330
1E
100
AcDbEntity
  8
0
100
AcDbLine
 10
101.0
 20
129.0913999999999
 30
0.0
 11
101.0
 21
146.1166
 31
0.0
  0
LINE
  5
B7
330
1E
100
AcDbEntity
  8
0
100
AcDbLine
 10
101.0
 20
129.0913999999999
 30
0.0
 11
101.2999999999999
 21
129.0913999999999
 31
0.0
  0
LINE
  5
B8
330
1E
100
AcDbEntity
  8
0
100
AcDbLine
 10
101.2999999999999
 20
129.0913999999999
 30
0.0
 11
102.1997
 21
129.0913999999999
 31
0.0
  0
LINE
  5
B9
330
1E
100
AcDbEntity
  8
0
100
AcDbLine
 10
101.0
 20
146.1166
 30
0.0
 11
101.2999999999999
 21
146.1166
 31
0.0
  0
LINE
  5
BA
330
1E
100
AcDbEntity
  8
0
100
AcDbLine
 10
101.0
 20
146.1166
 30
0.0
 11
102.1997
 21
146.8477
 31
0.0
  0
LINE
  5
BB
330
1E
100
AcDbEntity
  8
0
100
AcDbLine
 10
101.0
 20
146.1166
 30
0.0
 11
101.0
 21
129.0913999999999
 31
0.0
  0
LINE
  5
BC
330
1E
100
AcDbEntity
  8
0
100
AcDbLine
 10
102.1997
 20
129.0913999999999
 30
0.0
 11
103.6397
 21
129.0913999999999
 31
0.0
  0
LINE
  5
BD
330
1E
100
AcDbEntity
  8
0
100
AcDbLine
 10
102.1997
 20
129.0913999999999
 30
0.0
 11
103.0
 21
129.0913999999999
 31
0.0
  0
LINE
  5
BE
330
1E
100
AcDbEntity
  8
0
100
AcDbLine
 10
101.2999999999999
 20
146.1166
 30
0.0
 11
102.1997
 21
146.1166
 31
0.0
  0
LINE
  5
BF
330
1E
100
AcDbEntity
  8
0
100
AcDbLine
 10
102.1997
 20
146.1166
 30
0.0
 11
103.6397
 21
146.1166
 31
0.0
  0
LINE
  5
C0
330
1E
100
AcDbEntity
  8
0
100
AcDbLine
 10
102.1997
 20
146.8477
 30
0.0
 11
110.0
 21
147.0914
 31
0.0
  0
LINE
  5
C1
330
1E
100
AcDbEntity
  8
0
100
AcDbLine
 10
100.0784
 20
124.9014999999999
 30
0.0
 11
104.4593
 21
124.9014999999999
 31
0.0
  0
LINE
  5
C2
330
1E
100
AcDbEntity
  8
0
100
AcDbLine
 10
99.8793
 20
124.4015
 30
0.0
 11
104.2600999999999
 21
124.4015
 31
0.0
  0
LINE
  5
C5
330
1E
100
AcDbEntity
  8
0
100
AcDbLine
 10
99.6667
 20
191.9014999999999
 30
0.0
 11
102.7333
 21
191.9014999999999
 31
0.0
  0
LINE
  5
C6
330
1E
100
AcDbEntity
  8
0
100
AcDbLine
 10
102.8626999999999
 20
0.106499999999993
 30
0.0
 11
103.5379999999999
 21
0.164499999999986
 31
0.0
  0
LINE
  5
C7
330
1E
100
AcDbEntity
  8
0
100
AcDbLine
 10
102.8
 20
60.1139
 30
0.0
 11
103.4999999999999
 21
60.1309
 31
0.0
  0
LINE
  5
C8
330
1E
100
AcDbEntity
  8
0
100
AcDbLine
 10
103.5379999999999
 20
0.164499999999986
 30
0.0
 11
104.7758999999999
 21
0.5245
 31
0.0
  0
LINE
  5
C9
330
1E
100
AcDbEntity
  8
0
100
AcDbLine
 10
103.4999999999999
 20
60.1309
 30
0.0
 11
104.7
 21
60.1461
 31
0.0
  0
LINE
  5
CA
330
1E
100
AcDbEntity
  8
0
100
AcDbLine
 10
103.5379999999999
 20
0.234499999999994
 30
0.0
 11
104.7758999999999
 21
0.6244999999999951
 31
0.0
  0
LINE
  5
CB
330
1E
100
AcDbEntity
  8
0
100
AcDbLine
 10
102.8626999999999
 20
0.142499999999995
 30
0.0
 11
103.5379999999999
 21
0.234499999999994
 31
0.0
  0
LINE
  5
CC
330
1E
100
AcDbEntity
  8
0
100
AcDbLine
 10
102.9
 20
90.1618
 30
0.0
 11
105.0
 21
90.17689999999999
 31
0.0
  0
LINE
  5
CD
330
1E
100
AcDbEntity
  8
0
100
AcDbLine
 10
103.6
 20
60.1565
 30
0.0
 11
105.4999999999999
 21
60.1697
 31
0.0
  0
LINE
  5
CE
330
1E
100
AcDbEntity
  8
0
100
AcDbLine
 10
104.192
 20
95.57540000000001
 30
0.0
 11
106.976
 21
95.1814
 31
0.0
  0
LINE
  5
CF
330
1E
100
AcDbEntity
  8
0
100
AcDbLine
 10
103.0
 20
129.0913999999999
 30
0.0
 11
103.0
 21
124.9014999999999
 31
0.0
  0
LINE
  5
D0
330
1E
100
AcDbEntity
  8
0
100
AcDbLine
 10
103.0
 20
124.9014999999999
 30
0.0
 11
103.0
 21
129.0913999999999
 31
0.0
  0
LINE
  5
D1
330
1E
100
AcDbEntity
  8
0
100
AcDbLine
 10
103.6397
 20
129.0913999999999
 30
0.0
 11
105.4999999999999
 21
129.0913999999999
 31
0.0
  0
LINE
  5
D2
330
1E
100
AcDbEntity
  8
0
100
AcDbLine
 10
103.6397
 20
146.1166
 30
0.0
 11
105.4999999999999
 21
146.1166
 31
0.0
  0
LINE
  5
D3
330
1E
100
AcDbEntity
  8
0
100
AcDbLine
 10
104.192
 20
102.5033499999999
 30
0.0
 11
106.976
 21
102.89736
 31
0.0
  0
LINE
  5
D4
330
1E
100
AcDbEntity
  8
0
100
AcDbLine
 10
104.7758999999999
 20
0.5245
 30
0.0
 11
106.2764999999999
 21
1.18749999999998
 31
0.0
  0
LINE
  5
D5
330
1E
100
AcDbEntity
  8
0
100
AcDbLine
 10
104.7758999999999
 20
0.6244999999999951
 30
0.0
 11
106.2764999999999
 21
1.31049999999999
 31
0.0
  0
LINE
  5
D6
330
1E
100
AcDbEntity
  8
0
100
AcDbLine
 10
104.7
 20
60.1461
 30
0.0
 11
106.2999999999999
 21
60.1574
 31
0.0
  0
LINE
  5
D7
330
1E
100
AcDbEntity
  8
0
100
AcDbLine
 10
105.0
 20
90.17689999999999
 30
0.0
 11
107.4
 21
90.18550000000001
 31
0.0
  0
LINE
  5
D8
330
1E
100
AcDbEntity
  8
0
100
AcDbLine
 10
105.4999999999999
 20
60.1697
 30
0.0
 11
107.6999999999999
 21
60.1783
 31
0.0
  0
LINE
  5
D9
330
1E
100
AcDbEntity
  8
0
100
AcDbLine
 10
104.8
 20
124.4015
 30
0.0
 11
110.0
 21
124.4015
 31
0.0
  0
LINE
  5
DA
330
1E
100
AcDbEntity
  8
0
100
AcDbLine
 10
105.4999999999999
 20
129.0913999999999
 30
0.0
 11
107.66
 21
129.0913999999999
 31
0.0
  0
LINE
  5
DB
330
1E
100
AcDbEntity
  8
0
100
AcDbLine
 10
105.4999999999999
 20
146.1166
 30
0.0
 11
107.66
 21
146.1166
 31
0.0
  0
LINE
  5
DC
330
1E
100
AcDbEntity
  8
0
100
AcDbLine
 10
104.4353
 20
153.0937999999999
 30
0.0
 11
110.0
 21
153.0937999999999
 31
0.0
  0
LINE
  5
DD
330
1E
100
AcDbEntity
  8
0
100
AcDbLine
 10
104.4593
 20
124.9014999999999
 30
0.0
 11
110.0
 21
124.9014999999999
 31
0.0
  0
LINE
  5
DE
330
1E
100
AcDbEntity
  8
0
100
AcDbLine
 10
104.2600999999999
 20
124.4015
 30
0.0
 11
110.0
 21
124.4015
 31
0.0
  0
LINE
  5
DF
330
1E
100
AcDbEntity
  8
0
100
AcDbLine
 10
104.2999999999999
 20
153.9015
 30
0.0
 11
110.0
 21
153.9015
 31
0.0
  0
LINE
  5
E0
330
1E
100
AcDbEntity
  8
0
100
AcDbLine
 10
104.2
 20
154.4014999999999
 30
0.0
 11
110.0
 21
154.4014999999999
 31
0.0
  0
LINE
  5
E2
330
1E
100
AcDbEntity
  8
0
100
AcDbLine
 10
106.2764999999999
 20
1.18749999999998
 30
0.0
 11
108.0772
 21
2.30549999999999
 31
0.0
  0
LINE
  5
E3
330
1E
100
AcDbEntity
  8
0
100
AcDbLine
 10
106.2999999999999
 20
60.1574
 30
0.0
 11
108.0999999999999
 21
60.1641
 31
0.0
  0
LINE
  5
E4
330
1E
100
AcDbEntity
  8
0
100
AcDbLine
 10
106.2764999999999
 20
1.31049999999999
 30
0.0
 11
108.0772
 21
2.44149999999999
 31
0.0
  0
LINE
  5
E5
330
1E
100
AcDbEntity
  8
0
100
AcDbLine
 10
107.4
 20
90.18550000000001
 30
0.0
 11
110.0
 21
90.18919999999999
 31
0.0
  0
LINE
  5
E6
330
1E
100
AcDbEntity
  8
0
100
AcDbLine
 10
108.0772
 20
2.30549999999999
 30
0.0
 11
110.0279
 21
4.2895
 31
0.0
  0
LINE
  5
E7
330
1E
100
AcDbEntity
  8
0
100
AcDbLine
 10
110.0
 20
60.1669
 30
0.0
 11
111.8999999999999
 21
60.1641
 31
0.0
  0
LINE
  5
E8
330
1E
100
AcDbEntity
  8
0
100
AcDbLine
 10
108.0999999999999
 20
60.1641
 30
0.0
 11
110.0
 21
60.1669
 31
0.0
  0
LINE
  5
E9
330
1E
100
AcDbEntity
  8
0
100
AcDbLine
 10
108.0772
 20
2.44149999999999
 30
0.0
 11
110.0279
 21
4.431499999999999
 31
0.0
  0
LINE
  5
EA
330
1E
100
AcDbEntity
  8
0
100
AcDbLine
 10
110.0
 20
90.18919999999999
 30
0.0
 11
112.5999999999999
 21
90.18550000000001
 31
0.0
  0
LINE
  5
EB
330
1E
100
AcDbEntity
  8
0
100
AcDbLine
 10
110.0
 20
60.1811
 30
0.0
 11
112.2999999999999
 21
60.1783
 31
0.0
  0
LINE
  5
EC
330
1E
100
AcDbEntity
  8
0
100
AcDbLine
 10
107.6999999999999
 20
60.1783
 30
0.0
 11
110.0
 21
60.1811
 31
0.0
  0
LINE
  5
ED
330
1E
100
AcDbEntity
  8
0
100
AcDbLine
 10
106.976
 20
95.1814
 30
0.0
 11
110.0
 21
95.0336
 31
0.0
  0
LINE
  5
EE
330
1E
100
AcDbEntity
  8
0
100
AcDbLine
 10
106.976
 20
102.89736
 30
0.0
 11
110.0
 21
103.04511
 31
0.0
  0
LINE
  5
EF
330
1E
100
AcDbEntity
  8
0
100
AcDbLine
 10
110.0
 20
95.0336
 30
0.0
 11
113.024
 21
95.1814
 31
0.0
  0
LINE
  5
F0
330
1E
100
AcDbEntity
  8
0
100
AcDbLine
 10
110.0
 20
103.04511
 30
0.0
 11
113.024
 21
102.89736
 31
0.0
  0
LINE
  5
F1
330
1E
100
AcDbEntity
  8
0
100
AcDbLine
 10
110.0
 20
124.9014999999999
 30
0.0
 11
115.5407
 21
124.9014999999999
 31
0.0
  0
LINE
  5
F2
330
1E
100
AcDbEntity
  8
0
100
AcDbLine
 10
110.0279
 20
4.2895
 30
0.0
 11
111.7909999999999
 21
5.64149999999999
 31
0.0
  0
LINE
  5
F3
330
1E
100
AcDbEntity
  8
0
100
AcDbLine
 10
111.7909999999999
 20
5.64149999999999
 30
0.0
 11
113.6292
 21
6.84749999999999
 31
0.0
  0
LINE
  5
F4
330
1E
100
AcDbEntity
  8
0
100
AcDbLine
 10
110.0279
 20
4.431499999999999
 30
0.0
 11
111.7909999999999
 21
5.777499999999999
 31
0.0
  0
LINE
  5
F5
330
1E
100
AcDbEntity
  8
0
100
AcDbLine
 10
111.8999999999999
 20
60.1641
 30
0.0
 11
113.7
 21
60.1574
 31
0.0
  0
LINE
  5
F6
330
1E
100
AcDbEntity
  8
0
100
AcDbLine
 10
111.7909999999999
 20
5.777499999999999
 30
0.0
 11
113.6292
 21
6.97049999999998
 31
0.0
  0
LINE
  5
F7
330
1E
100
AcDbEntity
  8
0
100
AcDbLine
 10
112.5999999999999
 20
90.18550000000001
 30
0.0
 11
115.0
 21
90.17689999999999
 31
0.0
  0
LINE
  5
F8
330
1E
100
AcDbEntity
  8
0
100
AcDbLine
 10
112.2999999999999
 20
60.1783
 30
0.0
 11
114.5
 21
60.1697
 31
0.0
  0
LINE
  5
F9
330
1E
100
AcDbEntity
  8
0
100
AcDbLine
 10
113.024
 20
95.1814
 30
0.0
 11
115.8079999999999
 21
95.57540000000001
 31
0.0
  0
LINE
  5
FA
330
1E
100
AcDbEntity
  8
0
100
AcDbLine
 10
113.6292
 20
6.84749999999999
 30
0.0
 11
115.4298999999999
 21
8.05799999999999
 31
0.0
  0
LINE
  5
FB
330
1E
100
AcDbEntity
  8
0
100
AcDbLine
 10
115.4298999999999
 20
8.05799999999999
 30
0.0
 11
116.5178
 21
9.122700000000008
 31
0.0
  0
LINE
  5
FC
330
1E
100
AcDbEntity
  8
0
100
AcDbLine
 10
113.6292
 20
6.97049999999998
 30
0.0
 11
115.4298999999999
 21
8.15839999999998
 31
0.0
  0
LINE
  5
FD
330
1E
100
AcDbEntity
  8
0
100
AcDbLine
 10
113.7
 20
60.1574
 30
0.0
 11
115.3
 21
60.1461
 31
0.0
  0
LINE
  5
FE
330
1E
100
AcDbEntity
  8
0
100
AcDbLine
 10
115.3
 20
60.1461
 30
0.0
 11
116.5
 21
60.1309
 31
0.0
  0
LINE
  5
FF
330
1E
100
AcDbEntity
  8
0
100
AcDbLine
 10
115.4298999999999
 20
8.15839999999998
 30
0.0
 11
116.5178
 21
9.1927
 31
0.0
  0
LINE
  5
100
330
1E
100
AcDbEntity
  8
0
100
AcDbLine
 10
115.0
 20
90.17689999999999
 30
0.0
 11
117.1
 21
90.1618
 31
0.0
  0
LINE
  5
101
330
1E
100
AcDbEntity
  8
0
100
AcDbLine
 10
114.5
 20
60.1697
 30
0.0
 11
116.4
 21
60.1565
 31
0.0
  0
LINE
  5
102
330
1E
100
AcDbEntity
  8
0
100
AcDbLine
 10
113.024
 20
102.89736
 30
0.0
 11
115.8079999999999
 21
102.5033499999999
 31
0.0
  0
LINE
  5
103
330
1E
100
AcDbEntity
  8
0
100
AcDbLine
 10
115.2
 20
124.4015
 30
0.0
 11
120.0
 21
124.4015
 31
0.0
  0
LINE
  5
104
330
1E
100
AcDbEntity
  8
0
100
AcDbLine
 10
110.0
 20
124.4015
 30
0.0
 11
115.7399
 21
124.4015
 31
0.0
  0
LINE
  5
105
330
1E
100
AcDbEntity
  8
0
100
AcDbLine
 10
110.0
 20
124.4015
 30
0.0
 11
115.2
 21
124.4015
 31
0.0
  0
LINE
  5
106
330
1E
100
AcDbEntity
  8
0
100
AcDbLine
 10
110.0
 20
129.0913999999999
 30
0.0
 11
112.3399999999999
 21
129.0913999999999
 31
0.0
  0
LINE
  5
107
330
1E
100
AcDbEntity
  8
0
100
AcDbLine
 10
110.0
 20
146.1166
 30
0.0
 11
112.3399999999999
 21
146.1166
 31
0.0
  0
LINE
  5
108
330
1E
100
AcDbEntity
  8
0
100
AcDbLine
 10
107.66
 20
129.0913999999999
 30
0.0
 11
110.0
 21
129.0913999999999
 31
0.0
  0
LINE
  5
109
330
1E
100
AcDbEntity
  8
0
100
AcDbLine
 10
110.0
 20
147.0914
 30
0.0
 11
117.8002999999999
 21
146.8477
 31
0.0
  0
LINE
  5
10A
330
1E
100
AcDbEntity
  8
0
100
AcDbLine
 10
107.66
 20
146.1166
 30
0.0
 11
110.0
 21
146.1166
 31
0.0
  0
LINE
  5
10B
330
1E
100
AcDbEntity
  8
0
100
AcDbLine
 10
112.3399999999999
 20
129.0913999999999
 30
0.0
 11
114.5
 21
129.0913999999999
 31
0.0
  0
LINE
  5
10C
330
1E
100
AcDbEntity
  8
0
100
AcDbLine
 10
114.5
 20
129.0913999999999
 30
0.0
 11
116.3602999999999
 21
129.0913999999999
 31
0.0
  0
LINE
  5
10D
330
1E
100
AcDbEntity
  8
0
100
AcDbLine
 10
114.5
 20
146.1166
 30
0.0
 11
116.3602999999999
 21
146.1166
 31
0.0
  0
LINE
  5
10E
330
1E
100
AcDbEntity
  8
0
100
AcDbLine
 10
112.3399999999999
 20
146.1166
 30
0.0
 11
114.5
 21
146.1166
 31
0.0
  0
LINE
  5
10F
330
1E
100
AcDbEntity
  8
0
100
AcDbLine
 10
115.5647
 20
153.0937999999999
 30
0.0
 11
120.8058999999999
 21
153.0937999999999
 31
0.0
  0
LINE
  5
110
330
1E
100
AcDbEntity
  8
0
100
AcDbLine
 10
110.0
 20
153.0937999999999
 30
0.0
 11
115.5647
 21
153.0937999999999
 31
0.0
  0
LINE
  5
111
330
1E
100
AcDbEntity
  8
0
100
AcDbLine
 10
115.5407
 20
124.9014999999999
 30
0.0
 11
119.9216
 21
124.9014999999999
 31
0.0
  0
LINE
  5
112
330
1E
100
AcDbEntity
  8
0
100
AcDbLine
 10
116.5178
 20
9.122700000000008
 30
0.0
 11
117.2306
 21
9.85179999999999
 31
0.0
  0
LINE
  5
113
330
1E
100
AcDbEntity
  8
0
100
AcDbLine
 10
117.2306
 20
9.85179999999999
 30
0.0
 11
117.5
 21
10.0981
 31
0.0
  0
LINE
  5
114
330
1E
100
AcDbEntity
  8
0
100
AcDbLine
 10
116.5178
 20
9.1927
 30
0.0
 11
117.2306
 21
9.8878
 31
0.0
  0
LINE
  5
115
330
1E
100
AcDbEntity
  8
0
100
AcDbLine
 10
117.5
 20
10.0981
 30
0.0
 11
117.5
 21
60.0959
 31
0.0
  0
LINE
  5
116
330
1E
100
AcDbEntity
  8
0
100
AcDbLine
 10
117.2306
 20
9.8878
 30
0.0
 11
117.5
 21
10.0981
 31
0.0
  0
LINE
  5
117
330
1E
100
AcDbEntity
  8
0
100
AcDbLine
 10
117.5
 20
60.0494428571429
 30
0.0
 11
117.7999999999999
 21
60.0533
 31
0.0
  0
LINE
  5
118
330
1E
100
AcDbEntity
  8
0
100
AcDbLine
 10
116.5
 20
60.1309
 30
0.0
 11
117.2
 21
60.1139
 31
0.0
  0
LINE
  5
119
330
1E
100
AcDbEntity
  8
0
100
AcDbLine
 10
117.2
 20
60.1139
 30
0.0
 11
117.5
 21
60.0959
 31
0.0
  0
LINE
  5
11A
330
1E
100
AcDbEntity
  8
0
100
AcDbLine
 10
117.5
 20
60.0959
 30
0.0
 11
117.5
 21
10.0981
 31
0.0
  0
LINE
  5
11B
330
1E
100
AcDbEntity
  8
0
100
AcDbLine
 10
117.1
 20
90.1618
 30
0.0
 11
118.7
 21
90.14190000000001
 31
0.0
  0
LINE
  5
11C
330
1E
100
AcDbEntity
  8
0
100
AcDbLine
 10
118.7
 20
90.14190000000001
 30
0.0
 11
119.5999999999999
 21
90.11920000000001
 31
0.0
  0
LINE
  5
11D
330
1E
100
AcDbEntity
  8
0
100
AcDbLine
 10
116.4
 20
60.1565
 30
0.0
 11
117.7999999999999
 21
60.1385
 31
0.0
  0
LINE
  5
11E
330
1E
100
AcDbEntity
  8
0
100
AcDbLine
 10
117.7999999999999
 20
60.1385
 30
0.0
 11
118.7
 21
60.1177
 31
0.0
  0
LINE
  5
11F
330
1E
100
AcDbEntity
  8
0
100
AcDbLine
 10
118.7
 20
60.1177
 30
0.0
 11
119.0
 21
60.0959
 31
0.0
  0
LINE
  5
120
330
1E
100
AcDbEntity
  8
0
100
AcDbLine
 10
117.7999999999999
 20
60.0533
 30
0.0
 11
118.7
 21
60.0741
 31
0.0
  0
LINE
  5
121
330
1E
100
AcDbEntity
  8
0
100
AcDbLine
 10
119.0
 20
90.13433333333329
 30
0.0
 11
119.0
 21
94.714
 31
0.0
  0
LINE
  5
122
330
1E
100
AcDbEntity
  8
0
100
AcDbLine
 10
119.5999999999999
 20
90.11920000000001
 30
0.0
 11
120.0
 21
90.09449999999999
 31
0.0
  0
LINE
  5
123
330
1E
100
AcDbEntity
  8
0
100
AcDbLine
 10
120.0
 20
90.09449999999999
 30
0.0
 11
121.0
 21
88.09459999999999
 31
0.0
  0
LINE
  5
124
330
1E
100
AcDbEntity
  8
0
100
AcDbLine
 10
119.0
 20
60.0959
 30
0.0
 11
121.0
 21
88.09459999999999
 31
0.0
  0
LINE
  5
125
330
1E
100
AcDbEntity
  8
0
100
AcDbLine
 10
118.7
 20
60.0741
 30
0.0
 11
119.0
 21
60.0959
 31
0.0
  0
LINE
  5
126
330
1E
100
AcDbEntity
  8
0
100
AcDbLine
 10
115.8079999999999
 20
95.57540000000001
 30
0.0
 11
118.256
 21
96.2157
 31
0.0
  0
LINE
  5
127
330
1E
100
AcDbEntity
  8
0
100
AcDbLine
 10
118.256
 20
96.2157
 30
0.0
 11
120.1279999999999
 21
97.05289999999999
 31
0.0
  0
LINE
  5
128
330
1E
100
AcDbEntity
  8
0
100
AcDbLine
 10
115.8079999999999
 20
102.5033499999999
 30
0.0
 11
118.256
 21
101.86309
 31
0.0
  0
LINE
  5
129
330
1E
100
AcDbEntity
  8
0
100
AcDbLine
 10
119.0
 20
94.714
 30
0.0
 11
119.0
 21
90.13433333333329
 31
0.0
  0
LINE
  5
12A
330
1E
100
AcDbEntity
  8
0
100
AcDbLine
 10
118.256
 20
101.86309
 30
0.0
 11
120.1279999999999
 21
101.02583
 31
0.0
  0
LINE
  5
12B
330
1E
100
AcDbEntity
  8
0
100
AcDbLine
 10
117.0
 20
124.9014999999999
 30
0.0
 11
117.0
 21
129.0913999999999
 31
0.0
  0
LINE
  5
12C
330
1E
100
AcDbEntity
  8
0
100
AcDbLine
 10
120.0
 20
124.4015
 30
0.0
 11
124.0999999999999
 21
124.4015
 31
0.0
  0
LINE
  5
12D
330
1E
100
AcDbEntity
  8
0
100
AcDbLine
 10
115.7399
 20
124.4015
 30
0.0
 11
120.1206999999999
 21
124.4015
 31
0.0
  0
LINE
  5
12E
330
1E
100
AcDbEntity
  8
0
100
AcDbLine
 10
119.9216
 20
124.9014999999999
 30
0.0
 11
123.7549
 21
124.9014999999999
 31
0.0
  0
LINE
  5
12F
330
1E
100
AcDbEntity
  8
0
100
AcDbLine
 10
120.1279999999999
 20
97.05289999999999
 30
0.0
 11
121.28
 21
98.0051
 31
0.0
  0
LINE
  5
130
330
1E
100
AcDbEntity
  8
0
100
AcDbLine
 10
121.28
 20
98.0051
 30
0.0
 11
121.568
 21
98.50129
 31
0.0
  0
LINE
  5
131
330
1E
100
AcDbEntity
  8
0
100
AcDbLine
 10
121.28
 20
98.0051
 30
0.0
 11
121.7119999999999
 21
99.03936999999999
 31
0.0
  0
LINE
  5
132
330
1E
100
AcDbEntity
  8
0
100
AcDbLine
 10
121.568
 20
98.50129
 30
0.0
 11
122.0
 21
99.55197
 31
0.0
  0
LINE
  5
133
330
1E
100
AcDbEntity
  8
0
100
AcDbLine
 10
122.0
 20
106.788456521739
 30
0.0
 11
122.0
 21
99.55197
 31
0.0
  0
LINE
  5
134
330
1E
100
AcDbEntity
  8
0
100
AcDbLine
 10
120.1279999999999
 20
101.02583
 30
0.0
 11
121.28
 21
100.07364
 31
0.0
  0
LINE
  5
135
330
1E
100
AcDbEntity
  8
0
100
AcDbLine
 10
121.28
 20
100.07364
 30
0.0
 11
121.7119999999999
 21
99.03936999999999
 31
0.0
  0
LINE
  5
136
330
1E
100
AcDbEntity
  8
0
100
AcDbLine
 10
122.0
 20
99.55197
 30
0.0
 11
122.0
 21
106.788456521739
 31
0.0
  0
LINE
  5
137
330
1E
100
AcDbEntity
  8
0
100
AcDbLine
 10
124.0999999999999
 20
124.4015
 30
0.0
 11
127.2999999999999
 21
124.4015
 31
0.0
  0
LINE
  5
138
330
1E
100
AcDbEntity
  8
0
100
AcDbLine
 10
120.1206999999999
 20
124.4015
 30
0.0
 11
124.1530999999999
 21
124.4015
 31
0.0
  0
LINE
  5
139
330
1E
100
AcDbEntity
  8
0
100
AcDbLine
 10
117.0
 20
129.0913999999999
 30
0.0
 11
117.8002999999999
 21
129.0913999999999
 31
0.0
  0
LINE
  5
13A
330
1E
100
AcDbEntity
  8
0
100
AcDbLine
 10
117.0
 20
129.0913999999999
 30
0.0
 11
117.0
 21
124.9014999999999
 31
0.0
  0
LINE
  5
13B
330
1E
100
AcDbEntity
  8
0
100
AcDbLine
 10
117.8002999999999
 20
129.0913999999999
 30
0.0
 11
118.7003
 21
129.0913999999999
 31
0.0
  0
LINE
  5
13C
330
1E
100
AcDbEntity
  8
0
100
AcDbLine
 10
116.3602999999999
 20
129.0913999999999
 30
0.0
 11
117.8002999999999
 21
129.0913999999999
 31
0.0
  0
LINE
  5
13D
330
1E
100
AcDbEntity
  8
0
100
AcDbLine
 10
119.0
 20
129.0913999999999
 30
0.0
 11
119.0
 21
146.1166
 31
0.0
  0
LINE
  5
13E
330
1E
100
AcDbEntity
  8
0
100
AcDbLine
 10
119.0
 20
146.1166
 30
0.0
 11
119.0
 21
129.0913999999999
 31
0.0
  0
LINE
  5
13F
330
1E
100
AcDbEntity
  8
0
100
AcDbLine
 10
118.7003
 20
129.0913999999999
 30
0.0
 11
119.0
 21
129.0913999999999
 31
0.0
  0
LINE
  5
140
330
1E
100
AcDbEntity
  8
0
100
AcDbLine
 10
118.7003
 20
146.1166
 30
0.0
 11
119.0
 21
146.1166
 31
0.0
  0
LINE
  5
141
330
1E
100
AcDbEntity
  8
0
100
AcDbLine
 10
117.8002999999999
 20
146.1166
 30
0.0
 11
118.7003
 21
146.1166
 31
0.0
  0
LINE
  5
142
330
1E
100
AcDbEntity
  8
0
100
AcDbLine
 10
117.8002999999999
 20
146.8477
 30
0.0
 11
119.0
 21
146.1166
 31
0.0
  0
LINE
  5
143
330
1E
100
AcDbEntity
  8
0
100
AcDbLine
 10
116.3602999999999
 20
146.1166
 30
0.0
 11
117.8002999999999
 21
146.1166
 31
0.0
  0
LINE
  5
144
330
1E
100
AcDbEntity
  8
0
100
AcDbLine
 10
120.8058999999999
 20
153.0937999999999
 30
0.0
 11
125.3353
 21
153.0937999999999
 31
0.0
  0
LINE
  5
145
330
1E
100
AcDbEntity
  8
0
100
AcDbLine
 10
123.7549
 20
124.9014999999999
 30
0.0
 11
126.9908
 21
124.9014999999999
 31
0.0
  0
LINE
  5
146
330
1E
100
AcDbEntity
  8
0
100
AcDbLine
 10
125.3353
 20
153.0937999999999
 30
0.0
 11
128.7646999999999
 21
153.0937999999999
 31
0.0
  0
LINE
  5
147
330
1E
100
AcDbEntity
  8
0
100
AcDbLine
 10
124.1530999999999
 20
124.4015
 30
0.0
 11
127.3889999999999
 21
124.4015
 31
0.0
  0
LINE
  5
148
330
1E
100
AcDbEntity
  8
0
100
AcDbLine
 10
119.0
 20
90.90149999999999
 30
0.0
 11
185.0
 21
90.90149999999999
 31
0.0
  0
LINE
  5
149
330
1E
100
AcDbEntity
  8
0
100
AcDbLine
 10
119.0
 20
90.90149999999999
 30
0.0
 11
126.5712
 21
90.90149999999999
 31
0.0
  0
LINE
  5
14A
330
1E
100
AcDbEntity
  8
0
100
AcDbLine
 10
126.5712
 20
90.90149999999999
 30
0.0
 11
133.9965
 21
90.90149999999999
 31
0.0
  0
LINE
  5
14B
330
1E
100
AcDbEntity
  8
0
100
AcDbLine
 10
129.3
 20
124.4015
 30
0.0
 11
130.0
 21
124.4015
 31
0.0
  0
LINE
  5
14C
330
1E
100
AcDbEntity
  8
0
100
AcDbLine
 10
127.2999999999999
 20
124.4015
 30
0.0
 11
129.3
 21
124.4015
 31
0.0
  0
LINE
  5
14D
330
1E
100
AcDbEntity
  8
0
100
AcDbLine
 10
127.3889999999999
 20
124.4015
 30
0.0
 11
129.3306
 21
124.4015
 31
0.0
  0
LINE
  5
14E
330
1E
100
AcDbEntity
  8
0
100
AcDbLine
 10
129.3306
 20
124.4015
 30
0.0
 11
130.0
 21
124.4015
 31
0.0
  0
LINE
  5
14F
330
1E
100
AcDbEntity
  8
0
100
AcDbLine
 10
126.9908
 20
124.9014999999999
 30
0.0
 11
128.7829
 21
124.9014999999999
 31
0.0
  0
LINE
  5
150
330
1E
100
AcDbEntity
  8
0
100
AcDbLine
 10
128.7646999999999
 20
153.0937999999999
 30
0.0
 11
130.9
 21
153.0937999999999
 31
0.0
  0
LINE
  5
151
330
1E
100
AcDbEntity
  8
0
100
AcDbLine
 10
128.7829
 20
124.9014999999999
 30
0.0
 11
129.4999999999999
 21
124.9014999999999
 31
0.0
  0
LINE
  5
152
330
1E
100
AcDbEntity
  8
0
100
AcDbLine
 10
130.9
 20
153.0937999999999
 30
0.0
 11
131.6764999999999
 21
153.0937999999999
 31
0.0
  0
LINE
  5
153
330
1E
100
AcDbEntity
  8
0
100
AcDbLine
 10
129.4999999999999
 20
124.9014999999999
 30
0.0
 11
132.4999999999999
 21
124.9014999999999
 31
0.0
  0
LINE
  5
154
330
1E
100
AcDbEntity
  8
0
100
AcDbLine
 10
130.0
 20
124.4015
 30
0.0
 11
133.0
 21
124.4015
 31
0.0
  0
LINE
  5
155
330
1E
100
AcDbEntity
  8
0
100
AcDbLine
 10
131.1999999999999
 20
153.9015
 30
0.0
 11
132.0
 21
153.9015
 31
0.0
  0
LINE
  5
156
330
1E
100
AcDbEntity
  8
0
100
AcDbLine
 10
129.0999999999999
 20
153.9015
 30
0.0
 11
131.1999999999999
 21
153.9015
 31
0.0
  0
LINE
  5
157
330
1E
100
AcDbEntity
  8
0
100
AcDbLine
 10
125.5
 20
153.9015
 30
0.0
 11
129.0999999999999
 21
153.9015
 31
0.0
  0
LINE
  5
158
330
1E
100
AcDbEntity
  8
0
100
AcDbLine
 10
120.9
 20
153.9015
 30
0.0
 11
125.5
 21
153.9015
 31
0.0
  0
LINE
  5
159
330
1E
100
AcDbEntity
  8
0
100
AcDbLine
 10
115.7
 20
153.9015
 30
0.0
 11
120.9
 21
153.9015
 31
0.0
  0
LINE
  5
15A
330
1E
100
AcDbEntity
  8
0
100
AcDbLine
 10
110.0
 20
153.9015
 30
0.0
 11
115.7
 21
153.9015
 31
0.0
  0
LINE
  5
15B
330
1E
100
AcDbEntity
  8
0
100
AcDbLine
 10
132.0
 20
124.9014999999999
 30
0.0
 11
132.0
 21
152.4783999999999
 31
0.0
  0
LINE
  5
15C
330
1E
100
AcDbEntity
  8
0
100
AcDbLine
 10
132.4999999999999
 20
124.9014999999999
 30
0.0
 11
132.9316
 21
124.9014999999999
 31
0.0
  0
LINE
  5
15D
330
1E
100
AcDbEntity
  8
0
100
AcDbLine
 10
133.9965
 20
90.90149999999999
 30
0.0
 11
143.0
 21
90.90149999999999
 31
0.0
  0
LINE
  5
15E
330
1E
100
AcDbEntity
  8
0
100
AcDbLine
 10
134.7599999999999
 20
124.4015
 30
0.0
 11
137.0999999999999
 21
124.4015
 31
0.0
  0
LINE
  5
15F
330
1E
100
AcDbEntity
  8
0
100
AcDbLine
 10
133.3499999999999
 20
124.4015
 30
0.0
 11
134.7599999999999
 21
124.4015
 31
0.0
  0
LINE
  5
160
330
1E
100
AcDbEntity
  8
0
100
AcDbLine
 10
133.0
 20
124.4015
 30
0.0
 11
133.3499999999999
 21
124.4015
 31
0.0
  0
LINE
  5
161
330
1E
100
AcDbEntity
  8
0
100
AcDbLine
 10
132.9316
 20
124.9014999999999
 30
0.0
 11
134.3339999999999
 21
124.9014999999999
 31
0.0
  0
LINE
  5
162
330
1E
100
AcDbEntity
  8
0
100
AcDbLine
 10
134.3339999999999
 20
124.9014999999999
 30
0.0
 11
136.6329999999999
 21
124.9014999999999
 31
0.0
  0
LINE
  5
163
330
1E
100
AcDbEntity
  8
0
100
AcDbLine
 10
139.83
 20
124.4015
 30
0.0
 11
143.0
 21
124.4015
 31
0.0
  0
LINE
  5
164
330
1E
100
AcDbEntity
  8
0
100
AcDbLine
 10
137.0999999999999
 20
124.4015
 30
0.0
 11
139.83
 21
124.4015
 31
0.0
  0
LINE
  5
165
330
1E
100
AcDbEntity
  8
0
100
AcDbLine
 10
143.0
 20
90.90149999999999
 30
0.0
 11
185.0
 21
90.90149999999999
 31
0.0
  0
LINE
  5
166
330
1E
100
AcDbEntity
  8
0
100
AcDbLine
 10
119.0
 20
91.4015
 30
0.0
 11
185.0
 21
91.4015
 31
0.0
  0
LINE
  5
167
330
1E
100
AcDbEntity
  8
0
100
AcDbLine
 10
143.0
 20
124.4015
 30
0.0
 11
185.0
 21
124.4015
 31
0.0
  0
LINE
  5
168
330
1E
100
AcDbEntity
  8
0
100
AcDbLine
 10
136.6329999999999
 20
124.9014999999999
 30
0.0
 11
139.5529999999999
 21
124.9014999999999
 31
0.0
  0
LINE
  5
169
330
1E
100
AcDbEntity
  8
0
100
AcDbLine
 10
131.6764999999999
 20
153.0937999999999
 30
0.0
 11
132.0
 21
152.4783999999999
 31
0.0
  0
LINE
  5
16A
330
1E
100
AcDbEntity
  8
0
100
AcDbLine
 10
132.0
 20
152.4783999999999
 30
0.0
 11
132.0
 21
124.9014999999999
 31
0.0
  0
LINE
  5
16B
330
1E
100
AcDbEntity
  8
0
100
AcDbLine
 10
139.5529999999999
 20
124.9014999999999
 30
0.0
 11
143.0
 21
124.9014999999999
 31
0.0
  0
LINE
  5
16C
330
1E
100
AcDbEntity
  8
0
100
AcDbLine
 10
154.538095238095
 20
90.90149999999999
 30
0.0
 11
154.6999999999999
 21
90.5015
 31
0.0
  0
LINE
  5
16D
330
1E
100
AcDbEntity
  8
0
100
AcDbLine
 10
154.6999999999999
 20
90.5015
 30
0.0
 11
160.3
 21
83.20149999999999
 31
0.0
  0
LINE
  5
16E
330
1E
100
AcDbEntity
  8
0
100
AcDbLine
 10
160.3
 20
83.20149999999999
 30
0.0
 11
167.5999999999999
 21
77.6015
 31
0.0
  0
LINE
  5
16F
330
1E
100
AcDbEntity
  8
0
100
AcDbLine
 10
167.5999999999999
 20
77.6015
 30
0.0
 11
176.0
 21
74.20149999999999
 31
0.0
  0
LINE
  5
170
330
1E
100
AcDbEntity
  8
0
100
AcDbLine
 10
176.0
 20
74.20149999999999
 30
0.0
 11
185.0
 21
72.9015
 31
0.0
  0
LINE
  5
171
330
1E
100
AcDbEntity
  8
0
100
AcDbLine
 10
185.0
 20
72.9015
 30
0.0
 11
194.0
 21
74.20149999999999
 31
0.0
  0
LINE
  5
172
330
1E
100
AcDbEntity
  8
0
100
AcDbLine
 10
185.0
 20
90.90149999999999
 30
0.0
 11
189.4
 21
91.5015
 31
0.0
  0
LINE
  5
173
330
1E
100
AcDbEntity
  8
0
100
AcDbLine
 10
185.0
 20
91.4015
 30
0.0
 11
189.1999999999999
 21
92.00149999999998
 31
0.0
  0
LINE
  5
174
330
1E
100
AcDbEntity
  8
0
100
AcDbLine
 10
189.1999999999999
 20
92.00149999999998
 30
0.0
 11
193.4
 21
93.6015
 31
0.0
  0
LINE
  5
175
330
1E
100
AcDbEntity
  8
0
100
AcDbLine
 10
189.4
 20
91.5015
 30
0.0
 11
193.5
 21
93.20149999999999
 31
0.0
  0
LINE
  5
176
330
1E
100
AcDbEntity
  8
0
100
AcDbLine
 10
194.0
 20
74.20149999999999
 30
0.0
 11
202.4
 21
77.6015
 31
0.0
  0
LINE
  5
177
330
1E
100
AcDbEntity
  8
0
100
AcDbLine
 10
193.5
 20
93.20149999999999
 30
0.0
 11
197.0
 21
95.90149999999999
 31
0.0
  0
LINE
  5
178
330
1E
100
AcDbEntity
  8
0
100
AcDbLine
 10
193.4
 20
93.6015
 30
0.0
 11
196.6999999999999
 21
96.2015
 31
0.0
  0
LINE
  5
179
330
1E
100
AcDbEntity
  8
0
100
AcDbLine
 10
196.6999999999999
 20
96.2015
 30
0.0
 11
199.3
 21
99.5015
 31
0.0
  0
LINE
  5
17A
330
1E
100
AcDbEntity
  8
0
100
AcDbLine
 10
197.0
 20
95.90149999999999
 30
0.0
 11
199.6999999999999
 21
99.4015
 31
0.0
  0
LINE
  5
17B
330
1E
100
AcDbEntity
  8
0
100
AcDbLine
 10
199.6999999999999
 20
99.4015
 30
0.0
 11
201.4
 21
103.5015
 31
0.0
  0
LINE
  5
17C
330
1E
100
AcDbEntity
  8
0
100
AcDbLine
 10
199.3
 20
99.5015
 30
0.0
 11
200.8999999999999
 21
103.7015
 31
0.0
  0
LINE
  5
17D
330
1E
100
AcDbEntity
  8
0
100
AcDbLine
 10
200.8999999999999
 20
103.7015
 30
0.0
 11
201.5
 21
107.9015
 31
0.0
  0
LINE
  5
17E
330
1E
100
AcDbEntity
  8
0
100
AcDbLine
 10
218.6999999999999
 20
98.9015
 30
0.0
 11
220.0
 21
107.9015
 31
0.0
  0
LINE
  5
17F
330
1E
100
AcDbEntity
  8
0
100
AcDbLine
 10
215.3
 20
90.5015
 30
0.0
 11
218.6999999999999
 21
98.9015
 31
0.0
  0
LINE
  5
180
330
1E
100
AcDbEntity
  8
0
100
AcDbLine
 10
209.6999999999999
 20
83.20149999999999
 30
0.0
 11
215.3
 21
90.5015
 31
0.0
  0
LINE
  5
181
330
1E
100
AcDbEntity
  8
0
100
AcDbLine
 10
202.4
 20
77.6015
 30
0.0
 11
209.6999999999999
 21
83.20149999999999
 31
0.0
  0
LINE
  5
182
330
1E
100
AcDbEntity
  8
0
100
AcDbLine
 10
201.4
 20
103.5015
 30
0.0
 11
202.0
 21
107.9015
 31
0.0
  0
LINE
  5
183
330
1E
100
AcDbEntity
  8
0
100
AcDbLine
 10
201.4
 20
112.3015
 30
0.0
 11
202.0
 21
107.9015
 31
0.0
  0
LINE
  5
184
330
1E
100
AcDbEntity
  8
0
100
AcDbLine
 10
200.8999999999999
 20
112.1015
 30
0.0
 11
201.5
 21
107.9015
 31
0.0
  0
LINE
  5
185
330
1E
100
AcDbEntity
  8
0
100
AcDbLine
 10
218.6999999999999
 20
116.9014999999999
 30
0.0
 11
220.0
 21
107.9015
 31
0.0
  0
LINE
  5
186
330
1E
100
AcDbEntity
  8
0
100
AcDbLine
 10
199.6999999999999
 20
116.4015
 30
0.0
 11
201.4
 21
112.3015
 31
0.0
  0
LINE
  5
187
330
1E
100
AcDbEntity
  8
0
100
AcDbLine
 10
197.0
 20
119.9014999999999
 30
0.0
 11
199.6999999999999
 21
116.4015
 31
0.0
  0
LINE
  5
188
330
1E
100
AcDbEntity
  8
0
100
AcDbLine
 10
199.3
 20
116.3015
 30
0.0
 11
200.8999999999999
 21
112.1015
 31
0.0
  0
LINE
  5
189
330
1E
100
AcDbEntity
  8
0
100
AcDbLine
 10
196.6999999999999
 20
119.6015
 30
0.0
 11
199.3
 21
116.3015
 31
0.0
  0
LINE
  5
18A
330
1E
100
AcDbEntity
  8
0
100
AcDbLine
 10
189.4
 20
124.3014999999999
 30
0.0
 11
193.5
 21
122.6015
 31
0.0
  0
LINE
  5
18B
330
1E
100
AcDbEntity
  8
0
100
AcDbLine
 10
193.5
 20
122.6015
 30
0.0
 11
197.0
 21
119.9014999999999
 31
0.0
  0
LINE
  5
18C
330
1E
100
AcDbEntity
  8
0
100
AcDbLine
 10
193.4
 20
122.2015
 30
0.0
 11
196.6999999999999
 21
119.6015
 31
0.0
  0
LINE
  5
18D
330
1E
100
AcDbEntity
  8
0
100
AcDbLine
 10
189.1999999999999
 20
123.8015
 30
0.0
 11
193.4
 21
122.2015
 31
0.0
  0
LINE
  5
18E
330
1E
100
AcDbEntity
  8
0
100
AcDbLine
 10
154.538095238095
 20
124.9014999999999
 30
0.0
 11
154.6999999999999
 21
125.3014999999999
 31
0.0
  0
LINE
  5
18F
330
1E
100
AcDbEntity
  8
0
100
AcDbLine
 10
154.6999999999999
 20
125.3014999999999
 30
0.0
 11
160.3
 21
132.6014999999999
 31
0.0
  0
LINE
  5
190
330
1E
100
AcDbEntity
  8
0
100
AcDbLine
 10
160.3
 20
132.6014999999999
 30
0.0
 11
167.5999999999999
 21
138.2015
 31
0.0
  0
LINE
  5
191
330
1E
100
AcDbEntity
  8
0
100
AcDbLine
 10
167.5999999999999
 20
138.2015
 30
0.0
 11
176.0
 21
141.6014999999999
 31
0.0
  0
LINE
  5
192
330
1E
100
AcDbEntity
  8
0
100
AcDbLine
 10
176.0
 20
141.6014999999999
 30
0.0
 11
185.0
 21
142.9014999999999
 31
0.0
  0
LINE
  5
193
330
1E
100
AcDbEntity
  8
0
100
AcDbLine
 10
185.0
 20
142.9014999999999
 30
0.0
 11
194.0
 21
141.6014999999999
 31
0.0
  0
LINE
  5
194
330
1E
100
AcDbEntity
  8
0
100
AcDbLine
 10
215.3
 20
125.3014999999999
 30
0.0
 11
218.6999999999999
 21
116.9014999999999
 31
0.0
  0
LINE
  5
195
330
1E
100
AcDbEntity
  8
0
100
AcDbLine
 10
209.6999999999999
 20
132.6014999999999
 30
0.0
 11
215.3
 21
125.3014999999999
 31
0.0
  0
LINE
  5
196
330
1E
100
AcDbEntity
  8
0
100
AcDbLine
 10
202.4
 20
138.2015
 30
0.0
 11
209.6999999999999
 21
132.6014999999999
 31
0.0
  0
LINE
  5
197
330
1E
100
AcDbEntity
  8
0
100
AcDbLine
 10
194.0
 20
141.6014999999999
 30
0.0
 11
202.4
 21
138.2015
 31
0.0
  0
LINE
  5
198
330
1E
100
AcDbEntity
  8
0
100
AcDbLine
 10
185.0
 20
124.9014999999999
 30
0.0
 11
189.4
 21
124.3014999999999
 31
0.0
  0
LINE
  5
199
330
1E
100
AcDbEntity
  8
0
100
AcDbLine
 10
185.0
 20
124.4015
 30
0.0
 11
189.1999999999999
 21
123.8015
 31
0.0
  0
LINE
  5
19A
330
1E
100
AcDbEntity
  8
0
100
AcDbLine
 10
143.0
 20
124.9014999999999
 30
0.0
 11
185.0
 21
124.9014999999999
 31
0.0
  0
LINE
  5
19B
330
1E
100
AcDbEntity
  8
0
100
AcDbLine
 10
132.0
 20
153.9015
 30
0.0
 11
132.4999999999999
 21
154.4014999999999
 31
0.0
  0
LINE
  5
19C
330
1E
100
AcDbEntity
  8
0
100
AcDbLine
 10
131.4999999999999
 20
153.1777268273839
 30
0.0
 11
131.4999999999999
 21
153.9015
 31
0.0
  0
LINE
  5
19D
330
1E
100
AcDbEntity
  8
0
100
AcDbLine
 10
131.4999999999999
 20
153.1777268273839
 30
0.0
 11
131.6764999999999
 21
153.0937999999999
 31
0.0
  0
LINE
  5
19E
330
1E
100
AcDbEntity
  8
0
100
AcDbLine
 10
108.072
 20
161.8767
 30
0.0
 11
108.264
 21
161.3967
 31
0.0
  0
LINE
  5
19F
330
1E
100
AcDbEntity
  8
0
100
AcDbLine
 10
108.0
 20
162.3887
 30
0.0
 11
108.072
 21
162.9007
 31
0.0
  0
LINE
  5
1A0
330
1E
100
AcDbEntity
  8
0
100
AcDbLine
 10
108.0
 20
162.3887
 30
0.0
 11
108.072
 21
161.8767
 31
0.0
  0
LINE
  5
1A1
330
1E
100
AcDbEntity
  8
0
100
AcDbLine
 10
108.264
 20
161.3967
 30
0.0
 11
108.584
 21
160.9727
 31
0.0
  0
LINE
  5
1A2
330
1E
100
AcDbEntity
  8
0
100
AcDbLine
 10
108.584
 20
160.9727
 30
0.0
 11
109.0079999999999
 21
160.6526999999999
 31
0.0
  0
LINE
  5
1A3
330
1E
100
AcDbEntity
  8
0
100
AcDbLine
 10
108.072
 20
162.9007
 30
0.0
 11
108.264
 21
163.3807
 31
0.0
  0
LINE
  5
1A4
330
1E
100
AcDbEntity
  8
0
100
AcDbLine
 10
108.264
 20
163.3807
 30
0.0
 11
108.584
 21
163.8047
 31
0.0
  0
LINE
  5
1A5
330
1E
100
AcDbEntity
  8
0
100
AcDbLine
 10
109.0079999999999
 20
160.6526999999999
 30
0.0
 11
109.488
 21
160.4607
 31
0.0
  0
LINE
  5
1A6
330
1E
100
AcDbEntity
  8
0
100
AcDbLine
 10
109.488
 20
160.4607
 30
0.0
 11
110.0
 21
160.3887
 31
0.0
  0
LINE
  5
1A7
330
1E
100
AcDbEntity
  8
0
100
AcDbLine
 10
108.584
 20
163.8047
 30
0.0
 11
109.0079999999999
 21
164.1246999999999
 31
0.0
  0
LINE
  5
1A8
330
1E
100
AcDbEntity
  8
0
100
AcDbLine
 10
109.0079999999999
 20
164.1246999999999
 30
0.0
 11
109.488
 21
164.3167
 31
0.0
  0
LINE
  5
1A9
330
1E
100
AcDbEntity
  8
0
100
AcDbLine
 10
110.0
 20
164.3887
 30
0.0
 11
110.512
 21
164.3167
 31
0.0
  0
LINE
  5
1AA
330
1E
100
AcDbEntity
  8
0
100
AcDbLine
 10
110.0
 20
160.3887
 30
0.0
 11
110.512
 21
160.4607
 31
0.0
  0
LINE
  5
1AB
330
1E
100
AcDbEntity
  8
0
100
AcDbLine
 10
109.488
 20
164.3167
 30
0.0
 11
110.0
 21
164.3887
 31
0.0
  0
LINE
  5
1AD
330
1E
100
AcDbEntity
  8
0
100
AcDbLine
 10
131.6999999999999
 20
154.4014999999999
 30
0.0
 11
132.4999999999999
 21
154.4014999999999
 31
0.0
  0
LINE
  5
1AE
330
1E
100
AcDbEntity
  8
0
100
AcDbLine
 10
132.4999999999999
 20
154.4014999999999
 30
0.0
 11
132.4999999999999
 21
189.9015
 31
0.0
  0
LINE
  5
1AF
330
1E
100
AcDbEntity
  8
0
100
AcDbLine
 10
129.4999999999999
 20
154.4014999999999
 30
0.0
 11
131.6999999999999
 21
154.4014999999999
 31
0.0
  0
LINE
  5
1B0
330
1E
100
AcDbEntity
  8
0
100
AcDbLine
 10
125.9
 20
154.4014999999999
 30
0.0
 11
129.4999999999999
 21
154.4014999999999
 31
0.0
  0
LINE
  5
1B1
330
1E
100
AcDbEntity
  8
0
100
AcDbLine
 10
121.1999999999999
 20
154.4014999999999
 30
0.0
 11
125.9
 21
154.4014999999999
 31
0.0
  0
LINE
  5
1B2
330
1E
100
AcDbEntity
  8
0
100
AcDbLine
 10
110.992
 20
164.1246999999999
 30
0.0
 11
111.416
 21
163.8047
 31
0.0
  0
LINE
  5
1B3
330
1E
100
AcDbEntity
  8
0
100
AcDbLine
 10
110.512
 20
164.3167
 30
0.0
 11
110.992
 21
164.1246999999999
 31
0.0
  0
LINE
  5
1B4
330
1E
100
AcDbEntity
  8
0
100
AcDbLine
 10
111.736
 20
163.3807
 30
0.0
 11
111.928
 21
162.9007
 31
0.0
  0
LINE
  5
1B5
330
1E
100
AcDbEntity
  8
0
100
AcDbLine
 10
111.416
 20
163.8047
 30
0.0
 11
111.736
 21
163.3807
 31
0.0
  0
LINE
  5
1B6
330
1E
100
AcDbEntity
  8
0
100
AcDbLine
 10
111.928
 20
162.9007
 30
0.0
 11
112.0
 21
162.3887
 31
0.0
  0
LINE
  5
1B7
330
1E
100
AcDbEntity
  8
0
100
AcDbLine
 10
111.928
 20
161.8767
 30
0.0
 11
112.0
 21
162.3887
 31
0.0
  0
LINE
  5
1B8
330
1E
100
AcDbEntity
  8
0
100
AcDbLine
 10
111.736
 20
161.3967
 30
0.0
 11
111.928
 21
161.8767
 31
0.0
  0
LINE
  5
1B9
330
1E
100
AcDbEntity
  8
0
100
AcDbLine
 10
111.416
 20
160.9727
 30
0.0
 11
111.736
 21
161.3967
 31
0.0
  0
LINE
  5
1BA
330
1E
100
AcDbEntity
  8
0
100
AcDbLine
 10
110.992
 20
160.6526999999999
 30
0.0
 11
111.416
 21
160.9727
 31
0.0
  0
LINE
  5
1BB
330
1E
100
AcDbEntity
  8
0
100
AcDbLine
 10
110.512
 20
160.4607
 30
0.0
 11
110.992
 21
160.6526999999999
 31
0.0
  0
LINE
  5
1C4
330
1E
100
AcDbEntity
  8
0
100
AcDbLine
 10
115.7999999999999
 20
154.4014999999999
 30
0.0
 11
121.1999999999999
 21
154.4014999999999
 31
0.0
  0
LINE
  5
1C5
330
1E
100
AcDbEntity
  8
0
100
AcDbLine
 10
110.0
 20
154.4014999999999
 30
0.0
 11
115.7999999999999
 21
154.4014999999999
 31
0.0
  0
LINE
  5
1C6
330
1E
100
AcDbEntity
  8
0
100
AcDbLine
 10
131.4999999999999
 20
153.9015
 30
0.0
 11
131.4999999999999
 21
153.1777268273839
 31
0.0
  0
LINE
  5
1C9
330
1E
100
AcDbEntity
  8
0
100
AcDbLine
 10
117.2667
 20
191.9014999999999
 30
0.0
 11
120.3332999999999
 21
191.9014999999999
 31
0.0
  0
LINE
  5
1CA
330
1E
100
AcDbEntity
  8
0
100
AcDbLine
 10
113.7999999999999
 20
191.9014999999999
 30
0.0
 11
117.2667
 21
191.9014999999999
 31
0.0
  0
LINE
  5
1CB
330
1E
100
AcDbEntity
  8
0
100
AcDbLine
 10
110.0
 20
191.9014999999999
 30
0.0
 11
113.7999999999999
 21
191.9014999999999
 31
0.0
  0
LINE
  5
1CC
330
1E
100
AcDbEntity
  8
0
100
AcDbLine
 10
124.1333
 20
191.9014999999999
 30
0.0
 11
124.6667
 21
191.9014999999999
 31
0.0
  0
LINE
  5
1CD
330
1E
100
AcDbEntity
  8
0
100
AcDbLine
 10
122.7333
 20
191.9014999999999
 30
0.0
 11
124.1333
 21
191.9014999999999
 31
0.0
  0
LINE
  5
1CE
330
1E
100
AcDbEntity
  8
0
100
AcDbLine
 10
120.3332999999999
 20
191.9014999999999
 30
0.0
 11
122.7333
 21
191.9014999999999
 31
0.0
  0
LINE
  5
1D2
330
1E
100
AcDbEntity
  8
0
100
AcDbLine
 10
125.0
 20
191.4015
 30
0.0
 11
132.4999999999999
 21
191.4015
 31
0.0
  0
LINE
  5
1D3
330
1E
100
AcDbEntity
  8
0
100
AcDbLine
 10
124.6667
 20
191.9014999999999
 30
0.0
 11
132.0
 21
191.9014999999999
 31
0.0
  0
LINE
  5
1D4
330
1E
100
AcDbEntity
  8
0
100
AcDbLine
 10
132.4999999999999
 20
191.4015
 30
0.0
 11
132.4999999999999
 21
189.9015
 31
0.0
  0
LINE
  5
1D5
330
1E
100
AcDbEntity
  8
0
100
AcDbLine
 10
132.0
 20
191.9014999999999
 30
0.0
 11
132.4999999999999
 21
191.4015
 31
0.0
  0
LINE
  5
1D6
330
1E
100
AcDbEntity
  8
0
100
AcDbLine
 10
132.4999999999999
 20
188.4014999999999
 30
0.0
 11
132.4999999999999
 21
189.9015
 31
0.0
  0
LINE
  5
1D7
330
1E
100
AcDbEntity
  8
0
100
AcDbLine
 10
95.0
 20
188.4014999999999
 30
0.0
 11
132.4999999999999
 21
188.4014999999999
 31
0.0
  0
LINE
  5
1D8
330
1E
100
AcDbEntity
  8
0
100
AcDbLine
 10
132.4999999999999
 20
189.9015
 30
0.0
 11
132.4999999999999
 21
154.4014999999999
 31
0.0
  0
LINE
  5
1D9
330
1E
100
AcDbEntity
  8
0
100
AcDbLine
 10
132.4999999999999
 20
189.9015
 30
0.0
 11
132.4999999999999
 21
191.4015
 31
0.0
  0
LINE
  5
1DB
330
1E
100
AcDbEntity
  8
0
100
AcDbLine
 10
102.7333
 20
191.9014999999999
 30
0.0
 11
106.2
 21
191.9014999999999
 31
0.0
  0
LINE
  5
1DC
330
1E
100
AcDbEntity
  8
0
100
AcDbLine
 10
106.2
 20
191.9014999999999
 30
0.0
 11
110.0
 21
191.9014999999999
 31
0.0
  0
LINE
  5
1E1
330
1E
100
AcDbEntity
  8
0
100
AcDbLine
 10
127.0
 20
192.4014999999999
 30
0.0
 11
132.0
 21
191.9014999999999
 31
0.0
  0
LINE
  5
1E2
330
1E
100
AcDbEntity
  8
0
100
AcDbLine
 10
122.6441482476549
 20
192.619292587617
 30
0.0
 11
127.0
 21
192.4014999999999
 31
0.0
  0
LINE
  5
1F2
330
1E
100
AcDbEntity
  8
0
100
AcDbLine
 10
106.7333
 20
192.9014999999999
 30
0.0
 11
107.6667
 21
192.9014999999999
 31
0.0
  0
LINE
  5
1F3
330
1E
100
AcDbEntity
  8
0
100
AcDbLine
 10
107.6667
 20
192.9014999999999
 30
0.0
 11
108.8
 21
192.9014999999999
 31
0.0
  0
LINE
  5
1F8
330
1E
100
AcDbEntity
  8
0
100
AcDbLine
 10
110.0
 20
192.9014999999999
 30
0.0
 11
111.2
 21
192.9014999999999
 31
0.0
  0
LINE
  5
205
330
1E
100
AcDbEntity
  8
0
100
AcDbLine
 10
108.8
 20
192.9014999999999
 30
0.0
 11
110.0
 21
192.9014999999999
 31
0.0
  0
LINE
  5
207
330
1E
100
AcDbEntity
  8
0
100
AcDbLine
 10
93.0
 20
192.4014999999999
 30
0.0
 11
97.3558517523446
 21
192.619292587617
 31
0.0
  0
LINE
  5
208
330
1E
100
AcDbEntity
  8
0
100
AcDbLine
 10
88.0
 20
191.9014999999999
 30
0.0
 11
93.0
 21
192.4014999999999
 31
0.0
  0
LINE
  5
209
330
1E
100
AcDbEntity
  8
0
100
AcDbLine
 10
88.0
 20
191.9014999999999
 30
0.0
 11
95.33329999999999
 21
191.9014999999999
 31
0.0
  0
LINE
  5
20A
330
1E
100
AcDbEntity
  8
0
100
AcDbLine
 10
87.5
 20
189.9015
 30
0.0
 11
87.5
 21
191.4015
 31
0.0
  0
LINE
  5
20B
330
1E
100
AcDbEntity
  8
0
100
AcDbLine
 10
87.5
 20
189.9015
 30
0.0
 11
87.5
 21
188.4014999999999
 31
0.0
  0
LINE
  5
20C
330
1E
100
AcDbEntity
  8
0
100
AcDbLine
 10
87.5
 20
189.9015
 30
0.0
 11
87.5
 21
154.4014999999999
 31
0.0
  0
LINE
  5
211
330
1E
100
AcDbEntity
  8
0
100
AcDbLine
 10
85.23999999999999
 20
124.4015
 30
0.0
 11
87.95022645559653
 21
113.5844614672506
 31
0.0
  0
LINE
  5
216
330
1E
100
AcDbEntity
  8
0
100
AcDbLine
 10
87.95022645559653
 20
113.5844614672506
 30
0.0
 11
92.43127220624501
 21
103.3156224681003
 31
0.0
  0
LINE
  5
217
330
1E
100
AcDbEntity
  8
0
100
AcDbLine
 10
92.43127220624501
 20
103.3156224681003
 30
0.0
 11
96.89334442794496
 21
97.41385687577457
 31
0.0
  0
LINE
  5
218
330
1E
100
AcDbEntity
  8
0
100
AcDbLine
 10
96.89334442794496
 20
97.41385687577457
 30
0.0
 11
101.3554166496447
 21
94.52854904176366
 31
0.0
  0
LINE
  5
219
330
1E
100
AcDbEntity
  8
0
100
AcDbLine
 10
101.3554166496447
 20
94.52854904176366
 30
0.0
 11
107.2610995601024
 21
93.34819610423796
 31
0.0
  0
LINE
  5
21A
330
1E
100
AcDbEntity
  8
0
100
AcDbLine
 10
107.2610995601024
 20
93.34819610423796
 30
0.0
 11
110.0
 21
93.22
 31
0.0
  0
LINE
  5
21B
330
1E
100
AcDbEntity
  8
0
100
AcDbLine
 10
118.6445833503552
 20
94.52854904176366
 30
0.0
 11
112.7389004398975
 21
93.34819610423796
 31
0.0
  0
LINE
  5
21C
330
1E
100
AcDbEntity
  8
0
100
AcDbLine
 10
123.106655572055
 20
97.41385687577457
 30
0.0
 11
118.6445833503552
 21
94.52854904176366
 31
0.0
  0
LINE
  5
21D
330
1E
100
AcDbEntity
  8
0
100
AcDbLine
 10
127.5687277937549
 20
103.3156224681003
 30
0.0
 11
123.106655572055
 21
97.41385687577457
 31
0.0
  0
LINE
  5
21E
330
1E
100
AcDbEntity
  8
0
100
AcDbLine
 10
132.0497735444034
 20
113.5844614672506
 30
0.0
 11
127.5687277937549
 21
103.3156224681003
 31
0.0
  0
LINE
  5
21F
330
1E
100
AcDbEntity
  8
0
100
AcDbLine
 10
134.7599999999999
 20
124.4015
 30
0.0
 11
132.0497735444034
 21
113.5844614672506
 31
0.0
  0
LINE
  5
220
330
1E
100
AcDbEntity
  8
0
100
AcDbLine
 10
112.7389004398975
 20
93.34819610423796
 30
0.0
 11
110.0
 21
93.22
 31
0.0
  0
LINE
  5
221
330
1E
100
AcDbEntity
  8
0
100
AcDbLine
 10
122.6441482476549
 20
192.619292587617
 30
0.0
 11
111.2
 21
192.9014999999999
 31
0.0
  0
LINE
  5
222
330
1E
100
AcDbEntity
  8
0
100
AcDbLine
 10
106.7333
 20
192.9014999999999
 30
0.0
 11
97.3558517523446
 21
192.619292587617
 31
0.0
  0
ENDSEC
  0
SECTION
  2
OBJECTS
  0
DICTIONARY
  5
C
330
0
100
AcDbDictionary
  3
ACAD_GROUP
350
D
  3
ACAD_LAYOUT
350
19
  3
ACAD_MLINESTYLE
350
16
  3
ACAD_PLOTSETTINGS
350
18
  3
ACAD_PLOTSTYLENAME
350
E
  3
ACDBHEADERROUNDTRIPXREC
350
226
  3
ACDBVARIABLEDICTIONARY
350
223
  0
DICTIONARY
  5
248
330
1E
100
AcDbDictionary
280
     1
  3
ACAD_LAYOUTSELFREF
360
249
  0
DICTIONARY
  5
246
330
1A
100
AcDbDictionary
280
     1
  3
ACAD_LAYOUTSELFREF
360
247
  0
DICTIONARY
  5
D
102
{ACAD_REACTORS
330
C
102
}
330
C
100
AcDbDictionary
  0
DICTIONARY
  5
19
102
{ACAD_REACTORS
330
C
102
}
330
C
100
AcDbDictionary
  0
DICTIONARY
  5
16
102
{ACAD_REACTORS
330
C
102
}
330
C
100
AcDbDictionary
  3
STANDARD
350
17
  0
DICTIONARY
  5
18
102
{ACAD_REACTORS
330
C
102
}
330
C
100
AcDbDictionary
  0
ACDBDICTIONARYWDFLT
  5
E
102
{ACAD_REACTORS
330
C
102
}
330
C
100
AcDbDictionary
281
     1
  3
Normal
350
F
100
AcDbDictionaryWithDefault
340
F
  0
DICTIONARY
  5
226
102
{ACAD_REACTORS
330
C
102
}
330
C
100
AcDbDictionary
  3
CEPSNTYPE
350
230
  3
FINGERPRINTGUID
350
231
  3
HYPERLINKBASE
350
229
  3
INSUNITS
350
22F
  3
LAYOUTDICT
350
22B
  3
LWETCUNION
350
22E
  3
PLOTSETDICT
350
22C
  3
PLOTSTYLNAMDICT
350
22D
  3
PSVPSCALE
350
233
  3
PUCSBASE
350
236
  3
PUCSORGBACK
350
23C
  3
PUCSORGBOTTOM
350
238
  3
PUCSORGFRONT
350
23B
  3
PUCSORGLEFT
350
239
  3
PUCSORGRIGHT
350
23A
  3
PUCSORGTOP
350
237
  3
PUCSORTHOREF
350
234
  3
PUCSORTHOVIEW
350
235
  3
STYLESHEET
350
22A
  3
TSTACKALIGN
350
227
  3
TSTACKSIZE
350
228
  3
UCSBASE
350
23F
  3
UCSORGBACK
350
245
  3
UCSORGBOTTOM
350
241
  3
UCSORGFRONT
350
244
  3
UCSORGLEFT
350
242
  3
UCSORGRIGHT
350
243
  3
UCSORGTOP
350
240
  3
UCSORTHOREF
350
23D
  3
UCSORTHOVIEW
350
23E
  3
VERSIONGUID
350
232
  0
DICTIONARY
  5
223
102
{ACAD_REACTORS
330
C
102
}
330
C
100
AcDbDictionary
  3
DIMASSOC
350
224
  0
XRECORD
  5
249
102
{ACAD_REACTORS
330
248
102
}
330
248
100
AcDbXrecord
340
1E
  0
XRECORD
  5
247
102
{ACAD_REACTORS
330
246
102
}
330
246
100
AcDbXrecord
340
1A
  0
MLINESTYLE
  5
17
102
{ACAD_REACTORS
330
16
102
}
330
16
100
AcDbMlineStyle
  2
STANDARD
 70
     0
  3

 62
   256
 51
90.0
 52
90.0
 71
     2
 49
0.5
 62
   256
  6
BYLAYER
 49
-0.5
 62
   256
  6
BYLAYER
  0
ACDBPLACEHOLDER
  5
F
102
{ACAD_REACTORS
330
E
102
}
330
E
100
AcDbPlaceHolder
280
     0
  0
XRECORD
  5
230
102
{ACAD_REACTORS
330
226
102
}
330
226
100
AcDbXrecord
 90
        0
  0
XRECORD
  5
231
102
{ACAD_REACTORS
330
226
102
}
330
226
100
AcDbXrecord
  1
{C3C4D151-E28D-448F-9ADC-86349827A310}
  0
XRECORD
  5
229
102
{ACAD_REACTORS
330
226
102
}
330
226
100
AcDbXrecord
  1

  0
XRECORD
  5
22F
102
{ACAD_REACTORS
330
226
102
}
330
226
100
AcDbXrecord
 90
        0
  0
XRECORD
  5
22B
102
{ACAD_REACTORS
330
226
102
}
330
226
100
AcDbXrecord
340
19
  0
XRECORD
  5
22E
102
{ACAD_REACTORS
330
226
102
}
330
226
100
AcDbXrecord
 90
    10781
  0
XRECORD
  5
22C
102
{ACAD_REACTORS
330
226
102
}
330
226
100
AcDbXrecord
340
18
  0
XRECORD
  5
22D
102
{ACAD_REACTORS
330
226
102
}
330
226
100
AcDbXrecord
340
E
  0
XRECORD
  5
233
102
{ACAD_REACTORS
330
226
102
}
330
226
100
AcDbXrecord
 40
0.0
  0
XRECORD
  5
236
102
{ACAD_REACTORS
330
226
102
}
330
226
100
AcDbXrecord
340
0
  0
XRECORD
  5
23C
102
{ACAD_REACTORS
330
226
102
}
330
226
100
AcDbXrecord
 10
0.0
 20
0.0
 30
0.0
  0
XRECORD
  5
238
102
{ACAD_REACTORS
330
226
102
}
330
226
100
AcDbXrecord
 10
0.0
 20
0.0
 30
0.0
  0
XRECORD
  5
23B
102
{ACAD_REACTORS
330
226
102
}
330
226
100
AcDbXrecord
 10
0.0
 20
0.0
 30
0.0
  0
XRECORD
  5
239
102
{ACAD_REACTORS
330
226
102
}
330
226
100
AcDbXrecord
 10
0.0
 20
0.0
 30
0.0
  0
XRECORD
  5
23A
102
{ACAD_REACTORS
330
226
102
}
330
226
100
AcDbXrecord
 10
0.0
 20
0.0
 30
0.0
  0
XRECORD
  5
237
102
{ACAD_REACTORS
330
226
102
}
330
226
100
AcDbXrecord
 10
0.0
 20
0.0
 30
0.0
  0
XRECORD
  5
234
102
{ACAD_REACTORS
330
226
102
}
330
226
100
AcDbXrecord
340
0
  0
XRECORD
  5
235
102
{ACAD_REACTORS
330
226
102
}
330
226
100
AcDbXrecord
 70
     0
  0
XRECORD
  5
22A
102
{ACAD_REACTORS
330
226
102
}
330
226
100
AcDbXrecord
  1

  0
XRECORD
  5
227
102
{ACAD_REACTORS
330
226
102
}
330
226
100
AcDbXrecord
 90
        1
  0
XRECORD
  5
228
102
{ACAD_REACTORS
330
226
102
}
330
226
100
AcDbXrecord
 90
       70
  0
XRECORD
  5
23F
102
{ACAD_REACTORS
330
226
102
}
330
226
100
AcDbXrecord
340
0
  0
XRECORD
  5
245
102
{ACAD_REACTORS
330
226
102
}
330
226
100
AcDbXrecord
 10
0.0
 20
0.0
 30
0.0
  0
XRECORD
  5
241
102
{ACAD_REACTORS
330
226
102
}
330
226
100
AcDbXrecord
 10
0.0
 20
0.0
 30
0.0
  0
XRECORD
  5
244
102
{ACAD_REACTORS
330
226
102
}
330
226
100
AcDbXrecord
 10
0.0
 20
0.0
 30
0.0
  0
XRECORD
  5
242
102
{ACAD_REACTORS
330
226
102
}
330
226
100
AcDbXrecord
 10
0.0
 20
0.0
 30
0.0
  0
XRECORD
  5
243
102
{ACAD_REACTORS
330
226
102
}
330
226
100
AcDbXrecord
 10
0.0
 20
0.0
 30
0.0
  0
XRECORD
  5
240
102
{ACAD_REACTORS
330
226
102
}
330
226
100
AcDbXrecord
 10
0.0
 20
0.0
 30
0.0
  0
XRECORD
  5
23D
102
{ACAD_REACTORS
330
226
102
}
330
226
100
AcDbXrecord
340
0
  0
XRECORD
  5
23E
102
{ACAD_REACTORS
330
226
102
}
330
226
100
AcDbXrecord
 70
     1
  0
XRECORD
  5
232
102
{ACAD_REACTORS
330
226
102
}
330
226
100
AcDbXrecord
  1
{70B8B269-5DA5-42C4-BCC4-0E730E8839F0}
  0
DICTIONARYVAR
  5
224
102
{ACAD_REACTORS
330
223
102
}
330
223
100
DictionaryVariables
280
     0
  1
1
  0
ENDSEC
  0
EOF
