  0
SECTION
  2
HEADER
  9
$ACADVER
  1
AC1014
  9
$ACADMAINTVER
 70
     9
  9
$DWGCODEPAGE
  3
ANSI_1252
  9
$INSBASE
 10
0.0
 20
0.0
 30
0.0
  9
$EXTMIN
 10
0.0000000000000031
 20
0.098499999999998
 30
0.0
  9
$EXTMAX
 10
190.0
 20
192.9014999999999
 30
0.0
  9
$LIMMIN
 10
0.0
 20
0.0
  9
$LIMMAX
 10
12.0
 20
9.0
  9
$ORTHOMODE
 70
     0
  9
$REGENMODE
 70
     1
  9
$FILLMODE
 70
     1
  9
$QTEXTMODE
 70
     0
  9
$MIRRTEXT
 70
     1
  9
$DRAGMODE
 70
     2
  9
$LTSCALE
 40
1.0
  9
$OSMODE
 70
    37
  9
$ATTMODE
 70
     1
  9
$TEXTSIZE
 40
0.2
  9
$TRACEWID
 40
0.05
  9
$TEXTSTYLE
  7
STANDARD
  9
$CLAYER
  8
0
  9
$CELTYPE
  6
CONTINUOUS
  9
$CECOLOR
 62
   256
  9
$CELTSCALE
 40
1.0
  9
$DELOBJ
 70
     1
  9
$DISPSILH
 70
     0
  9
$DIMSCALE
 40
1.0
  9
$DIMASZ
 40
0.18
  9
$DIMEXO
 40
0.0625
  9
$DIMDLI
 40
0.38
  9
$DIMRND
 40
0.0
  9
$DIMDLE
 40
0.0
  9
$DIMEXE
 40
0.18
  9
$DIMTP
 40
0.0
  9
$DIMTM
 40
0.0
  9
$DIMTXT
 40
0.18
  9
$DIMCEN
 40
0.09
  9
$DIMTSZ
 40
0.0
  9
$DIMTOL
 70
     0
  9
$DIMLIM
 70
     0
  9
$DIMTIH
 70
     1
  9
$DIMTOH
 70
     1
  9
$DIMSE1
 70
     0
  9
$DIMSE2
 70
     0
  9
$DIMTAD
 70
     0
  9
$DIMZIN
 70
     0
  9
$DIMBLK
  1

  9
$DIMASO
 70
     1
  9
$DIMSHO
 70
     1
  9
$DIMPOST
  1

  9
$DIMAPOST
  1

  9
$DIMALT
 70
     0
  9
$DIMALTD
 70
     2
  9
$DIMALTF
 40
25.4
  9
$DIMLFAC
 40
1.0
  9
$DIMTOFL
 70
     0
  9
$DIMTVP
 40
0.0
  9
$DIMTIX
 70
     0
  9
$DIMSOXD
 70
     0
  9
$DIMSAH
 70
     0
  9
$DIMBLK1
  1

  9
$DIMBLK2
  1

  9
$DIMSTYLE
  2
STANDARD
  9
$DIMCLRD
 70
     0
  9
$DIMCLRE
 70
     0
  9
$DIMCLRT
 70
     0
  9
$DIMTFAC
 40
1.0
  9
$DIMGAP
 40
0.09
  9
$DIMJUST
 70
     0
  9
$DIMSD1
 70
     0
  9
$DIMSD2
 70
     0
  9
$DIMTOLJ
 70
     1
  9
$DIMTZIN
 70
     0
  9
$DIMALTZ
 70
     0
  9
$DIMALTTZ
 70
     0
  9
$DIMFIT
 70
     3
  9
$DIMUPT
 70
     0
  9
$DIMUNIT
 70
     2
  9
$DIMDEC
 70
     4
  9
$DIMTDEC
 70
     4
  9
$DIMALTU
 70
     2
  9
$DIMALTTD
 70
     2
  9
$DIMTXSTY
  7
STANDARD
  9
$DIMAUNIT
 70
     0
  9
$LUNITS
 70
     2
  9
$LUPREC
 70
     4
  9
$SKETCHINC
 40
0.1
  9
$FILLETRAD
 40
0.0
  9
$AUNITS
 70
     0
  9
$AUPREC
 70
     0
  9
$MENU
  1
.
  9
$ELEVATION
 40
0.0
  9
$PELEVATION
 40
0.0
  9
$THICKNESS
 40
0.0
  9
$LIMCHECK
 70
     0
  9
$BLIPMODE
 70
     0
  9
$CHAMFERA
 40
0.0
  9
$CHAMFERB
 40
0.0
  9
$CHAMFERC
 40
0.0
  9
$CHAMFERD
 40
0.0
  9
$SKPOLY
 70
     0
  9
$TDCREATE
 40
2454700.330976736
  9
$TDUPDATE
 40
2454700.331961979
  9
$TDINDWG
 40
0.0009854282
  9
$TDUSRTIMER
 40
0.0009854282
  9
$USRTIMER
 70
     1
  9
$ANGBASE
 50
0.0
  9
$ANGDIR
 70
     0
  9
$PDMODE
 70
     0
  9
$PDSIZE
 40
0.0
  9
$PLINEWID
 40
0.0
  9
$COORDS
 70
     1
  9
$SPLFRAME
 70
     0
  9
$SPLINETYPE
 70
     6
  9
$SPLINESEGS
 70
     8
  9
$ATTDIA
 70
     0
  9
$ATTREQ
 70
     1
  9
$HANDLING
 70
 22529
  9
$HANDSEED
  5
2B8
  9
$SURFTAB1
 70
     6
  9
$SURFTAB2
 70
     6
  9
$SURFTYPE
 70
     6
  9
$SURFU
 70
     6
  9
$SURFV
 70
     6
  9
$UCSNAME
  2

  9
$UCSORG
 10
0.0
 20
0.0
 30
0.0
  9
$UCSXDIR
 10
1.0
 20
0.0
 30
0.0
  9
$UCSYDIR
 10
0.0
 20
1.0
 30
0.0
  9
$PUCSNAME
  2

  9
$PUCSORG
 10
0.0
 20
0.0
 30
0.0
  9
$PUCSXDIR
 10
1.0
 20
0.0
 30
0.0
  9
$PUCSYDIR
 10
0.0
 20
1.0
 30
0.0
  9
$USERI1
 70
     0
  9
$USERI2
 70
     0
  9
$USERI3
 70
     0
  9
$USERI4
 70
     0
  9
$USERI5
 70
     0
  9
$USERR1
 40
0.0
  9
$USERR2
 40
0.0
  9
$USERR3
 40
0.0
  9
$USERR4
 40
0.0
  9
$USERR5
 40
0.0
  9
$WORLDVIEW
 70
     1
  9
$SHADEDGE
 70
     3
  9
$SHADEDIF
 70
    70
  9
$TILEMODE
 70
     1
  9
$MAXACTVP
 70
    64
  9
$PINSBASE
 10
0.0
 20
0.0
 30
0.0
  9
$PLIMCHECK
 70
     0
  9
$PEXTMIN
 10
1.000000000000000E+20
 20
1.000000000000000E+20
 30
1.000000000000000E+20
  9
$PEXTMAX
 10
-1.000000000000000E+20
 20
-1.000000000000000E+20
 30
-1.000000000000000E+20
  9
$PLIMMIN
 10
0.0
 20
0.0
  9
$PLIMMAX
 10
12.0
 20
9.0
  9
$UNITMODE
 70
     0
  9
$VISRETAIN
 70
     1
  9
$PLINEGEN
 70
     0
  9
$PSLTSCALE
 70
     1
  9
$TREEDEPTH
 70
  3020
  9
$PICKSTYLE
 70
     1
  9
$CMLSTYLE
  2
STANDARD
  9
$CMLJUST
 70
     0
  9
$CMLSCALE
 40
1.0
  9
$PROXYGRAPHICS
 70
     1
  9
$MEASUREMENT
 70
     0
  0
ENDSEC
  0
SECTION
  2
CLASSES
  0
CLASS
  1
ACDBDICTIONARYWDFLT
  2
AcDbDictionaryWithDefault
  3
AutoCAD 2000
 90
        0
280
     0
281
     0
  0
CLASS
  1
ACDBPLACEHOLDER
  2
AcDbPlaceHolder
  3
AutoCAD 2000
 90
        0
280
     0
281
     0
  0
CLASS
  1
LAYOUT
  2
AcDbLayout
  3
AutoCAD 2000
 90
        0
280
     0
281
     0
  0
CLASS
  1
DICTIONARYVAR
  2
AcDbDictionaryVar
  3
AutoCAD 2000
 90
        0
280
     0
281
     0
  0
CLASS
  1
LONG_TRANSACTION
  2
AcDbLongTransaction
  3
AutoCAD 2000
 90
        0
280
     0
281
     0
  0
CLASS
  1
LWPOLYLINE
  2
AcDbPolyline
  3
AutoCAD 2000
 90
        0
280
     0
281
     1
  0
CLASS
  1
HATCH
  2
AcDbHatch
  3
AutoCAD 2000
 90
        0
280
     0
281
     1
  0
CLASS
  1
XRECORD
  2
AcDbXrecord
  3
AutoCAD 2000
 90
        0
280
     0
281
     0
  0
ENDSEC
  0
SECTION
  2
TABLES
  0
TABLE
  2
VPORT
  5
8
330
0
100
AcDbSymbolTable
 70
     2
  0
VPORT
  5
293
330
8
100
AcDbSymbolTableRecord
100
AcDbViewportTableRecord
  2
*ACTIVE
 70
     0
 10
0.0
 20
0.0
 11
1.0
 21
1.0
 12
95.0
 22
96.5
 13
0.0
 23
0.0
 14
1.0
 24
1.0
 15
0.0
 25
0.0
 16
0.0
 26
0.0
 36
1.0
 17
0.0
 27
0.0
 37
0.0
 40
194.2823069053708
 41
2.078104993597951
 42
50.0
 43
0.0
 44
0.0
 50
0.0
 51
0.0
 71
     0
 72
   100
 73
     1
 74
     3
 75
     0
 76
     0
 77
     0
 78
     0
  0
ENDTAB
  0
TABLE
  2
LTYPE
  5
5
330
0
100
AcDbSymbolTable
 70
     1
  0
LTYPE
  5
13
330
5
100
AcDbSymbolTableRecord
100
AcDbLinetypeTableRecord
  2
BYBLOCK
 70
     0
  3

 72
    65
 73
     0
 40
0.0
  0
LTYPE
  5
14
330
5
100
AcDbSymbolTableRecord
100
AcDbLinetypeTableRecord
  2
BYLAYER
 70
     0
  3

 72
    65
 73
     0
 40
0.0
  0
LTYPE
  5
15
330
5
100
AcDbSymbolTableRecord
100
AcDbLinetypeTableRecord
  2
CONTINUOUS
 70
     0
  3
Solid line
 72
    65
 73
     0
 40
0.0
  0
ENDTAB
  0
TABLE
  2
LAYER
  5
2
330
0
100
AcDbSymbolTable
 70
     1
  0
LAYER
  5
10
330
2
100
AcDbSymbolTableRecord
100
AcDbLayerTableRecord
  2
0
 70
     0
 62
     7
  6
CONTINUOUS
  0
ENDTAB
  0
TABLE
  2
STYLE
  5
3
330
0
100
AcDbSymbolTable
 70
     1
  0
STYLE
  5
11
330
3
100
AcDbSymbolTableRecord
100
AcDbTextStyleTableRecord
  2
STANDARD
 70
     0
 40
0.0
 41
1.0
 50
0.0
 71
     0
 42
0.2
  3
txt
  4

  0
ENDTAB
  0
TABLE
  2
VIEW
  5
6
330
0
100
AcDbSymbolTable
 70
     0
  0
ENDTAB
  0
TABLE
  2
UCS
  5
7
330
0
100
AcDbSymbolTable
 70
     0
  0
ENDTAB
  0
TABLE
  2
APPID
  5
9
330
0
100
AcDbSymbolTable
 70
     1
  0
APPID
  5
12
330
9
100
AcDbSymbolTableRecord
100
AcDbRegAppTableRecord
  2
ACAD
 70
     0
  0
ENDTAB
  0
TABLE
  2
DIMSTYLE
  5
A
330
0
100
AcDbSymbolTable
 70
     1
  0
DIMSTYLE
105
288
330
A
100
AcDbSymbolTableRecord
100
AcDbDimStyleTableRecord
  2
STANDARD
 70
     0
  3

  4

  5

  6

  7

 40
1.0
 41
0.18
 42
0.0625
 43
0.38
 44
0.18
 45
0.0
 46
0.0
 47
0.0
 48
0.0
140
0.18
141
0.09
142
0.0
143
25.4
144
1.0
145
0.0
146
1.0
147
0.09
 71
     0
 72
     0
 73
     1
 74
     1
 75
     0
 76
     0
 77
     0
 78
     0
170
     0
171
     2
172
     0
173
     0
174
     0
175
     0
176
     0
177
     0
178
     0
270
     2
271
     4
272
     4
273
     2
274
     2
340
11
275
     0
280
     0
281
     0
282
     0
283
     1
284
     0
285
     0
286
     0
287
     3
288
     0
  0
ENDTAB
  0
TABLE
  2
BLOCK_RECORD
  5
1
330
0
100
AcDbSymbolTable
 70
     0
  0
BLOCK_RECORD
  5
1E
102
{ACAD_XDICTIONARY
360
2B6
102
}
330
1
100
AcDbSymbolTableRecord
100
AcDbBlockTableRecord
  2
*MODEL_SPACE
  0
BLOCK_RECORD
  5
1A
102
{ACAD_XDICTIONARY
360
2B4
102
}
330
1
100
AcDbSymbolTableRecord
100
AcDbBlockTableRecord
  2
*PAPER_SPACE
  0
ENDTAB
  0
ENDSEC
  0
SECTION
  2
BLOCKS
  0
BLOCK
  5
1F
330
1E
100
AcDbEntity
  8
0
100
AcDbBlockBegin
  2
*MODEL_SPACE
 70
     0
 10
0.0
 20
0.0
 30
0.0
  3
*MODEL_SPACE
  1

  0
ENDBLK
  5
20
330
1E
100
AcDbEntity
  8
0
100
AcDbBlockEnd
  0
BLOCK
  5
1B
330
1A
100
AcDbEntity
 67
     1
  8
0
100
AcDbBlockBegin
  2
*PAPER_SPACE
 70
     0
 10
0.0
 20
0.0
 30
0.0
  3
*PAPER_SPACE
  1

  0
ENDBLK
  5
1C
330
1A
100
AcDbEntity
 67
     1
  8
0
100
AcDbBlockEnd
  0
ENDSEC
  0
SECTION
  2
ENTITIES
  0
LINE
  5
22
330
1E
100
AcDbEntity
  8
0
100
AcDbLine
 10
0.0000000000000031
 20
124.4015
 30
0.0
 11
0.5000000000000031
 21
124.9014999999999
 31
0.0
  0
LINE
  5
23
330
1E
100
AcDbEntity
  8
0
100
AcDbLine
 10
0.0000000000000031
 20
124.4015
 30
0.0
 11
0.700000000000003
 21
124.4015
 31
0.0
  0
LINE
  5
24
330
1E
100
AcDbEntity
  8
0
100
AcDbLine
 10
3.728439999999999
 20
103.04511
 30
0.0
 11
4.134389999999999
 21
102.89736
 31
0.0
  0
LINE
  5
25
330
1E
100
AcDbEntity
  8
0
100
AcDbLine
 10
4.134389999999999
 20
102.89736
 30
0.0
 11
5.21692
 21
102.5033499999999
 31
0.0
  0
LINE
  5
26
330
1E
100
AcDbEntity
  8
0
100
AcDbLine
 10
5.21692
 20
102.5033499999999
 30
0.0
 11
6.97602
 21
101.86309
 31
0.0
  0
LINE
  5
27
330
1E
100
AcDbEntity
  8
0
100
AcDbLine
 10
6.97602
 20
101.86309
 30
0.0
 11
9.276389999999999
 21
101.02583
 31
0.0
  0
LINE
  5
28
330
1E
100
AcDbEntity
  8
0
100
AcDbLine
 10
9.276389999999999
 20
101.02583
 30
0.0
 11
11.8925
 21
100.07364
 31
0.0
  0
LINE
  5
29
330
1E
100
AcDbEntity
  8
0
100
AcDbLine
 10
25.3339
 20
95.1814
 30
0.0
 11
25.7398
 21
95.0336
 31
0.0
  0
LINE
  5
2A
330
1E
100
AcDbEntity
  8
0
100
AcDbLine
 10
25.7398
 20
95.0336
 30
0.0
 11
26.19699999999999
 21
95.44769999999999
 31
0.0
  0
LINE
  5
2B
330
1E
100
AcDbEntity
  8
0
100
AcDbLine
 10
24.2513
 20
95.57540000000001
 30
0.0
 11
25.3339
 21
95.1814
 31
0.0
  0
LINE
  5
2C
330
1E
100
AcDbEntity
  8
0
100
AcDbLine
 10
22.4922
 20
96.2157
 30
0.0
 11
24.2513
 21
95.57540000000001
 31
0.0
  0
LINE
  5
2D
330
1E
100
AcDbEntity
  8
0
100
AcDbLine
 10
20.1919
 20
97.05289999999999
 30
0.0
 11
22.4922
 21
96.2157
 31
0.0
  0
LINE
  5
2E
330
1E
100
AcDbEntity
  8
0
100
AcDbLine
 10
17.5758
 20
98.0051
 30
0.0
 11
20.1919
 21
97.05289999999999
 31
0.0
  0
LINE
  5
2F
330
1E
100
AcDbEntity
  8
0
100
AcDbLine
 10
14.7341
 20
99.03936999999999
 30
0.0
 11
17.5758
 21
98.0051
 31
0.0
  0
LINE
  5
30
330
1E
100
AcDbEntity
  8
0
100
AcDbLine
 10
26.19699999999999
 20
95.44769999999999
 30
0.0
 11
26.7175943295626
 21
96.87804000426551
 31
0.0
  0
LINE
  5
31
330
1E
100
AcDbEntity
  8
0
100
AcDbLine
 10
11.8925
 20
100.07364
 30
0.0
 11
14.7341
 21
99.03936999999999
 31
0.0
  0
LINE
  5
32
330
1E
100
AcDbEntity
  8
0
100
AcDbLine
 10
3.64439
 20
103.6562199999999
 30
0.0
 11
6.08042545450674
 21
110.349189028267
 31
0.0
  0
LINE
  5
33
330
1E
100
AcDbEntity
  8
0
100
AcDbLine
 10
3.64439
 20
103.6562199999999
 30
0.0
 11
3.728439999999999
 21
103.04511
 31
0.0
  0
LINE
  5
34
330
1E
100
AcDbEntity
  8
0
100
AcDbLine
 10
3.64439
 20
103.6562199999999
 30
0.0
 11
6.08042545450674
 21
110.349189028267
 31
0.0
  0
LINE
  5
35
330
1E
100
AcDbEntity
  8
0
100
AcDbLine
 10
30.2
 20
95.4015
 30
0.0
 11
44.59999999999999
 21
92.1015
 31
0.0
  0
LINE
  5
36
330
1E
100
AcDbEntity
  8
0
100
AcDbLine
 10
26.7175943295626
 20
96.87804000426551
 30
0.0
 11
30.2
 21
95.4015
 31
0.0
  0
LINE
  5
37
330
1E
100
AcDbEntity
  8
0
100
AcDbLine
 10
2.7
 20
124.4015
 30
0.0
 11
5.9
 21
124.4015
 31
0.0
  0
LINE
  5
38
330
1E
100
AcDbEntity
  8
0
100
AcDbLine
 10
0.700000000000003
 20
124.4015
 30
0.0
 11
2.7
 21
124.4015
 31
0.0
  0
LINE
  5
39
330
1E
100
AcDbEntity
  8
0
100
AcDbLine
 10
0.8040330000000029
 20
124.4015
 30
0.0
 11
2.74453
 21
124.4015
 31
0.0
  0
LINE
  5
3A
330
1E
100
AcDbEntity
  8
0
100
AcDbLine
 10
10.1
 20
124.4015
 30
0.0
 11
14.9
 21
124.4015
 31
0.0
  0
LINE
  5
3B
330
1E
100
AcDbEntity
  8
0
100
AcDbLine
 10
5.9
 20
124.4015
 30
0.0
 11
10.1
 21
124.4015
 31
0.0
  0
LINE
  5
3C
330
1E
100
AcDbEntity
  8
0
100
AcDbLine
 10
2.74453
 20
124.4015
 30
0.0
 11
5.82941
 21
124.4015
 31
0.0
  0
LINE
  5
3D
330
1E
100
AcDbEntity
  8
0
100
AcDbLine
 10
5.82941
 20
124.4015
 30
0.0
 11
10.10839999999999
 21
124.4015
 31
0.0
  0
LINE
  5
3E
330
1E
100
AcDbEntity
  8
0
100
AcDbLine
 10
14.9
 20
124.4015
 30
0.0
 11
20.0
 21
124.4015
 31
0.0
  0
LINE
  5
3F
330
1E
100
AcDbEntity
  8
0
100
AcDbLine
 10
10.10839999999999
 20
124.4015
 30
0.0
 11
14.7358
 21
124.4015
 31
0.0
  0
LINE
  5
40
330
1E
100
AcDbEntity
  8
0
100
AcDbLine
 10
14.7358
 20
124.4015
 30
0.0
 11
20.0
 21
124.4015
 31
0.0
  0
LINE
  5
41
330
1E
100
AcDbEntity
  8
0
100
AcDbLine
 10
20.0
 20
124.4015
 30
0.0
 11
107.0
 21
124.4015
 31
0.0
  0
LINE
  5
42
330
1E
100
AcDbEntity
  8
0
100
AcDbLine
 10
20.0
 20
124.4015
 30
0.0
 11
107.0
 21
124.4015
 31
0.0
  0
LINE
  5
43
330
1E
100
AcDbEntity
  8
0
100
AcDbLine
 10
2.2
 20
115.7014999999999
 30
0.0
 11
6.08042545450674
 21
110.349189028267
 31
0.0
  0
LINE
  5
44
330
1E
100
AcDbEntity
  8
0
100
AcDbLine
 10
0.0000000000000033
 20
124.4015
 30
0.0
 11
2.2
 21
115.7014999999999
 31
0.0
  0
LINE
  5
45
330
1E
100
AcDbEntity
  8
0
100
AcDbLine
 10
0.5000000000000031
 20
124.9014999999999
 30
0.0
 11
1.35135
 21
124.9014999999999
 31
0.0
  0
LINE
  5
46
330
1E
100
AcDbEntity
  8
0
100
AcDbLine
 10
1.35135
 20
124.9014999999999
 30
0.0
 11
3.29184
 21
124.9014999999999
 31
0.0
  0
LINE
  5
47
330
1E
100
AcDbEntity
  8
0
100
AcDbLine
 10
3.29184
 20
124.9014999999999
 30
0.0
 11
6.177699999999999
 21
124.9014999999999
 31
0.0
  0
LINE
  5
48
330
1E
100
AcDbEntity
  8
0
100
AcDbLine
 10
6.177699999999999
 20
124.9014999999999
 30
0.0
 11
10.40699999999999
 21
124.9014999999999
 31
0.0
  0
LINE
  5
49
330
1E
100
AcDbEntity
  8
0
100
AcDbLine
 10
10.40699999999999
 20
124.9014999999999
 30
0.0
 11
14.8353
 21
124.9014999999999
 31
0.0
  0
LINE
  5
4A
330
1E
100
AcDbEntity
  8
0
100
AcDbLine
 10
14.8353
 20
124.9014999999999
 30
0.0
 11
20.0
 21
124.9014999999999
 31
0.0
  0
LINE
  5
4B
330
1E
100
AcDbEntity
  8
0
100
AcDbLine
 10
20.0
 20
124.9014999999999
 30
0.0
 11
107.0
 21
124.9014999999999
 31
0.0
  0
LINE
  5
4C
330
1E
100
AcDbEntity
  8
0
100
AcDbLine
 10
20.0
 20
124.9014999999999
 30
0.0
 11
107.0
 21
124.9014999999999
 31
0.0
  0
LINE
  5
4D
330
1E
100
AcDbEntity
  8
0
100
AcDbLine
 10
0.0000000000000032
 20
124.4015
 30
0.0
 11
0.5000000000000031
 21
124.9014999999999
 31
0.0
  0
LINE
  5
4E
330
1E
100
AcDbEntity
  8
0
100
AcDbLine
 10
0.0000000000000032
 20
124.4015
 30
0.0
 11
0.8040330000000029
 21
124.4015
 31
0.0
  0
LINE
  5
4F
330
1E
100
AcDbEntity
  8
0
100
AcDbLine
 10
0.0000000000000032
 20
124.4015
 30
0.0
 11
2.2
 21
115.7014999999999
 31
0.0
  0
LINE
  5
50
330
1E
100
AcDbEntity
  8
0
100
AcDbLine
 10
42.5
 20
188.4014999999999
 30
0.0
 11
42.5
 21
189.9015
 31
0.0
  0
LINE
  5
51
330
1E
100
AcDbEntity
  8
0
100
AcDbLine
 10
42.5
 20
188.4014999999999
 30
0.0
 11
42.8333
 21
187.9015
 31
0.0
  0
LINE
  5
52
330
1E
100
AcDbEntity
  8
0
100
AcDbLine
 10
42.5
 20
191.4015
 30
0.0
 11
42.8333
 21
191.9014999999999
 31
0.0
  0
LINE
  5
53
330
1E
100
AcDbEntity
  8
0
100
AcDbLine
 10
42.5
 20
191.4015
 30
0.0
 11
42.5
 21
189.9015
 31
0.0
  0
LINE
  5
54
330
1E
100
AcDbEntity
  8
0
100
AcDbLine
 10
52.9809
 20
4.431499999999999
 30
0.0
 11
53.5087997274952
 21
60.1668712290857
 31
0.0
  0
LINE
  5
55
330
1E
100
AcDbEntity
  8
0
100
AcDbLine
 10
52.9809
 20
4.431499999999999
 30
0.0
 11
53.26209999999999
 21
2.44149999999999
 31
0.0
  0
LINE
  5
56
330
1E
100
AcDbEntity
  8
0
100
AcDbLine
 10
52.9809
 20
4.431499999999999
 30
0.0
 11
53.5087997274952
 21
60.1668712290857
 31
0.0
  0
LINE
  5
57
330
1E
100
AcDbEntity
  8
0
100
AcDbLine
 10
52.9809
 20
4.431499999999999
 30
0.0
 11
53.2937
 21
5.777499999999999
 31
0.0
  0
LINE
  5
58
330
1E
100
AcDbEntity
  8
0
100
AcDbLine
 10
53.2937
 20
5.777499999999999
 30
0.0
 11
54.005
 21
6.97049999999998
 31
0.0
  0
LINE
  5
59
330
1E
100
AcDbEntity
  8
0
100
AcDbLine
 10
54.005
 20
6.97049999999998
 30
0.0
 11
55.2163
 21
8.15839999999998
 31
0.0
  0
LINE
  5
5A
330
1E
100
AcDbEntity
  8
0
100
AcDbLine
 10
53.26209999999999
 20
2.44149999999999
 30
0.0
 11
53.9514
 21
1.31049999999999
 31
0.0
  0
LINE
  5
5B
330
1E
100
AcDbEntity
  8
0
100
AcDbLine
 10
53.9514
 20
1.31049999999999
 30
0.0
 11
55.1449
 21
0.6244999999999951
 31
0.0
  0
LINE
  5
5C
330
1E
100
AcDbEntity
  8
0
100
AcDbLine
 10
55.2163
 20
8.15839999999998
 30
0.0
 11
56.8262
 21
9.1927
 31
0.0
  0
LINE
  5
5D
330
1E
100
AcDbEntity
  8
0
100
AcDbLine
 10
56.8262
 20
9.1927
 30
0.0
 11
58.6328
 21
9.8878
 31
0.0
  0
LINE
  5
5E
330
1E
100
AcDbEntity
  8
0
100
AcDbLine
 10
55.1449
 20
0.6244999999999951
 30
0.0
 11
56.7413
 21
0.234499999999994
 31
0.0
  0
LINE
  5
5F
330
1E
100
AcDbEntity
  8
0
100
AcDbLine
 10
56.7413
 20
0.234499999999994
 30
0.0
 11
58.5405
 21
0.142499999999995
 31
0.0
  0
LINE
  5
60
330
1E
100
AcDbEntity
  8
0
100
AcDbLine
 10
62.3404
 20
0.106499999999993
 30
0.0
 11
64.14100000000001
 21
0.164499999999986
 31
0.0
  0
LINE
  5
61
330
1E
100
AcDbEntity
  8
0
100
AcDbLine
 10
60.44019999999999
 20
0.098499999999998
 30
0.0
 11
62.3404
 21
0.106499999999993
 31
0.0
  0
LINE
  5
62
330
1E
100
AcDbEntity
  8
0
100
AcDbLine
 10
64.14100000000001
 20
0.164499999999986
 30
0.0
 11
65.7445
 21
0.5245
 31
0.0
  0
LINE
  5
63
330
1E
100
AcDbEntity
  8
0
100
AcDbLine
 10
64.2258
 20
9.122700000000008
 30
0.0
 11
65.81579999999999
 21
8.05799999999999
 31
0.0
  0
LINE
  5
64
330
1E
100
AcDbEntity
  8
0
100
AcDbLine
 10
62.4326
 20
9.85179999999999
 30
0.0
 11
64.2258
 21
9.122700000000008
 31
0.0
  0
LINE
  5
65
330
1E
100
AcDbEntity
  8
0
100
AcDbLine
 10
64.70829999999999
 20
60.0608
 30
0.0
 11
66.30819999999999
 21
60.0457
 31
0.0
  0
LINE
  5
66
330
1E
100
AcDbEntity
  8
0
100
AcDbLine
 10
60.5349
 20
10.0981
 30
0.0
 11
62.4326
 21
9.85179999999999
 31
0.0
  0
LINE
  5
67
330
1E
100
AcDbEntity
  8
0
100
AcDbLine
 10
58.6328
 20
9.8878
 30
0.0
 11
60.5349
 21
10.0981
 31
0.0
  0
LINE
  5
68
330
1E
100
AcDbEntity
  8
0
100
AcDbLine
 10
58.5405
 20
0.142499999999995
 30
0.0
 11
60.44019999999999
 21
0.098499999999998
 31
0.0
  0
LINE
  5
69
330
1E
100
AcDbEntity
  8
0
100
AcDbLine
 10
63.3083
 20
60.0741
 30
0.0
 11
65.5082
 21
60.0533
 31
0.0
  0
LINE
  5
6A
330
1E
100
AcDbEntity
  8
0
100
AcDbLine
 10
65.7445
 20
0.5245
 30
0.0
 11
66.9508
 21
1.18749999999998
 31
0.0
  0
LINE
  5
6B
330
1E
100
AcDbEntity
  8
0
100
AcDbLine
 10
67.6614
 20
2.30549999999999
 30
0.0
 11
67.9802
 21
4.2895
 31
0.0
  0
LINE
  5
6C
330
1E
100
AcDbEntity
  8
0
100
AcDbLine
 10
66.9508
 20
1.18749999999998
 30
0.0
 11
67.6614
 21
2.30549999999999
 31
0.0
  0
LINE
  5
6D
330
1E
100
AcDbEntity
  8
0
100
AcDbLine
 10
67.9802
 20
4.2895
 30
0.0
 11
68.5081
 21
60.0248
 31
0.0
  0
LINE
  5
6E
330
1E
100
AcDbEntity
  8
0
100
AcDbLine
 10
67.9802
 20
4.2895
 30
0.0
 11
68.5081
 21
60.0248
 31
0.0
  0
LINE
  5
6F
330
1E
100
AcDbEntity
  8
0
100
AcDbLine
 10
67.693
 20
5.64149999999999
 30
0.0
 11
67.9802
 21
4.2895
 31
0.0
  0
LINE
  5
70
330
1E
100
AcDbEntity
  8
0
100
AcDbLine
 10
67.0044
 20
6.84749999999999
 30
0.0
 11
67.693
 21
5.64149999999999
 31
0.0
  0
LINE
  5
71
330
1E
100
AcDbEntity
  8
0
100
AcDbLine
 10
65.81579999999999
 20
8.05799999999999
 30
0.0
 11
67.0044
 21
6.84749999999999
 31
0.0
  0
LINE
  5
72
330
1E
100
AcDbEntity
  8
0
100
AcDbLine
 10
68.2081000000459
 20
60.02769999999959
 30
0.0
 11
68.5081
 21
60.0248
 31
0.0
  0
LINE
  5
73
330
1E
100
AcDbEntity
  8
0
100
AcDbLine
 10
67.5081
 20
60.0343
 30
0.0
 11
68.20809999989291
 21
60.02770000000101
 31
0.0
  0
LINE
  5
74
330
1E
100
AcDbEntity
  8
0
100
AcDbLine
 10
66.30819999999999
 20
60.0457
 30
0.0
 11
67.5081
 21
60.0343
 31
0.0
  0
LINE
  5
75
330
1E
100
AcDbEntity
  8
0
100
AcDbLine
 10
67.4081
 20
60.0353
 30
0.0
 11
68.8081
 21
60.022
 31
0.0
  0
LINE
  5
76
330
1E
100
AcDbEntity
  8
0
100
AcDbLine
 10
68.8081
 20
60.022
 30
0.0
 11
69.708
 21
60.0135
 31
0.0
  0
LINE
  5
77
330
1E
100
AcDbEntity
  8
0
100
AcDbLine
 10
69.708
 20
60.0135
 30
0.0
 11
70.00799999999999
 21
60.01059999999999
 31
0.0
  0
LINE
  5
78
330
1E
100
AcDbEntity
  8
0
100
AcDbLine
 10
65.5082
 20
60.0533
 30
0.0
 11
67.4081
 21
60.0353
 31
0.0
  0
LINE
  5
79
330
1E
100
AcDbEntity
  8
0
100
AcDbLine
 10
59.10849999999999
 20
60.1139
 30
0.0
 11
61.0084
 21
60.0959
 31
0.0
  0
LINE
  5
7A
330
1E
100
AcDbEntity
  8
0
100
AcDbLine
 10
61.0084
 20
60.0959
 30
0.0
 11
63.3083
 21
60.0741
 31
0.0
  0
LINE
  5
7B
330
1E
100
AcDbEntity
  8
0
100
AcDbLine
 10
63.3082999996661
 20
60.0741000000032
 30
0.0
 11
64.70829999999999
 21
60.0608
 31
0.0
  0
LINE
  5
7C
330
1E
100
AcDbEntity
  8
0
100
AcDbLine
 10
70.00799999999999
 20
60.01059999999999
 30
0.0
 11
72.2731
 21
87.99039999999999
 31
0.0
  0
LINE
  5
7D
330
1E
100
AcDbEntity
  8
0
100
AcDbLine
 10
52.30879999999999
 20
60.1783
 30
0.0
 11
53.20879999999999
 21
60.1697
 31
0.0
  0
LINE
  5
7E
330
1E
100
AcDbEntity
  8
0
100
AcDbLine
 10
54.5087
 20
60.1574
 30
0.0
 11
55.3331337680462
 21
60.1496365820176
 31
0.0
  0
LINE
  5
7F
330
1E
100
AcDbEntity
  8
0
100
AcDbLine
 10
54.209681222872
 20
60.1602624457876
 30
0.0
 11
54.60869999999999
 21
60.1565
 31
0.0
  0
LINE
  5
80
330
1E
100
AcDbEntity
  8
0
100
AcDbLine
 10
54.209681222872
 20
60.1602624457876
 30
0.0
 11
54.5087
 21
60.1574
 31
0.0
  0
LINE
  5
81
330
1E
100
AcDbEntity
  8
0
100
AcDbLine
 10
53.20879999999999
 20
60.1697
 30
0.0
 11
53.5087997274952
 21
60.1668712290857
 31
0.0
  0
LINE
  5
82
330
1E
100
AcDbEntity
  8
0
100
AcDbLine
 10
53.20879999999999
 20
60.1697
 30
0.0
 11
54.60869999999999
 21
60.1565
 31
0.0
  0
LINE
  5
83
330
1E
100
AcDbEntity
  8
0
100
AcDbLine
 10
52.4272
 20
90.1784835315035
 30
0.0
 11
52.4272
 21
91.54613376623379
 31
0.0
  0
LINE
  5
84
330
1E
100
AcDbEntity
  8
0
100
AcDbLine
 10
54.1929
 20
90.1618
 30
0.0
 11
56.2928
 21
90.14190000000001
 31
0.0
  0
LINE
  5
85
330
1E
100
AcDbEntity
  8
0
100
AcDbLine
 10
52.5929
 20
90.17689999999999
 30
0.0
 11
54.1929
 21
90.1618
 31
0.0
  0
LINE
  5
86
330
1E
100
AcDbEntity
  8
0
100
AcDbLine
 10
52.4272
 20
91.54613376623379
 30
0.0
 11
52.4272
 21
90.1784835315035
 31
0.0
  0
LINE
  5
87
330
1E
100
AcDbEntity
  8
0
100
AcDbLine
 10
51.293
 20
90.18919999999999
 30
0.0
 11
51.693
 21
90.18550000000001
 31
0.0
  0
LINE
  5
88
330
1E
100
AcDbEntity
  8
0
100
AcDbLine
 10
51.693
 20
90.18550000000001
 30
0.0
 11
52.4272
 21
90.1784835315035
 31
0.0
  0
LINE
  5
89
330
1E
100
AcDbEntity
  8
0
100
AcDbLine
 10
51.693
 20
90.18550000000001
 30
0.0
 11
52.5929
 21
90.17689999999999
 31
0.0
  0
LINE
  5
8A
330
1E
100
AcDbEntity
  8
0
100
AcDbLine
 10
50.27409999999999
 20
88.19880000000001
 30
0.0
 11
52.0088
 21
60.1811
 31
0.0
  0
LINE
  5
8B
330
1E
100
AcDbEntity
  8
0
100
AcDbLine
 10
50.27409999999999
 20
88.19880000000001
 30
0.0
 11
51.293
 21
90.18919999999999
 31
0.0
  0
LINE
  5
8C
330
1E
100
AcDbEntity
  8
0
100
AcDbLine
 10
52.0088
 20
60.1811
 30
0.0
 11
52.30879999999999
 21
60.1783
 31
0.0
  0
LINE
  5
8D
330
1E
100
AcDbEntity
  8
0
100
AcDbLine
 10
57.30859999999999
 20
60.1309
 30
0.0
 11
59.10849999999999
 21
60.1139
 31
0.0
  0
LINE
  5
8E
330
1E
100
AcDbEntity
  8
0
100
AcDbLine
 10
56.5190130793385
 20
60.1384015445928
 30
0.0
 11
57.30859999999999
 21
60.1309
 31
0.0
  0
LINE
  5
8F
330
1E
100
AcDbEntity
  8
0
100
AcDbLine
 10
56.5086
 20
60.1385
 30
0.0
 11
58.7085
 21
60.1177
 31
0.0
  0
LINE
  5
90
330
1E
100
AcDbEntity
  8
0
100
AcDbLine
 10
68.3922
 20
90.02729999999999
 30
0.0
 11
69.9922
 21
90.0121
 31
0.0
  0
LINE
  5
91
330
1E
100
AcDbEntity
  8
0
100
AcDbLine
 10
70.4272
 20
90.0079912101345
 30
0.0
 11
70.4272
 21
90.90149999999999
 31
0.0
  0
LINE
  5
92
330
1E
100
AcDbEntity
  8
0
100
AcDbLine
 10
69.9922
 20
90.0121
 30
0.0
 11
70.8921
 21
90.0036
 31
0.0
  0
LINE
  5
93
330
1E
100
AcDbEntity
  8
0
100
AcDbLine
 10
66.29229999999999
 20
90.0472
 30
0.0
 11
68.3922
 21
90.02729999999999
 31
0.0
  0
LINE
  5
94
330
1E
100
AcDbEntity
  8
0
100
AcDbLine
 10
63.8924
 20
90.0699
 30
0.0
 11
66.29229999999999
 21
90.0472
 31
0.0
  0
LINE
  5
95
330
1E
100
AcDbEntity
  8
0
100
AcDbLine
 10
56.2928
 20
90.14190000000001
 30
0.0
 11
58.6927
 21
90.11920000000001
 31
0.0
  0
LINE
  5
96
330
1E
100
AcDbEntity
  8
0
100
AcDbLine
 10
58.6927
 20
90.11920000000001
 30
0.0
 11
61.29249999999999
 21
90.09449999999999
 31
0.0
  0
LINE
  5
97
330
1E
100
AcDbEntity
  8
0
100
AcDbLine
 10
61.29249999999999
 20
90.09449999999999
 30
0.0
 11
63.8924
 21
90.0699
 31
0.0
  0
LINE
  5
98
330
1E
100
AcDbEntity
  8
0
100
AcDbLine
 10
54.60869999999999
 20
60.1565
 30
0.0
 11
55.3331337680462
 21
60.1496365820176
 31
0.0
  0
LINE
  5
99
330
1E
100
AcDbEntity
  8
0
100
AcDbLine
 10
54.60869999999999
 20
60.1565
 30
0.0
 11
56.5086
 21
60.1385
 31
0.0
  0
LINE
  5
9A
330
1E
100
AcDbEntity
  8
0
100
AcDbLine
 10
58.7085
 20
60.1177
 30
0.0
 11
61.0084
 21
60.0959
 31
0.0
  0
LINE
  5
9B
330
1E
100
AcDbEntity
  8
0
100
AcDbLine
 10
70.8921
 20
90.0036
 30
0.0
 11
71.2921
 21
89.99979999999998
 31
0.0
  0
LINE
  5
9C
330
1E
100
AcDbEntity
  8
0
100
AcDbLine
 10
71.2921
 20
89.99979999999998
 30
0.0
 11
72.2731
 21
87.99039999999999
 31
0.0
  0
LINE
  5
9D
330
1E
100
AcDbEntity
  8
0
100
AcDbLine
 10
80.0
 20
90.90149999999999
 30
0.0
 11
107.0
 21
90.90149999999999
 31
0.0
  0
LINE
  5
9E
330
1E
100
AcDbEntity
  8
0
100
AcDbLine
 10
74.90000000000001
 20
90.90149999999999
 30
0.0
 11
80.0
 21
90.90149999999999
 31
0.0
  0
LINE
  5
9F
330
1E
100
AcDbEntity
  8
0
100
AcDbLine
 10
70.4272
 20
90.90149999999999
 30
0.0
 11
74.90000000000001
 21
90.90149999999999
 31
0.0
  0
LINE
  5
A0
330
1E
100
AcDbEntity
  8
0
100
AcDbLine
 10
70.4272
 20
90.90149999999999
 30
0.0
 11
70.4272
 21
90.00799121013441
 31
0.0
  0
LINE
  5
A1
330
1E
100
AcDbEntity
  8
0
100
AcDbLine
 10
52.0002
 20
129.0913999999999
 30
0.0
 11
52.30019999999999
 21
129.0913999999999
 31
0.0
  0
LINE
  5
A2
330
1E
100
AcDbEntity
  8
0
100
AcDbLine
 10
52.0002
 20
129.0913999999999
 30
0.0
 11
52.0002
 21
146.1166
 31
0.0
  0
LINE
  5
A3
330
1E
100
AcDbEntity
  8
0
100
AcDbLine
 10
54.0002
 20
124.9014999999999
 30
0.0
 11
54.0002
 21
129.0913999999999
 31
0.0
  0
LINE
  5
A4
330
1E
100
AcDbEntity
  8
0
100
AcDbLine
 10
54.0002
 20
129.0913999999999
 30
0.0
 11
54.0002
 21
124.9014999999999
 31
0.0
  0
LINE
  5
A5
330
1E
100
AcDbEntity
  8
0
100
AcDbLine
 10
61.0002
 20
129.0913999999999
 30
0.0
 11
63.3402
 21
129.0913999999999
 31
0.0
  0
LINE
  5
A6
330
1E
100
AcDbEntity
  8
0
100
AcDbLine
 10
63.3402
 20
129.0913999999999
 30
0.0
 11
65.5002
 21
129.0913999999999
 31
0.0
  0
LINE
  5
A7
330
1E
100
AcDbEntity
  8
0
100
AcDbLine
 10
65.5002
 20
129.0913999999999
 30
0.0
 11
67.3601
 21
129.0913999999999
 31
0.0
  0
LINE
  5
A8
330
1E
100
AcDbEntity
  8
0
100
AcDbLine
 10
68.0002
 20
124.9014999999999
 30
0.0
 11
68.0002
 21
129.0913999999999
 31
0.0
  0
LINE
  5
A9
330
1E
100
AcDbEntity
  8
0
100
AcDbLine
 10
67.3601
 20
129.0913999999999
 30
0.0
 11
68.8001
 21
129.0913999999999
 31
0.0
  0
LINE
  5
AA
330
1E
100
AcDbEntity
  8
0
100
AcDbLine
 10
58.6602
 20
129.0913999999999
 30
0.0
 11
61.0002
 21
129.0913999999999
 31
0.0
  0
LINE
  5
AB
330
1E
100
AcDbEntity
  8
0
100
AcDbLine
 10
56.5002
 20
129.0913999999999
 30
0.0
 11
58.6602
 21
129.0913999999999
 31
0.0
  0
LINE
  5
AC
330
1E
100
AcDbEntity
  8
0
100
AcDbLine
 10
54.6402
 20
129.0913999999999
 30
0.0
 11
56.5002
 21
129.0913999999999
 31
0.0
  0
LINE
  5
AD
330
1E
100
AcDbEntity
  8
0
100
AcDbLine
 10
68.0002
 20
129.0913999999999
 30
0.0
 11
68.8001
 21
129.0913999999999
 31
0.0
  0
LINE
  5
AE
330
1E
100
AcDbEntity
  8
0
100
AcDbLine
 10
68.0002
 20
129.0913999999999
 30
0.0
 11
68.0002
 21
124.9014999999999
 31
0.0
  0
LINE
  5
AF
330
1E
100
AcDbEntity
  8
0
100
AcDbLine
 10
68.8001
 20
129.0913999999999
 30
0.0
 11
69.70010000000001
 21
129.0913999999999
 31
0.0
  0
LINE
  5
B0
330
1E
100
AcDbEntity
  8
0
100
AcDbLine
 10
69.70010000000001
 20
129.0913999999999
 30
0.0
 11
70.00020000000001
 21
129.0913999999999
 31
0.0
  0
LINE
  5
B1
330
1E
100
AcDbEntity
  8
0
100
AcDbLine
 10
70.00020000000001
 20
129.0913999999999
 30
0.0
 11
70.00020000000001
 21
146.1166
 31
0.0
  0
LINE
  5
B2
330
1E
100
AcDbEntity
  8
0
100
AcDbLine
 10
53.2002
 20
129.0913999999999
 30
0.0
 11
54.0002
 21
129.0913999999999
 31
0.0
  0
LINE
  5
B3
330
1E
100
AcDbEntity
  8
0
100
AcDbLine
 10
53.2002
 20
129.0913999999999
 30
0.0
 11
54.6402
 21
129.0913999999999
 31
0.0
  0
LINE
  5
B4
330
1E
100
AcDbEntity
  8
0
100
AcDbLine
 10
61.0002
 20
146.1166
 30
0.0
 11
63.3402
 21
146.1166
 31
0.0
  0
LINE
  5
B5
330
1E
100
AcDbEntity
  8
0
100
AcDbLine
 10
63.3402
 20
146.1166
 30
0.0
 11
65.5002
 21
146.1166
 31
0.0
  0
LINE
  5
B6
330
1E
100
AcDbEntity
  8
0
100
AcDbLine
 10
65.5002
 20
146.1166
 30
0.0
 11
67.3601
 21
146.1166
 31
0.0
  0
LINE
  5
B7
330
1E
100
AcDbEntity
  8
0
100
AcDbLine
 10
67.3601
 20
146.1166
 30
0.0
 11
68.8001
 21
146.1166
 31
0.0
  0
LINE
  5
B8
330
1E
100
AcDbEntity
  8
0
100
AcDbLine
 10
68.8001
 20
146.1166
 30
0.0
 11
69.70010000000001
 21
146.1166
 31
0.0
  0
LINE
  5
B9
330
1E
100
AcDbEntity
  8
0
100
AcDbLine
 10
58.6602
 20
146.1166
 30
0.0
 11
61.0002
 21
146.1166
 31
0.0
  0
LINE
  5
BA
330
1E
100
AcDbEntity
  8
0
100
AcDbLine
 10
56.5002
 20
146.1166
 30
0.0
 11
58.6602
 21
146.1166
 31
0.0
  0
LINE
  5
BB
330
1E
100
AcDbEntity
  8
0
100
AcDbLine
 10
54.6402
 20
146.1166
 30
0.0
 11
56.5002
 21
146.1166
 31
0.0
  0
LINE
  5
BC
330
1E
100
AcDbEntity
  8
0
100
AcDbLine
 10
53.2002
 20
146.1166
 30
0.0
 11
54.6402
 21
146.1166
 31
0.0
  0
LINE
  5
BD
330
1E
100
AcDbEntity
  8
0
100
AcDbLine
 10
52.30019999999999
 20
146.1166
 30
0.0
 11
53.2002
 21
146.1166
 31
0.0
  0
LINE
  5
BE
330
1E
100
AcDbEntity
  8
0
100
AcDbLine
 10
70.00020000000001
 20
146.1166
 30
0.0
 11
70.00020000000001
 21
129.0913999999999
 31
0.0
  0
LINE
  5
BF
330
1E
100
AcDbEntity
  8
0
100
AcDbLine
 10
69.70010000000001
 20
146.1166
 30
0.0
 11
70.00020000000001
 21
146.1166
 31
0.0
  0
LINE
  5
C0
330
1E
100
AcDbEntity
  8
0
100
AcDbLine
 10
68.8001
 20
146.8477
 30
0.0
 11
70.00020000000001
 21
146.1166
 31
0.0
  0
LINE
  5
C1
330
1E
100
AcDbEntity
  8
0
100
AcDbLine
 10
52.30019999999999
 20
129.0913999999999
 30
0.0
 11
53.2002
 21
129.0913999999999
 31
0.0
  0
LINE
  5
C2
330
1E
100
AcDbEntity
  8
0
100
AcDbLine
 10
52.0002
 20
146.1166
 30
0.0
 11
53.2002
 21
146.8477
 31
0.0
  0
LINE
  5
C3
330
1E
100
AcDbEntity
  8
0
100
AcDbLine
 10
52.0002
 20
146.1166
 30
0.0
 11
52.0002
 21
129.0913999999999
 31
0.0
  0
LINE
  5
C4
330
1E
100
AcDbEntity
  8
0
100
AcDbLine
 10
52.0002
 20
146.1166
 30
0.0
 11
52.30019999999999
 21
146.1166
 31
0.0
  0
LINE
  5
C5
330
1E
100
AcDbEntity
  8
0
100
AcDbLine
 10
61.0002
 20
147.0914
 30
0.0
 11
68.8001
 21
146.8477
 31
0.0
  0
LINE
  5
C6
330
1E
100
AcDbEntity
  8
0
100
AcDbLine
 10
53.2002
 20
146.8477
 30
0.0
 11
61.0002
 21
147.0914
 31
0.0
  0
LINE
  5
C7
330
1E
100
AcDbEntity
  8
0
100
AcDbLine
 10
98.0
 20
124.9014999999999
 30
0.0
 11
98.0
 21
152.4783999999999
 31
0.0
  0
LINE
  5
C8
330
1E
100
AcDbEntity
  8
0
100
AcDbLine
 10
44.59999999999999
 20
92.1015
 30
0.0
 11
52.4272
 21
91.49158831168829
 31
0.0
  0
LINE
  5
C9
330
1E
100
AcDbEntity
  8
0
100
AcDbLine
 10
98.32349999999999
 20
153.0937999999999
 30
0.0
 11
98.50000000000001
 21
153.1777268273839
 31
0.0
  0
LINE
  5
CA
330
1E
100
AcDbEntity
  8
0
100
AcDbLine
 10
98.32349999999999
 20
153.0937999999999
 30
0.0
 11
99.1
 21
153.0937999999999
 31
0.0
  0
LINE
  5
CB
330
1E
100
AcDbEntity
  8
0
100
AcDbLine
 10
98.0
 20
152.4783999999999
 30
0.0
 11
98.0
 21
124.9014999999999
 31
0.0
  0
LINE
  5
CC
330
1E
100
AcDbEntity
  8
0
100
AcDbLine
 10
98.0
 20
152.4783999999999
 30
0.0
 11
98.32349999999999
 21
153.0937999999999
 31
0.0
  0
LINE
  5
D3
330
1E
100
AcDbEntity
  8
0
100
AcDbLine
 10
97.5
 20
164.3887
 30
0.0
 11
97.5
 21
154.4014999999999
 31
0.0
  0
LINE
  5
D4
330
1E
100
AcDbEntity
  8
0
100
AcDbLine
 10
98.3
 20
154.4014999999999
 30
0.0
 11
100.5
 21
154.4014999999999
 31
0.0
  0
LINE
  5
D5
330
1E
100
AcDbEntity
  8
0
100
AcDbLine
 10
98.0
 20
153.9015
 30
0.0
 11
98.50000000000001
 21
153.9015
 31
0.0
  0
LINE
  5
D6
330
1E
100
AcDbEntity
  8
0
100
AcDbLine
 10
98.0
 20
153.9015
 30
0.0
 11
98.8
 21
153.9015
 31
0.0
  0
LINE
  5
D7
330
1E
100
AcDbEntity
  8
0
100
AcDbLine
 10
97.5
 20
154.4014999999999
 30
0.0
 11
97.5
 21
164.3887
 31
0.0
  0
LINE
  5
D8
330
1E
100
AcDbEntity
  8
0
100
AcDbLine
 10
97.5
 20
154.4014999999999
 30
0.0
 11
98.0
 21
153.9015
 31
0.0
  0
LINE
  5
D9
330
1E
100
AcDbEntity
  8
0
100
AcDbLine
 10
97.5
 20
154.4014999999999
 30
0.0
 11
98.3
 21
154.4014999999999
 31
0.0
  0
LINE
  5
DA
330
1E
100
AcDbEntity
  8
0
100
AcDbLine
 10
98.50000000000001
 20
153.1777268273839
 30
0.0
 11
98.50000000000001
 21
153.9015
 31
0.0
  0
LINE
  5
DB
330
1E
100
AcDbEntity
  8
0
100
AcDbLine
 10
99.1
 20
153.0937999999999
 30
0.0
 11
101.235
 21
153.0937999999999
 31
0.0
  0
LINE
  5
DC
330
1E
100
AcDbEntity
  8
0
100
AcDbLine
 10
101.235
 20
153.0937999999999
 30
0.0
 11
104.665
 21
153.0937999999999
 31
0.0
  0
LINE
  5
DD
330
1E
100
AcDbEntity
  8
0
100
AcDbLine
 10
100.9
 20
153.9015
 30
0.0
 11
104.4999999999999
 21
153.9015
 31
0.0
  0
LINE
  5
DE
330
1E
100
AcDbEntity
  8
0
100
AcDbLine
 10
98.8
 20
153.9015
 30
0.0
 11
100.9
 21
153.9015
 31
0.0
  0
LINE
  5
DF
330
1E
100
AcDbEntity
  8
0
100
AcDbLine
 10
107.0
 20
124.4015
 30
0.0
 11
110.07
 21
124.4015
 31
0.0
  0
LINE
  5
E0
330
1E
100
AcDbEntity
  8
0
100
AcDbLine
 10
104.665
 20
153.0937999999999
 30
0.0
 11
109.194
 21
153.0937999999999
 31
0.0
  0
LINE
  5
E1
330
1E
100
AcDbEntity
  8
0
100
AcDbLine
 10
107.0
 20
124.9014999999999
 30
0.0
 11
110.0829999999999
 21
124.9014999999999
 31
0.0
  0
LINE
  5
E2
330
1E
100
AcDbEntity
  8
0
100
AcDbLine
 10
107.0
 20
90.90149999999999
 30
0.0
 11
110.482
 21
90.90149999999999
 31
0.0
  0
LINE
  5
E3
330
1E
100
AcDbEntity
  8
0
100
AcDbLine
 10
113.6449999999999
 20
90.90149999999999
 30
0.0
 11
115.886
 21
90.90149999999999
 31
0.0
  0
LINE
  5
E4
330
1E
100
AcDbEntity
  8
0
100
AcDbLine
 10
112.9199999999999
 20
124.4015
 30
0.0
 11
115.23
 21
124.4015
 31
0.0
  0
LINE
  5
E5
330
1E
100
AcDbEntity
  8
0
100
AcDbLine
 10
110.07
 20
124.4015
 30
0.0
 11
112.9199999999999
 21
124.4015
 31
0.0
  0
LINE
  5
E6
330
1E
100
AcDbEntity
  8
0
100
AcDbLine
 10
109.194
 20
153.0937999999999
 30
0.0
 11
114.4349999999999
 21
153.0937999999999
 31
0.0
  0
LINE
  5
E7
330
1E
100
AcDbEntity
  8
0
100
AcDbLine
 10
110.0829999999999
 20
124.9014999999999
 30
0.0
 11
113.3229999999999
 21
124.9014999999999
 31
0.0
  0
LINE
  5
E8
330
1E
100
AcDbEntity
  8
0
100
AcDbLine
 10
113.3229999999999
 20
124.9014999999999
 30
0.0
 11
115.6439999999999
 21
124.9014999999999
 31
0.0
  0
LINE
  5
E9
330
1E
100
AcDbEntity
  8
0
100
AcDbLine
 10
110.482
 20
90.90149999999999
 30
0.0
 11
113.6449999999999
 21
90.90149999999999
 31
0.0
  0
LINE
  5
EA
330
1E
100
AcDbEntity
  8
0
100
AcDbLine
 10
109.0999999999999
 20
153.9015
 30
0.0
 11
114.3
 21
153.9015
 31
0.0
  0
LINE
  5
EB
330
1E
100
AcDbEntity
  8
0
100
AcDbLine
 10
104.4999999999999
 20
153.9015
 30
0.0
 11
109.0999999999999
 21
153.9015
 31
0.0
  0
LINE
  5
EC
330
1E
100
AcDbEntity
  8
0
100
AcDbLine
 10
117.0629999999999
 20
90.90149999999999
 30
0.0
 11
117.5
 21
90.90149999999999
 31
0.0
  0
LINE
  5
ED
330
1E
100
AcDbEntity
  8
0
100
AcDbLine
 10
115.23
 20
124.4015
 30
0.0
 11
116.5599999999999
 21
124.4015
 31
0.0
  0
LINE
  5
EE
330
1E
100
AcDbEntity
  8
0
100
AcDbLine
 10
117.0
 20
92.00149999999998
 30
0.0
 11
117.0
 21
93.6015
 31
0.0
  0
LINE
  5
EF
330
1E
100
AcDbEntity
  8
0
100
AcDbLine
 10
117.0
 20
92.00149999999998
 30
0.0
 11
117.0
 21
91.4015
 31
0.0
  0
LINE
  5
F0
330
1E
100
AcDbEntity
  8
0
100
AcDbLine
 10
117.0
 20
95.38949999999999
 30
0.0
 11
117.0
 21
91.4015
 31
0.0
  0
LINE
  5
F1
330
1E
100
AcDbEntity
  8
0
100
AcDbLine
 10
117.0
 20
95.38949999999999
 30
0.0
 11
117.0
 21
100.8294999999999
 31
0.0
  0
LINE
  5
F2
330
1E
100
AcDbEntity
  8
0
100
AcDbLine
 10
117.0
 20
93.6015
 30
0.0
 11
117.0
 21
96.2015
 31
0.0
  0
LINE
  5
F3
330
1E
100
AcDbEntity
  8
0
100
AcDbLine
 10
117.0
 20
93.6015
 30
0.0
 11
117.0
 21
92.00149999999998
 31
0.0
  0
LINE
  5
F4
330
1E
100
AcDbEntity
  8
0
100
AcDbLine
 10
117.0
 20
96.2015
 30
0.0
 11
117.0
 21
99.5015
 31
0.0
  0
LINE
  5
F5
330
1E
100
AcDbEntity
  8
0
100
AcDbLine
 10
117.0
 20
96.2015
 30
0.0
 11
117.0
 21
93.6015
 31
0.0
  0
LINE
  5
F6
330
1E
100
AcDbEntity
  8
0
100
AcDbLine
 10
117.0
 20
100.8294999999999
 30
0.0
 11
117.0
 21
95.38949999999999
 31
0.0
  0
LINE
  5
F7
330
1E
100
AcDbEntity
  8
0
100
AcDbLine
 10
117.0
 20
99.5015
 30
0.0
 11
117.0
 21
103.7015
 31
0.0
  0
LINE
  5
F8
330
1E
100
AcDbEntity
  8
0
100
AcDbLine
 10
117.0
 20
99.5015
 30
0.0
 11
117.0
 21
96.2015
 31
0.0
  0
LINE
  5
F9
330
1E
100
AcDbEntity
  8
0
100
AcDbLine
 10
117.0
 20
103.7015
 30
0.0
 11
117.0
 21
107.9015
 31
0.0
  0
LINE
  5
FA
330
1E
100
AcDbEntity
  8
0
100
AcDbLine
 10
117.0
 20
103.7015
 30
0.0
 11
117.0
 21
99.5015
 31
0.0
  0
LINE
  5
FB
330
1E
100
AcDbEntity
  8
0
100
AcDbLine
 10
117.0
 20
108.0374999999999
 30
0.0
 11
117.0
 21
116.1974999999999
 31
0.0
  0
LINE
  5
FC
330
1E
100
AcDbEntity
  8
0
100
AcDbLine
 10
117.0
 20
107.9015
 30
0.0
 11
117.0
 21
112.1015
 31
0.0
  0
LINE
  5
FD
330
1E
100
AcDbEntity
  8
0
100
AcDbLine
 10
117.0
 20
107.9015
 30
0.0
 11
117.0
 21
103.7015
 31
0.0
  0
LINE
  5
FE
330
1E
100
AcDbEntity
  8
0
100
AcDbLine
 10
117.0
 20
112.1015
 30
0.0
 11
117.0
 21
116.3015
 31
0.0
  0
LINE
  5
FF
330
1E
100
AcDbEntity
  8
0
100
AcDbLine
 10
117.0
 20
112.1015
 30
0.0
 11
117.0
 21
107.9015
 31
0.0
  0
LINE
  5
100
330
1E
100
AcDbEntity
  8
0
100
AcDbLine
 10
117.0
 20
116.3015
 30
0.0
 11
117.0
 21
119.6015
 31
0.0
  0
LINE
  5
101
330
1E
100
AcDbEntity
  8
0
100
AcDbLine
 10
117.0
 20
116.3015
 30
0.0
 11
117.0
 21
112.1015
 31
0.0
  0
LINE
  5
102
330
1E
100
AcDbEntity
  8
0
100
AcDbLine
 10
117.0
 20
119.6015
 30
0.0
 11
117.0
 21
122.2015
 31
0.0
  0
LINE
  5
103
330
1E
100
AcDbEntity
  8
0
100
AcDbLine
 10
117.0
 20
119.6015
 30
0.0
 11
117.0
 21
116.3015
 31
0.0
  0
LINE
  5
104
330
1E
100
AcDbEntity
  8
0
100
AcDbLine
 10
117.0
 20
116.1974999999999
 30
0.0
 11
117.0
 21
108.0374999999999
 31
0.0
  0
LINE
  5
105
330
1E
100
AcDbEntity
  8
0
100
AcDbLine
 10
117.0
 20
116.1974999999999
 30
0.0
 11
117.0
 21
124.4015
 31
0.0
  0
LINE
  5
106
330
1E
100
AcDbEntity
  8
0
100
AcDbLine
 10
117.0
 20
122.2015
 30
0.0
 11
117.0
 21
123.8015
 31
0.0
  0
LINE
  5
107
330
1E
100
AcDbEntity
  8
0
100
AcDbLine
 10
117.0
 20
122.2015
 30
0.0
 11
117.0
 21
119.6015
 31
0.0
  0
LINE
  5
108
330
1E
100
AcDbEntity
  8
0
100
AcDbLine
 10
116.5599999999999
 20
124.4015
 30
0.0
 11
117.0
 21
124.4015
 31
0.0
  0
LINE
  5
109
330
1E
100
AcDbEntity
  8
0
100
AcDbLine
 10
117.0
 20
123.8015
 30
0.0
 11
117.0
 21
124.4015
 31
0.0
  0
LINE
  5
10A
330
1E
100
AcDbEntity
  8
0
100
AcDbLine
 10
117.0
 20
123.8015
 30
0.0
 11
117.0
 21
122.2015
 31
0.0
  0
LINE
  5
10B
330
1E
100
AcDbEntity
  8
0
100
AcDbLine
 10
117.5
 20
91.5015
 30
0.0
 11
117.5
 21
90.90149999999999
 31
0.0
  0
LINE
  5
10C
330
1E
100
AcDbEntity
  8
0
100
AcDbLine
 10
117.5
 20
91.5015
 30
0.0
 11
117.5
 21
93.20149999999999
 31
0.0
  0
LINE
  5
10D
330
1E
100
AcDbEntity
  8
0
100
AcDbLine
 10
117.5
 20
93.20149999999999
 30
0.0
 11
117.5
 21
91.5015
 31
0.0
  0
LINE
  5
10E
330
1E
100
AcDbEntity
  8
0
100
AcDbLine
 10
117.5
 20
93.20149999999999
 30
0.0
 11
117.5
 21
95.90149999999999
 31
0.0
  0
LINE
  5
10F
330
1E
100
AcDbEntity
  8
0
100
AcDbLine
 10
117.5
 20
95.90149999999999
 30
0.0
 11
117.5
 21
93.20149999999999
 31
0.0
  0
LINE
  5
110
330
1E
100
AcDbEntity
  8
0
100
AcDbLine
 10
117.5
 20
95.90149999999999
 30
0.0
 11
117.5
 21
99.4015
 31
0.0
  0
LINE
  5
111
330
1E
100
AcDbEntity
  8
0
100
AcDbLine
 10
117.5
 20
99.4015
 30
0.0
 11
117.5
 21
95.90149999999999
 31
0.0
  0
LINE
  5
112
330
1E
100
AcDbEntity
  8
0
100
AcDbLine
 10
117.5
 20
99.4015
 30
0.0
 11
117.5
 21
103.5015
 31
0.0
  0
LINE
  5
113
330
1E
100
AcDbEntity
  8
0
100
AcDbLine
 10
117.5
 20
103.5015
 30
0.0
 11
117.5
 21
99.4015
 31
0.0
  0
LINE
  5
114
330
1E
100
AcDbEntity
  8
0
100
AcDbLine
 10
117.5
 20
103.5015
 30
0.0
 11
117.5
 21
107.9015
 31
0.0
  0
LINE
  5
115
330
1E
100
AcDbEntity
  8
0
100
AcDbLine
 10
117.5
 20
107.9015
 30
0.0
 11
117.5
 21
112.3015
 31
0.0
  0
LINE
  5
116
330
1E
100
AcDbEntity
  8
0
100
AcDbLine
 10
117.5
 20
107.9015
 30
0.0
 11
117.5
 21
103.5015
 31
0.0
  0
LINE
  5
117
330
1E
100
AcDbEntity
  8
0
100
AcDbLine
 10
117.5
 20
124.3014999999999
 30
0.0
 11
117.5
 21
122.6015
 31
0.0
  0
LINE
  5
118
330
1E
100
AcDbEntity
  8
0
100
AcDbLine
 10
117.5
 20
124.3014999999999
 30
0.0
 11
117.5
 21
124.9014999999999
 31
0.0
  0
LINE
  5
119
330
1E
100
AcDbEntity
  8
0
100
AcDbLine
 10
117.5
 20
122.6015
 30
0.0
 11
117.5
 21
119.9014999999999
 31
0.0
  0
LINE
  5
11A
330
1E
100
AcDbEntity
  8
0
100
AcDbLine
 10
117.5
 20
122.6015
 30
0.0
 11
117.5
 21
124.3014999999999
 31
0.0
  0
LINE
  5
11B
330
1E
100
AcDbEntity
  8
0
100
AcDbLine
 10
117.5
 20
119.9014999999999
 30
0.0
 11
117.5
 21
116.4015
 31
0.0
  0
LINE
  5
11C
330
1E
100
AcDbEntity
  8
0
100
AcDbLine
 10
117.5
 20
119.9014999999999
 30
0.0
 11
117.5
 21
122.6015
 31
0.0
  0
LINE
  5
11D
330
1E
100
AcDbEntity
  8
0
100
AcDbLine
 10
117.5
 20
116.4015
 30
0.0
 11
117.5
 21
112.3015
 31
0.0
  0
LINE
  5
11E
330
1E
100
AcDbEntity
  8
0
100
AcDbLine
 10
117.5
 20
116.4015
 30
0.0
 11
117.5
 21
119.9014999999999
 31
0.0
  0
LINE
  5
11F
330
1E
100
AcDbEntity
  8
0
100
AcDbLine
 10
117.5
 20
112.3015
 30
0.0
 11
117.5
 21
107.9015
 31
0.0
  0
LINE
  5
120
330
1E
100
AcDbEntity
  8
0
100
AcDbLine
 10
117.5
 20
112.3015
 30
0.0
 11
117.5
 21
116.4015
 31
0.0
  0
LINE
  5
121
330
1E
100
AcDbEntity
  8
0
100
AcDbLine
 10
117.0
 20
91.4015
 30
0.0
 11
117.5
 21
90.90149999999999
 31
0.0
  0
LINE
  5
122
330
1E
100
AcDbEntity
  8
0
100
AcDbLine
 10
117.0
 20
91.4015
 30
0.0
 11
117.0
 21
92.00149999999998
 31
0.0
  0
LINE
  5
123
330
1E
100
AcDbEntity
  8
0
100
AcDbLine
 10
117.0
 20
91.4015
 30
0.0
 11
117.0
 21
95.38949999999999
 31
0.0
  0
LINE
  5
124
330
1E
100
AcDbEntity
  8
0
100
AcDbLine
 10
117.0
 20
124.4015
 30
0.0
 11
117.5
 21
124.9014999999999
 31
0.0
  0
LINE
  5
125
330
1E
100
AcDbEntity
  8
0
100
AcDbLine
 10
117.0
 20
124.4015
 30
0.0
 11
117.0
 21
116.1974999999999
 31
0.0
  0
LINE
  5
126
330
1E
100
AcDbEntity
  8
0
100
AcDbLine
 10
117.0
 20
124.4015
 30
0.0
 11
117.0
 21
123.8015
 31
0.0
  0
LINE
  5
127
330
1E
100
AcDbEntity
  8
0
100
AcDbLine
 10
115.6439999999999
 20
124.9014999999999
 30
0.0
 11
117.091
 21
124.9014999999999
 31
0.0
  0
LINE
  5
128
330
1E
100
AcDbEntity
  8
0
100
AcDbLine
 10
114.4349999999999
 20
153.0937999999999
 30
0.0
 11
120.0
 21
153.0937999999999
 31
0.0
  0
LINE
  5
129
330
1E
100
AcDbEntity
  8
0
100
AcDbLine
 10
117.091
 20
124.9014999999999
 30
0.0
 11
117.5
 21
124.9014999999999
 31
0.0
  0
LINE
  5
12A
330
1E
100
AcDbEntity
  8
0
100
AcDbLine
 10
117.5
 20
124.9014999999999
 30
0.0
 11
144.5
 21
124.9014999999999
 31
0.0
  0
LINE
  5
12B
330
1E
100
AcDbEntity
  8
0
100
AcDbLine
 10
117.5
 20
124.9014999999999
 30
0.0
 11
117.5
 21
124.3014999999999
 31
0.0
  0
LINE
  5
12C
330
1E
100
AcDbEntity
  8
0
100
AcDbLine
 10
115.886
 20
90.90149999999999
 30
0.0
 11
117.0629999999999
 21
90.90149999999999
 31
0.0
  0
LINE
  5
12D
330
1E
100
AcDbEntity
  8
0
100
AcDbLine
 10
120.0
 20
153.0937999999999
 30
0.0
 11
125.5649999999999
 21
153.0937999999999
 31
0.0
  0
LINE
  5
12E
330
1E
100
AcDbEntity
  8
0
100
AcDbLine
 10
117.5
 20
90.90149999999999
 30
0.0
 11
131.0
 21
90.90149999999999
 31
0.0
  0
LINE
  5
12F
330
1E
100
AcDbEntity
  8
0
100
AcDbLine
 10
117.5
 20
90.90149999999999
 30
0.0
 11
117.5
 21
91.5015
 31
0.0
  0
LINE
  5
130
330
1E
100
AcDbEntity
  8
0
100
AcDbLine
 10
114.3
 20
153.9015
 30
0.0
 11
120.0
 21
153.9015
 31
0.0
  0
LINE
  5
131
330
1E
100
AcDbEntity
  8
0
100
AcDbLine
 10
114.2
 20
154.4014999999999
 30
0.0
 11
120.0
 21
154.4014999999999
 31
0.0
  0
LINE
  5
132
330
1E
100
AcDbEntity
  8
0
100
AcDbLine
 10
108.8
 20
154.4014999999999
 30
0.0
 11
114.2
 21
154.4014999999999
 31
0.0
  0
LINE
  5
133
330
1E
100
AcDbEntity
  8
0
100
AcDbLine
 10
104.0999999999999
 20
154.4014999999999
 30
0.0
 11
108.8
 21
154.4014999999999
 31
0.0
  0
LINE
  5
134
330
1E
100
AcDbEntity
  8
0
100
AcDbLine
 10
100.5
 20
154.4014999999999
 30
0.0
 11
104.0999999999999
 21
154.4014999999999
 31
0.0
  0
LINE
  5
135
330
1E
100
AcDbEntity
  8
0
100
AcDbLine
 10
125.5649999999999
 20
153.0937999999999
 30
0.0
 11
130.806
 21
153.0937999999999
 31
0.0
  0
LINE
  5
136
330
1E
100
AcDbEntity
  8
0
100
AcDbLine
 10
120.0
 20
153.9015
 30
0.0
 11
125.7489999999999
 21
155.8239999999999
 31
0.0
  0
LINE
  5
137
330
1E
100
AcDbEntity
  8
0
100
AcDbLine
 10
125.7489999999999
 20
155.8239999999999
 30
0.0
 11
130.9639999999999
 21
157.5348999999999
 31
0.0
  0
LINE
  5
138
330
1E
100
AcDbEntity
  8
0
100
AcDbLine
 10
120.0
 20
154.4014999999999
 30
0.0
 11
125.8279999999999
 21
156.3412999999999
 31
0.0
  0
LINE
  5
139
330
1E
100
AcDbEntity
  8
0
100
AcDbLine
 10
130.806
 20
153.0937999999999
 30
0.0
 11
135.335
 21
153.0937999999999
 31
0.0
  0
LINE
  5
13A
330
1E
100
AcDbEntity
  8
0
100
AcDbLine
 10
135.335
 20
153.0937999999999
 30
0.0
 11
138.7649999999999
 21
153.0937999999999
 31
0.0
  0
LINE
  5
13B
330
1E
100
AcDbEntity
  8
0
100
AcDbLine
 10
138.7649999999999
 20
153.0937999999999
 30
0.0
 11
140.8999999999999
 21
153.0937999999999
 31
0.0
  0
LINE
  5
13C
330
1E
100
AcDbEntity
  8
0
100
AcDbLine
 10
140.8999999999999
 20
153.0937999999999
 30
0.0
 11
141.676
 21
153.0937999999999
 31
0.0
  0
LINE
  5
13D
330
1E
100
AcDbEntity
  8
0
100
AcDbLine
 10
131.0
 20
90.90149999999999
 30
0.0
 11
144.5
 21
90.90149999999999
 31
0.0
  0
LINE
  5
13E
330
1E
100
AcDbEntity
  8
0
100
AcDbLine
 10
130.9639999999999
 20
157.5348999999999
 30
0.0
 11
135.4219999999999
 21
159.007
 31
0.0
  0
LINE
  5
13F
330
1E
100
AcDbEntity
  8
0
100
AcDbLine
 10
125.8279999999999
 20
156.3412999999999
 30
0.0
 11
131.2019999999999
 21
158.1317
 31
0.0
  0
LINE
  5
140
330
1E
100
AcDbEntity
  8
0
100
AcDbLine
 10
135.4219999999999
 20
159.007
 30
0.0
 11
139.005
 21
160.2006
 31
0.0
  0
LINE
  5
141
330
1E
100
AcDbEntity
  8
0
100
AcDbLine
 10
131.2019999999999
 20
158.1317
 30
0.0
 11
135.8199999999999
 21
159.6834
 31
0.0
  0
LINE
  5
142
330
1E
100
AcDbEntity
  8
0
100
AcDbLine
 10
139.005
 20
160.2006
 30
0.0
 11
141.1939999999999
 21
160.9167999999999
 31
0.0
  0
LINE
  5
143
330
1E
100
AcDbEntity
  8
0
100
AcDbLine
 10
135.8199999999999
 20
159.6834
 30
0.0
 11
139.4429999999999
 21
160.9167999999999
 31
0.0
  0
LINE
  5
144
330
1E
100
AcDbEntity
  8
0
100
AcDbLine
 10
141.5
 20
158.1014999999999
 30
0.0
 11
141.5
 21
153.177502009274
 31
0.0
  0
LINE
  5
145
330
1E
100
AcDbEntity
  8
0
100
AcDbLine
 10
98.50000000000001
 20
153.9015
 30
0.0
 11
98.50000000000001
 21
153.1777268273839
 31
0.0
  0
LINE
  5
146
330
1E
100
AcDbEntity
  8
0
100
AcDbLine
 10
56.29999999999999
 20
186.9015
 30
0.0
 11
57.5
 21
186.9015
 31
0.0
  0
LINE
  5
147
330
1E
100
AcDbEntity
  8
0
100
AcDbLine
 10
55.1667
 20
186.9015
 30
0.0
 11
56.29999999999999
 21
186.9015
 31
0.0
  0
LINE
  5
148
330
1E
100
AcDbEntity
  8
0
100
AcDbLine
 10
54.23329999999999
 20
186.9015
 30
0.0
 11
55.1667
 21
186.9015
 31
0.0
  0
LINE
  5
149
330
1E
100
AcDbEntity
  8
0
100
AcDbLine
 10
53.4333
 20
186.9015
 30
0.0
 11
54.23329999999999
 21
186.9015
 31
0.0
  0
LINE
  5
14A
330
1E
100
AcDbEntity
  8
0
100
AcDbLine
 10
53.03329999999999
 20
186.9015
 30
0.0
 11
53.4333
 21
186.9015
 31
0.0
  0
LINE
  5
14B
330
1E
100
AcDbEntity
  8
0
100
AcDbLine
 10
52.8333
 20
186.9015
 30
0.0
 11
53.03329999999999
 21
186.9015
 31
0.0
  0
LINE
  5
161
330
1E
100
AcDbEntity
  8
0
100
AcDbLine
 10
57.5
 20
186.9015
 30
0.0
 11
97.5
 21
186.9015
 31
0.0
  0
LINE
  5
162
330
1E
100
AcDbEntity
  8
0
100
AcDbLine
 10
97.5
 20
186.9015
 30
0.0
 11
97.5
 21
164.3887
 31
0.0
  0
LINE
  5
163
330
1E
100
AcDbEntity
  8
0
100
AcDbLine
 10
141.1939999999999
 20
160.9167999999999
 30
0.0
 11
142.03
 21
161.2350999999999
 31
0.0
  0
LINE
  5
164
330
1E
100
AcDbEntity
  8
0
100
AcDbLine
 10
139.4429999999999
 20
160.9167999999999
 30
0.0
 11
141.712
 21
161.6329
 31
0.0
  0
LINE
  5
165
330
1E
100
AcDbEntity
  8
0
100
AcDbLine
 10
97.5
 20
164.3887
 30
0.0
 11
97.5
 21
186.9015
 31
0.0
  0
LINE
  5
166
330
1E
100
AcDbEntity
  8
0
100
AcDbLine
 10
141.15506922155
 20
160.904062574908
 30
0.0
 11
141.5
 21
158.1014999999999
 31
0.0
  0
LINE
  5
167
330
1E
100
AcDbEntity
  8
0
100
AcDbLine
 10
142.0
 20
152.4783999999999
 30
0.0
 11
142.0
 21
124.9014999999999
 31
0.0
  0
LINE
  5
168
330
1E
100
AcDbEntity
  8
0
100
AcDbLine
 10
141.676
 20
153.0937999999999
 30
0.0
 11
142.0
 21
152.4783999999999
 31
0.0
  0
LINE
  5
169
330
1E
100
AcDbEntity
  8
0
100
AcDbLine
 10
142.0
 20
124.9014999999999
 30
0.0
 11
142.0
 21
152.4783999999999
 31
0.0
  0
LINE
  5
16A
330
1E
100
AcDbEntity
  8
0
100
AcDbLine
 10
142.5
 20
161.9015
 30
0.0
 11
142.5
 21
189.9015
 31
0.0
  0
LINE
  5
16B
330
1E
100
AcDbEntity
  8
0
100
AcDbLine
 10
141.712
 20
161.6329
 30
0.0
 11
142.5
 21
161.9015
 31
0.0
  0
LINE
  5
16C
330
1E
100
AcDbEntity
  8
0
100
AcDbLine
 10
142.03
 20
161.2350999999999
 30
0.0
 11
142.5
 21
161.9015
 31
0.0
  0
LINE
  5
16D
330
1E
100
AcDbEntity
  8
0
100
AcDbLine
 10
141.5
 20
153.177502009274
 30
0.0
 11
141.5
 21
158.1014999999999
 31
0.0
  0
LINE
  5
16E
330
1E
100
AcDbEntity
  8
0
100
AcDbLine
 10
141.5
 20
153.177502009274
 30
0.0
 11
141.676
 21
153.0937999999999
 31
0.0
  0
LINE
  5
175
330
1E
100
AcDbEntity
  8
0
100
AcDbLine
 10
43.3667
 20
191.9014999999999
 30
0.0
 11
44.7667
 21
191.9014999999999
 31
0.0
  0
LINE
  5
176
330
1E
100
AcDbEntity
  8
0
100
AcDbLine
 10
53.7
 20
191.9014999999999
 30
0.0
 11
57.5
 21
191.9014999999999
 31
0.0
  0
LINE
  5
177
330
1E
100
AcDbEntity
  8
0
100
AcDbLine
 10
50.2333
 20
191.9014999999999
 30
0.0
 11
53.7
 21
191.9014999999999
 31
0.0
  0
LINE
  5
178
330
1E
100
AcDbEntity
  8
0
100
AcDbLine
 10
47.16669999999999
 20
191.9014999999999
 30
0.0
 11
50.2333
 21
191.9014999999999
 31
0.0
  0
LINE
  5
179
330
1E
100
AcDbEntity
  8
0
100
AcDbLine
 10
44.7667
 20
191.9014999999999
 30
0.0
 11
47.16669999999999
 21
191.9014999999999
 31
0.0
  0
LINE
  5
17E
330
1E
100
AcDbEntity
  8
0
100
AcDbLine
 10
57.5
 20
191.9014999999999
 30
0.0
 11
120.0
 21
191.9014999999999
 31
0.0
  0
LINE
  5
183
330
1E
100
AcDbEntity
  8
0
100
AcDbLine
 10
120.0
 20
191.9014999999999
 30
0.0
 11
125.7
 21
191.9014999999999
 31
0.0
  0
LINE
  5
184
330
1E
100
AcDbEntity
  8
0
100
AcDbLine
 10
125.7
 20
191.9014999999999
 30
0.0
 11
130.9
 21
191.9014999999999
 31
0.0
  0
LINE
  5
185
330
1E
100
AcDbEntity
  8
0
100
AcDbLine
 10
130.9
 20
191.9014999999999
 30
0.0
 11
135.4999999999999
 21
191.9014999999999
 31
0.0
  0
LINE
  5
186
330
1E
100
AcDbEntity
  8
0
100
AcDbLine
 10
135.4999999999999
 20
191.9014999999999
 30
0.0
 11
139.1
 21
191.9014999999999
 31
0.0
  0
LINE
  5
187
330
1E
100
AcDbEntity
  8
0
100
AcDbLine
 10
139.1
 20
191.9014999999999
 30
0.0
 11
141.1999999999999
 21
191.9014999999999
 31
0.0
  0
LINE
  5
188
330
1E
100
AcDbEntity
  8
0
100
AcDbLine
 10
141.1999999999999
 20
191.9014999999999
 30
0.0
 11
142.0
 21
191.9014999999999
 31
0.0
  0
LINE
  5
18E
330
1E
100
AcDbEntity
  8
0
100
AcDbLine
 10
142.5
 20
189.9015
 30
0.0
 11
142.5
 21
161.9015
 31
0.0
  0
LINE
  5
18F
330
1E
100
AcDbEntity
  8
0
100
AcDbLine
 10
142.5
 20
189.9015
 30
0.0
 11
142.5
 21
191.4015
 31
0.0
  0
LINE
  5
190
330
1E
100
AcDbEntity
  8
0
100
AcDbLine
 10
46.1667
 20
187.4014999999999
 30
0.0
 11
52.8333
 21
186.9015
 31
0.0
  0
LINE
  5
191
330
1E
100
AcDbEntity
  8
0
100
AcDbLine
 10
42.8333
 20
187.9015
 30
0.0
 11
46.1667
 21
187.4014999999999
 31
0.0
  0
LINE
  5
193
330
1E
100
AcDbEntity
  8
0
100
AcDbLine
 10
42.8333
 20
191.9014999999999
 30
0.0
 11
46.1667
 21
192.4014999999999
 31
0.0
  0
LINE
  5
194
330
1E
100
AcDbEntity
  8
0
100
AcDbLine
 10
42.8333
 20
191.9014999999999
 30
0.0
 11
43.3667
 21
191.9014999999999
 31
0.0
  0
LINE
  5
195
330
1E
100
AcDbEntity
  8
0
100
AcDbLine
 10
42.5
 20
189.9015
 30
0.0
 11
42.5
 21
191.4015
 31
0.0
  0
LINE
  5
196
330
1E
100
AcDbEntity
  8
0
100
AcDbLine
 10
42.5
 20
189.9015
 30
0.0
 11
42.5
 21
188.4014999999999
 31
0.0
  0
LINE
  5
1AB
330
1E
100
AcDbEntity
  8
0
100
AcDbLine
 10
120.0
 20
192.9014999999999
 30
0.0
 11
121.7999999999999
 21
192.9014999999999
 31
0.0
  0
LINE
  5
1AC
330
1E
100
AcDbEntity
  8
0
100
AcDbLine
 10
121.7999999999999
 20
192.9014999999999
 30
0.0
 11
123.5
 21
192.9014999999999
 31
0.0
  0
LINE
  5
1AD
330
1E
100
AcDbEntity
  8
0
100
AcDbLine
 10
123.5
 20
192.9014999999999
 30
0.0
 11
124.9
 21
192.9014999999999
 31
0.0
  0
LINE
  5
1AE
330
1E
100
AcDbEntity
  8
0
100
AcDbLine
 10
124.9
 20
192.9014999999999
 30
0.0
 11
126.0999999999999
 21
192.9014999999999
 31
0.0
  0
LINE
  5
1AF
330
1E
100
AcDbEntity
  8
0
100
AcDbLine
 10
126.0999999999999
 20
192.9014999999999
 30
0.0
 11
126.7
 21
192.9014999999999
 31
0.0
  0
LINE
  5
1B0
330
1E
100
AcDbEntity
  8
0
100
AcDbLine
 10
126.7
 20
192.9014999999999
 30
0.0
 11
127.0
 21
192.9014999999999
 31
0.0
  0
LINE
  5
1B1
330
1E
100
AcDbEntity
  8
0
100
AcDbLine
 10
56.29999999999999
 20
192.9014999999999
 30
0.0
 11
57.5
 21
192.9014999999999
 31
0.0
  0
LINE
  5
1B2
330
1E
100
AcDbEntity
  8
0
100
AcDbLine
 10
55.1667
 20
192.9014999999999
 30
0.0
 11
56.29999999999999
 21
192.9014999999999
 31
0.0
  0
LINE
  5
1B3
330
1E
100
AcDbEntity
  8
0
100
AcDbLine
 10
54.23329999999999
 20
192.9014999999999
 30
0.0
 11
55.1667
 21
192.9014999999999
 31
0.0
  0
LINE
  5
1B4
330
1E
100
AcDbEntity
  8
0
100
AcDbLine
 10
53.4333
 20
192.9014999999999
 30
0.0
 11
54.23329999999999
 21
192.9014999999999
 31
0.0
  0
LINE
  5
1B5
330
1E
100
AcDbEntity
  8
0
100
AcDbLine
 10
53.03329999999999
 20
192.9014999999999
 30
0.0
 11
53.4333
 21
192.9014999999999
 31
0.0
  0
LINE
  5
1B6
330
1E
100
AcDbEntity
  8
0
100
AcDbLine
 10
52.8333
 20
192.9014999999999
 30
0.0
 11
53.03329999999999
 21
192.9014999999999
 31
0.0
  0
LINE
  5
1B7
330
1E
100
AcDbEntity
  8
0
100
AcDbLine
 10
57.5
 20
192.9014999999999
 30
0.0
 11
120.0
 21
192.9014999999999
 31
0.0
  0
LINE
  5
1B8
330
1E
100
AcDbEntity
  8
0
100
AcDbLine
 10
46.1667
 20
192.4014999999999
 30
0.0
 11
52.8333
 21
192.9014999999999
 31
0.0
  0
LINE
  5
1B9
330
1E
100
AcDbEntity
  8
0
100
AcDbLine
 10
127.0
 20
192.9014999999999
 30
0.0
 11
137.0
 21
192.4014999999999
 31
0.0
  0
LINE
  5
1BA
330
1E
100
AcDbEntity
  8
0
100
AcDbLine
 10
137.0
 20
192.4014999999999
 30
0.0
 11
142.0
 21
191.9014999999999
 31
0.0
  0
LINE
  5
1BB
330
1E
100
AcDbEntity
  8
0
100
AcDbLine
 10
142.0
 20
191.9014999999999
 30
0.0
 11
142.5
 21
191.4015
 31
0.0
  0
LINE
  5
1BC
330
1E
100
AcDbEntity
  8
0
100
AcDbLine
 10
185.0
 20
90.5015
 30
0.0
 11
185.0
 21
83.20149999999999
 31
0.0
  0
LINE
  5
1BD
330
1E
100
AcDbEntity
  8
0
100
AcDbLine
 10
185.0
 20
90.5015
 30
0.0
 11
185.0
 21
98.9015
 31
0.0
  0
LINE
  5
1BE
330
1E
100
AcDbEntity
  8
0
100
AcDbLine
 10
185.0
 20
83.20149999999999
 30
0.0
 11
185.0
 21
77.6015
 31
0.0
  0
LINE
  5
1BF
330
1E
100
AcDbEntity
  8
0
100
AcDbLine
 10
185.0
 20
83.20149999999999
 30
0.0
 11
185.0
 21
90.5015
 31
0.0
  0
LINE
  5
1C0
330
1E
100
AcDbEntity
  8
0
100
AcDbLine
 10
185.0
 20
77.6015
 30
0.0
 11
185.0
 21
74.20149999999999
 31
0.0
  0
LINE
  5
1C1
330
1E
100
AcDbEntity
  8
0
100
AcDbLine
 10
185.0
 20
77.6015
 30
0.0
 11
185.0
 21
83.20149999999999
 31
0.0
  0
LINE
  5
1C2
330
1E
100
AcDbEntity
  8
0
100
AcDbLine
 10
185.0
 20
74.20149999999999
 30
0.0
 11
185.0
 21
72.9015
 31
0.0
  0
LINE
  5
1C3
330
1E
100
AcDbEntity
  8
0
100
AcDbLine
 10
185.0
 20
74.20149999999999
 30
0.0
 11
185.0
 21
77.6015
 31
0.0
  0
LINE
  5
1C4
330
1E
100
AcDbEntity
  8
0
100
AcDbLine
 10
190.0
 20
90.5015
 30
0.0
 11
190.0
 21
83.20149999999999
 31
0.0
  0
LINE
  5
1C5
330
1E
100
AcDbEntity
  8
0
100
AcDbLine
 10
190.0
 20
83.20149999999999
 30
0.0
 11
190.0
 21
77.6015
 31
0.0
  0
LINE
  5
1C6
330
1E
100
AcDbEntity
  8
0
100
AcDbLine
 10
190.0
 20
77.6015
 30
0.0
 11
190.0
 21
74.20149999999999
 31
0.0
  0
LINE
  5
1C7
330
1E
100
AcDbEntity
  8
0
100
AcDbLine
 10
190.0
 20
74.20149999999999
 30
0.0
 11
190.0
 21
72.9015
 31
0.0
  0
LINE
  5
1C8
330
1E
100
AcDbEntity
  8
0
100
AcDbLine
 10
185.0
 20
72.9015
 30
0.0
 11
190.0
 21
72.9015
 31
0.0
  0
LINE
  5
1C9
330
1E
100
AcDbEntity
  8
0
100
AcDbLine
 10
185.0
 20
72.9015
 30
0.0
 11
185.0
 21
74.20149999999999
 31
0.0
  0
LINE
  5
1CA
330
1E
100
AcDbEntity
  8
0
100
AcDbLine
 10
144.5
 20
91.5015
 30
0.0
 11
144.5
 21
93.20149999999999
 31
0.0
  0
LINE
  5
1CB
330
1E
100
AcDbEntity
  8
0
100
AcDbLine
 10
144.5
 20
91.5015
 30
0.0
 11
144.5
 21
90.90149999999999
 31
0.0
  0
LINE
  5
1CC
330
1E
100
AcDbEntity
  8
0
100
AcDbLine
 10
144.5
 20
93.20149999999999
 30
0.0
 11
144.5
 21
95.90149999999999
 31
0.0
  0
LINE
  5
1CD
330
1E
100
AcDbEntity
  8
0
100
AcDbLine
 10
144.5
 20
93.20149999999999
 30
0.0
 11
144.5
 21
91.5015
 31
0.0
  0
LINE
  5
1CE
330
1E
100
AcDbEntity
  8
0
100
AcDbLine
 10
144.5
 20
95.90149999999999
 30
0.0
 11
144.5
 21
99.4015
 31
0.0
  0
LINE
  5
1CF
330
1E
100
AcDbEntity
  8
0
100
AcDbLine
 10
144.5
 20
95.90149999999999
 30
0.0
 11
144.5
 21
93.20149999999999
 31
0.0
  0
LINE
  5
1D0
330
1E
100
AcDbEntity
  8
0
100
AcDbLine
 10
144.5
 20
99.4015
 30
0.0
 11
144.5
 21
103.5015
 31
0.0
  0
LINE
  5
1D1
330
1E
100
AcDbEntity
  8
0
100
AcDbLine
 10
144.5
 20
99.4015
 30
0.0
 11
144.5
 21
95.90149999999999
 31
0.0
  0
LINE
  5
1D2
330
1E
100
AcDbEntity
  8
0
100
AcDbLine
 10
144.5
 20
103.5015
 30
0.0
 11
144.5
 21
107.9015
 31
0.0
  0
LINE
  5
1D3
330
1E
100
AcDbEntity
  8
0
100
AcDbLine
 10
144.5
 20
103.5015
 30
0.0
 11
144.5
 21
99.4015
 31
0.0
  0
LINE
  5
1D4
330
1E
100
AcDbEntity
  8
0
100
AcDbLine
 10
144.5
 20
124.3014999999999
 30
0.0
 11
144.5
 21
124.9014999999999
 31
0.0
  0
LINE
  5
1D5
330
1E
100
AcDbEntity
  8
0
100
AcDbLine
 10
144.5
 20
124.3014999999999
 30
0.0
 11
144.5
 21
122.6015
 31
0.0
  0
LINE
  5
1D6
330
1E
100
AcDbEntity
  8
0
100
AcDbLine
 10
144.5
 20
122.6015
 30
0.0
 11
144.5
 21
124.3014999999999
 31
0.0
  0
LINE
  5
1D7
330
1E
100
AcDbEntity
  8
0
100
AcDbLine
 10
144.5
 20
122.6015
 30
0.0
 11
144.5
 21
119.9014999999999
 31
0.0
  0
LINE
  5
1D8
330
1E
100
AcDbEntity
  8
0
100
AcDbLine
 10
144.5
 20
119.9014999999999
 30
0.0
 11
144.5
 21
122.6015
 31
0.0
  0
LINE
  5
1D9
330
1E
100
AcDbEntity
  8
0
100
AcDbLine
 10
144.5
 20
119.9014999999999
 30
0.0
 11
144.5
 21
116.4015
 31
0.0
  0
LINE
  5
1DA
330
1E
100
AcDbEntity
  8
0
100
AcDbLine
 10
144.5
 20
116.4015
 30
0.0
 11
144.5
 21
119.9014999999999
 31
0.0
  0
LINE
  5
1DB
330
1E
100
AcDbEntity
  8
0
100
AcDbLine
 10
144.5
 20
116.4015
 30
0.0
 11
144.5
 21
112.3015
 31
0.0
  0
LINE
  5
1DC
330
1E
100
AcDbEntity
  8
0
100
AcDbLine
 10
144.5
 20
112.3015
 30
0.0
 11
144.5
 21
116.4015
 31
0.0
  0
LINE
  5
1DD
330
1E
100
AcDbEntity
  8
0
100
AcDbLine
 10
144.5
 20
112.3015
 30
0.0
 11
144.5
 21
107.9015
 31
0.0
  0
LINE
  5
1DE
330
1E
100
AcDbEntity
  8
0
100
AcDbLine
 10
144.5
 20
107.9015
 30
0.0
 11
144.5
 21
112.3015
 31
0.0
  0
LINE
  5
1DF
330
1E
100
AcDbEntity
  8
0
100
AcDbLine
 10
144.5
 20
107.9015
 30
0.0
 11
144.5
 21
103.5015
 31
0.0
  0
LINE
  5
1E0
330
1E
100
AcDbEntity
  8
0
100
AcDbLine
 10
145.0
 20
91.4015
 30
0.0
 11
145.0
 21
92.00149999999998
 31
0.0
  0
LINE
  5
1E1
330
1E
100
AcDbEntity
  8
0
100
AcDbLine
 10
145.0
 20
92.00149999999998
 30
0.0
 11
145.0
 21
91.4015
 31
0.0
  0
LINE
  5
1E2
330
1E
100
AcDbEntity
  8
0
100
AcDbLine
 10
145.0
 20
92.00149999999998
 30
0.0
 11
145.0
 21
93.6015
 31
0.0
  0
LINE
  5
1E3
330
1E
100
AcDbEntity
  8
0
100
AcDbLine
 10
145.0
 20
96.9015
 30
0.0
 11
147.0
 21
94.90149999999999
 31
0.0
  0
LINE
  5
1E4
330
1E
100
AcDbEntity
  8
0
100
AcDbLine
 10
145.0
 20
93.6015
 30
0.0
 11
145.0
 21
92.00149999999998
 31
0.0
  0
LINE
  5
1E5
330
1E
100
AcDbEntity
  8
0
100
AcDbLine
 10
145.0
 20
93.6015
 30
0.0
 11
145.0
 21
96.2015
 31
0.0
  0
LINE
  5
1E6
330
1E
100
AcDbEntity
  8
0
100
AcDbLine
 10
145.0
 20
96.2015
 30
0.0
 11
145.0
 21
93.6015
 31
0.0
  0
LINE
  5
1E7
330
1E
100
AcDbEntity
  8
0
100
AcDbLine
 10
145.0
 20
96.2015
 30
0.0
 11
145.0
 21
99.5015
 31
0.0
  0
LINE
  5
1E8
330
1E
100
AcDbEntity
  8
0
100
AcDbLine
 10
145.0
 20
99.5015
 30
0.0
 11
145.0
 21
96.2015
 31
0.0
  0
LINE
  5
1E9
330
1E
100
AcDbEntity
  8
0
100
AcDbLine
 10
145.0
 20
99.5015
 30
0.0
 11
145.0
 21
103.7015
 31
0.0
  0
LINE
  5
1EA
330
1E
100
AcDbEntity
  8
0
100
AcDbLine
 10
145.0
 20
103.7015
 30
0.0
 11
145.0
 21
99.5015
 31
0.0
  0
LINE
  5
1EB
330
1E
100
AcDbEntity
  8
0
100
AcDbLine
 10
145.0
 20
103.7015
 30
0.0
 11
145.0
 21
107.9015
 31
0.0
  0
LINE
  5
1EC
330
1E
100
AcDbEntity
  8
0
100
AcDbLine
 10
145.0
 20
107.9015
 30
0.0
 11
145.0
 21
103.7015
 31
0.0
  0
LINE
  5
1ED
330
1E
100
AcDbEntity
  8
0
100
AcDbLine
 10
145.0
 20
107.9015
 30
0.0
 11
145.0
 21
112.1015
 31
0.0
  0
LINE
  5
1EE
330
1E
100
AcDbEntity
  8
0
100
AcDbLine
 10
145.0
 20
112.1015
 30
0.0
 11
145.0
 21
107.9015
 31
0.0
  0
LINE
  5
1EF
330
1E
100
AcDbEntity
  8
0
100
AcDbLine
 10
145.0
 20
112.1015
 30
0.0
 11
145.0
 21
116.3015
 31
0.0
  0
LINE
  5
1F0
330
1E
100
AcDbEntity
  8
0
100
AcDbLine
 10
145.0
 20
118.9014999999999
 30
0.0
 11
147.0
 21
120.9014999999999
 31
0.0
  0
LINE
  5
1F1
330
1E
100
AcDbEntity
  8
0
100
AcDbLine
 10
145.0
 20
116.3015
 30
0.0
 11
145.0
 21
112.1015
 31
0.0
  0
LINE
  5
1F2
330
1E
100
AcDbEntity
  8
0
100
AcDbLine
 10
145.0
 20
116.3015
 30
0.0
 11
145.0
 21
119.6015
 31
0.0
  0
LINE
  5
1F3
330
1E
100
AcDbEntity
  8
0
100
AcDbLine
 10
145.0
 20
119.6015
 30
0.0
 11
145.0
 21
116.3015
 31
0.0
  0
LINE
  5
1F4
330
1E
100
AcDbEntity
  8
0
100
AcDbLine
 10
145.0
 20
119.6015
 30
0.0
 11
145.0
 21
122.2015
 31
0.0
  0
LINE
  5
1F5
330
1E
100
AcDbEntity
  8
0
100
AcDbLine
 10
145.0
 20
122.2015
 30
0.0
 11
145.0
 21
119.6015
 31
0.0
  0
LINE
  5
1F6
330
1E
100
AcDbEntity
  8
0
100
AcDbLine
 10
145.0
 20
122.2015
 30
0.0
 11
145.0
 21
123.8015
 31
0.0
  0
LINE
  5
1F7
330
1E
100
AcDbEntity
  8
0
100
AcDbLine
 10
155.0
 20
93.9015
 30
0.0
 11
157.0
 21
94.90149999999999
 31
0.0
  0
LINE
  5
1F8
330
1E
100
AcDbEntity
  8
0
100
AcDbLine
 10
165.0
 20
93.9015
 30
0.0
 11
185.0
 21
72.9015
 31
0.0
  0
LINE
  5
1F9
330
1E
100
AcDbEntity
  8
0
100
AcDbLine
 10
165.0
 20
93.9015
 30
0.0
 11
165.0
 21
94.4015
 31
0.0
  0
LINE
  5
1FA
330
1E
100
AcDbEntity
  8
0
100
AcDbLine
 10
152.0
 20
93.9015
 30
0.0
 11
155.0
 21
93.9015
 31
0.0
  0
LINE
  5
1FC
330
1E
100
AcDbEntity
  8
0
100
AcDbLine
 10
147.0
 20
94.90149999999999
 30
0.0
 11
149.0
 21
93.9015
 31
0.0
  0
LINE
  5
209
330
1E
100
AcDbEntity
  8
0
100
AcDbLine
 10
157.0
 20
94.90149999999999
 30
0.0
 11
159.0
 21
96.9015
 31
0.0
  0
LINE
  5
20C
330
1E
100
AcDbEntity
  8
0
100
AcDbLine
 10
165.0
 20
96.9015
 30
0.0
 11
165.0
 21
95.80150000000001
 31
0.0
  0
LINE
  5
20D
330
1E
100
AcDbEntity
  8
0
100
AcDbLine
 10
165.0
 20
96.9015
 30
0.0
 11
165.0
 21
97.30150000000001
 31
0.0
  0
LINE
  5
20E
330
1E
100
AcDbEntity
  8
0
100
AcDbLine
 10
165.0
 20
95.80150000000001
 30
0.0
 11
165.0
 21
94.4015
 31
0.0
  0
LINE
  5
20F
330
1E
100
AcDbEntity
  8
0
100
AcDbLine
 10
165.0
 20
95.80150000000001
 30
0.0
 11
165.0
 21
96.9015
 31
0.0
  0
LINE
  5
210
330
1E
100
AcDbEntity
  8
0
100
AcDbLine
 10
165.0
 20
95.80150000000001
 30
0.0
 11
165.0
 21
98.0015
 31
0.0
  0
LINE
  5
211
330
1E
100
AcDbEntity
  8
0
100
AcDbLine
 10
165.0
 20
94.4015
 30
0.0
 11
165.0
 21
93.9015
 31
0.0
  0
LINE
  5
212
330
1E
100
AcDbEntity
  8
0
100
AcDbLine
 10
165.0
 20
94.4015
 30
0.0
 11
165.0
 21
95.80150000000001
 31
0.0
  0
LINE
  5
216
330
1E
100
AcDbEntity
  8
0
100
AcDbLine
 10
159.0
 20
105.1015
 30
0.0
 11
159.0
 21
102.4014999999999
 31
0.0
  0
LINE
  5
217
330
1E
100
AcDbEntity
  8
0
100
AcDbLine
 10
159.0
 20
105.1015
 30
0.0
 11
159.0
 21
107.9015
 31
0.0
  0
LINE
  5
218
330
1E
100
AcDbEntity
  8
0
100
AcDbLine
 10
159.0
 20
102.4014999999999
 30
0.0
 11
159.0
 21
100.1014999999999
 31
0.0
  0
LINE
  5
219
330
1E
100
AcDbEntity
  8
0
100
AcDbLine
 10
159.0
 20
102.4014999999999
 30
0.0
 11
159.0
 21
105.1015
 31
0.0
  0
LINE
  5
21A
330
1E
100
AcDbEntity
  8
0
100
AcDbLine
 10
159.0
 20
100.1014999999999
 30
0.0
 11
159.0
 21
98.40150000000001
 31
0.0
  0
LINE
  5
21B
330
1E
100
AcDbEntity
  8
0
100
AcDbLine
 10
159.0
 20
100.1014999999999
 30
0.0
 11
159.0
 21
102.4014999999999
 31
0.0
  0
LINE
  5
21C
330
1E
100
AcDbEntity
  8
0
100
AcDbLine
 10
159.0
 20
98.40150000000001
 30
0.0
 11
159.0
 21
97.30150000000001
 31
0.0
  0
LINE
  5
21D
330
1E
100
AcDbEntity
  8
0
100
AcDbLine
 10
159.0
 20
98.40150000000001
 30
0.0
 11
159.0
 21
100.1014999999999
 31
0.0
  0
LINE
  5
21E
330
1E
100
AcDbEntity
  8
0
100
AcDbLine
 10
159.0
 20
97.30150000000001
 30
0.0
 11
159.0
 21
96.9015
 31
0.0
  0
LINE
  5
21F
330
1E
100
AcDbEntity
  8
0
100
AcDbLine
 10
159.0
 20
97.30150000000001
 30
0.0
 11
159.0
 21
98.40150000000001
 31
0.0
  0
LINE
  5
220
330
1E
100
AcDbEntity
  8
0
100
AcDbLine
 10
159.0
 20
110.7015
 30
0.0
 11
159.0
 21
113.4014999999999
 31
0.0
  0
LINE
  5
221
330
1E
100
AcDbEntity
  8
0
100
AcDbLine
 10
159.0
 20
107.9015
 30
0.0
 11
159.0
 21
110.7015
 31
0.0
  0
LINE
  5
222
330
1E
100
AcDbEntity
  8
0
100
AcDbLine
 10
159.0
 20
107.9015
 30
0.0
 11
159.0
 21
105.1015
 31
0.0
  0
LINE
  5
225
330
1E
100
AcDbEntity
  8
0
100
AcDbLine
 10
159.0
 20
113.4014999999999
 30
0.0
 11
159.0
 21
110.7015
 31
0.0
  0
LINE
  5
226
330
1E
100
AcDbEntity
  8
0
100
AcDbLine
 10
159.0
 20
113.4014999999999
 30
0.0
 11
159.0
 21
115.7014999999999
 31
0.0
  0
LINE
  5
227
330
1E
100
AcDbEntity
  8
0
100
AcDbLine
 10
159.0
 20
115.7014999999999
 30
0.0
 11
159.0
 21
113.4014999999999
 31
0.0
  0
LINE
  5
228
330
1E
100
AcDbEntity
  8
0
100
AcDbLine
 10
159.0
 20
115.7014999999999
 30
0.0
 11
159.0
 21
117.4015
 31
0.0
  0
LINE
  5
22A
330
1E
100
AcDbEntity
  8
0
100
AcDbLine
 10
159.0
 20
117.4015
 30
0.0
 11
159.0
 21
115.7014999999999
 31
0.0
  0
LINE
  5
22B
330
1E
100
AcDbEntity
  8
0
100
AcDbLine
 10
159.0
 20
117.4015
 30
0.0
 11
159.0
 21
118.5014999999999
 31
0.0
  0
LINE
  5
22C
330
1E
100
AcDbEntity
  8
0
100
AcDbLine
 10
159.0
 20
118.5014999999999
 30
0.0
 11
159.0
 21
117.4015
 31
0.0
  0
LINE
  5
22D
330
1E
100
AcDbEntity
  8
0
100
AcDbLine
 10
159.0
 20
118.5014999999999
 30
0.0
 11
159.0
 21
118.9014999999999
 31
0.0
  0
LINE
  5
22E
330
1E
100
AcDbEntity
  8
0
100
AcDbLine
 10
165.0
 20
98.0015
 30
0.0
 11
165.0
 21
95.80150000000001
 31
0.0
  0
LINE
  5
22F
330
1E
100
AcDbEntity
  8
0
100
AcDbLine
 10
165.0
 20
98.0015
 30
0.0
 11
165.0
 21
100.9014999999999
 31
0.0
  0
LINE
  5
230
330
1E
100
AcDbEntity
  8
0
100
AcDbLine
 10
165.0
 20
104.3015
 30
0.0
 11
165.0
 21
100.9014999999999
 31
0.0
  0
LINE
  5
231
330
1E
100
AcDbEntity
  8
0
100
AcDbLine
 10
165.0
 20
104.3015
 30
0.0
 11
165.0
 21
107.9015
 31
0.0
  0
LINE
  5
232
330
1E
100
AcDbEntity
  8
0
100
AcDbLine
 10
165.0
 20
100.9014999999999
 30
0.0
 11
165.0
 21
98.0015
 31
0.0
  0
LINE
  5
233
330
1E
100
AcDbEntity
  8
0
100
AcDbLine
 10
165.0
 20
100.9014999999999
 30
0.0
 11
165.0
 21
104.3015
 31
0.0
  0
LINE
  5
234
330
1E
100
AcDbEntity
  8
0
100
AcDbLine
 10
165.0
 20
111.5014999999999
 30
0.0
 11
165.0
 21
107.9015
 31
0.0
  0
LINE
  5
235
330
1E
100
AcDbEntity
  8
0
100
AcDbLine
 10
165.0
 20
111.5014999999999
 30
0.0
 11
165.0
 21
114.9015
 31
0.0
  0
LINE
  5
236
330
1E
100
AcDbEntity
  8
0
100
AcDbLine
 10
165.0
 20
114.9015
 30
0.0
 11
165.0
 21
111.5014999999999
 31
0.0
  0
LINE
  5
237
330
1E
100
AcDbEntity
  8
0
100
AcDbLine
 10
165.0
 20
114.9015
 30
0.0
 11
165.0
 21
117.8015
 31
0.0
  0
LINE
  5
238
330
1E
100
AcDbEntity
  8
0
100
AcDbLine
 10
165.0
 20
110.7015
 30
0.0
 11
165.0
 21
107.9015
 31
0.0
  0
LINE
  5
239
330
1E
100
AcDbEntity
  8
0
100
AcDbLine
 10
165.0
 20
110.7015
 30
0.0
 11
165.0
 21
113.4014999999999
 31
0.0
  0
LINE
  5
23A
330
1E
100
AcDbEntity
  8
0
100
AcDbLine
 10
165.0
 20
113.4014999999999
 30
0.0
 11
165.0
 21
110.7015
 31
0.0
  0
LINE
  5
23B
330
1E
100
AcDbEntity
  8
0
100
AcDbLine
 10
165.0
 20
113.4014999999999
 30
0.0
 11
165.0
 21
115.7014999999999
 31
0.0
  0
LINE
  5
23C
330
1E
100
AcDbEntity
  8
0
100
AcDbLine
 10
165.0
 20
117.8015
 30
0.0
 11
165.0
 21
114.9015
 31
0.0
  0
LINE
  5
23D
330
1E
100
AcDbEntity
  8
0
100
AcDbLine
 10
165.0
 20
117.8015
 30
0.0
 11
165.0
 21
120.0015
 31
0.0
  0
LINE
  5
23E
330
1E
100
AcDbEntity
  8
0
100
AcDbLine
 10
165.0
 20
115.7014999999999
 30
0.0
 11
165.0
 21
113.4014999999999
 31
0.0
  0
LINE
  5
23F
330
1E
100
AcDbEntity
  8
0
100
AcDbLine
 10
165.0
 20
115.7014999999999
 30
0.0
 11
165.0
 21
117.4015
 31
0.0
  0
LINE
  5
240
330
1E
100
AcDbEntity
  8
0
100
AcDbLine
 10
165.0
 20
117.4015
 30
0.0
 11
165.0
 21
115.7014999999999
 31
0.0
  0
LINE
  5
241
330
1E
100
AcDbEntity
  8
0
100
AcDbLine
 10
165.0
 20
117.4015
 30
0.0
 11
165.0
 21
118.5014999999999
 31
0.0
  0
LINE
  5
242
330
1E
100
AcDbEntity
  8
0
100
AcDbLine
 10
165.0
 20
118.5014999999999
 30
0.0
 11
165.0
 21
117.4015
 31
0.0
  0
LINE
  5
243
330
1E
100
AcDbEntity
  8
0
100
AcDbLine
 10
165.0
 20
118.5014999999999
 30
0.0
 11
165.0
 21
118.9014999999999
 31
0.0
  0
LINE
  5
244
330
1E
100
AcDbEntity
  8
0
100
AcDbLine
 10
165.0
 20
107.9015
 30
0.0
 11
165.0
 21
105.1015
 31
0.0
  0
LINE
  5
245
330
1E
100
AcDbEntity
  8
0
100
AcDbLine
 10
165.0
 20
107.9015
 30
0.0
 11
165.0
 21
104.3015
 31
0.0
  0
LINE
  5
246
330
1E
100
AcDbEntity
  8
0
100
AcDbLine
 10
165.0
 20
107.9015
 30
0.0
 11
165.0
 21
110.7015
 31
0.0
  0
LINE
  5
247
330
1E
100
AcDbEntity
  8
0
100
AcDbLine
 10
165.0
 20
107.9015
 30
0.0
 11
165.0
 21
111.5014999999999
 31
0.0
  0
LINE
  5
248
330
1E
100
AcDbEntity
  8
0
100
AcDbLine
 10
165.0
 20
105.1015
 30
0.0
 11
165.0
 21
102.4014999999999
 31
0.0
  0
LINE
  5
249
330
1E
100
AcDbEntity
  8
0
100
AcDbLine
 10
165.0
 20
105.1015
 30
0.0
 11
165.0
 21
107.9015
 31
0.0
  0
LINE
  5
24A
330
1E
100
AcDbEntity
  8
0
100
AcDbLine
 10
165.0
 20
102.4014999999999
 30
0.0
 11
165.0
 21
100.1014999999999
 31
0.0
  0
LINE
  5
24B
330
1E
100
AcDbEntity
  8
0
100
AcDbLine
 10
165.0
 20
102.4014999999999
 30
0.0
 11
165.0
 21
105.1015
 31
0.0
  0
LINE
  5
24C
330
1E
100
AcDbEntity
  8
0
100
AcDbLine
 10
165.0
 20
100.1014999999999
 30
0.0
 11
165.0
 21
98.40150000000001
 31
0.0
  0
LINE
  5
24D
330
1E
100
AcDbEntity
  8
0
100
AcDbLine
 10
165.0
 20
100.1014999999999
 30
0.0
 11
165.0
 21
102.4014999999999
 31
0.0
  0
LINE
  5
24E
330
1E
100
AcDbEntity
  8
0
100
AcDbLine
 10
165.0
 20
98.40150000000001
 30
0.0
 11
165.0
 21
97.30150000000001
 31
0.0
  0
LINE
  5
24F
330
1E
100
AcDbEntity
  8
0
100
AcDbLine
 10
165.0
 20
98.40150000000001
 30
0.0
 11
165.0
 21
100.1014999999999
 31
0.0
  0
LINE
  5
250
330
1E
100
AcDbEntity
  8
0
100
AcDbLine
 10
165.0
 20
97.30150000000001
 30
0.0
 11
165.0
 21
96.9015
 31
0.0
  0
LINE
  5
251
330
1E
100
AcDbEntity
  8
0
100
AcDbLine
 10
165.0
 20
97.30150000000001
 30
0.0
 11
165.0
 21
98.40150000000001
 31
0.0
  0
LINE
  5
252
330
1E
100
AcDbEntity
  8
0
100
AcDbLine
 10
159.0
 20
118.9014999999999
 30
0.0
 11
159.0
 21
118.5014999999999
 31
0.0
  0
LINE
  5
253
330
1E
100
AcDbEntity
  8
0
100
AcDbLine
 10
159.0
 20
118.9014999999999
 30
0.0
 11
165.0
 21
118.9014999999999
 31
0.0
  0
LINE
  5
257
330
1E
100
AcDbEntity
  8
0
100
AcDbLine
 10
157.0
 20
120.9014999999999
 30
0.0
 11
159.0
 21
118.9014999999999
 31
0.0
  0
LINE
  5
258
330
1E
100
AcDbEntity
  8
0
100
AcDbLine
 10
165.0
 20
118.9014999999999
 30
0.0
 11
165.0
 21
120.0015
 31
0.0
  0
LINE
  5
259
330
1E
100
AcDbEntity
  8
0
100
AcDbLine
 10
165.0
 20
118.9014999999999
 30
0.0
 11
165.0
 21
118.5014999999999
 31
0.0
  0
LINE
  5
25A
330
1E
100
AcDbEntity
  8
0
100
AcDbLine
 10
165.0
 20
120.0015
 30
0.0
 11
165.0
 21
118.9014999999999
 31
0.0
  0
LINE
  5
25B
330
1E
100
AcDbEntity
  8
0
100
AcDbLine
 10
165.0
 20
120.0015
 30
0.0
 11
165.0
 21
121.4015
 31
0.0
  0
LINE
  5
25C
330
1E
100
AcDbEntity
  8
0
100
AcDbLine
 10
165.0
 20
120.0015
 30
0.0
 11
165.0
 21
117.8015
 31
0.0
  0
LINE
  5
25D
330
1E
100
AcDbEntity
  8
0
100
AcDbLine
 10
152.0
 20
121.9014999999999
 30
0.0
 11
155.0
 21
121.9014999999999
 31
0.0
  0
LINE
  5
25E
330
1E
100
AcDbEntity
  8
0
100
AcDbLine
 10
155.0
 20
121.9014999999999
 30
0.0
 11
157.0
 21
120.9014999999999
 31
0.0
  0
LINE
  5
25F
330
1E
100
AcDbEntity
  8
0
100
AcDbLine
 10
149.0
 20
121.9014999999999
 30
0.0
 11
152.0
 21
121.9014999999999
 31
0.0
  0
LINE
  5
260
330
1E
100
AcDbEntity
  8
0
100
AcDbLine
 10
165.0
 20
121.4015
 30
0.0
 11
165.0
 21
120.0015
 31
0.0
  0
LINE
  5
261
330
1E
100
AcDbEntity
  8
0
100
AcDbLine
 10
165.0
 20
121.4015
 30
0.0
 11
165.0
 21
121.9014999999999
 31
0.0
  0
LINE
  5
262
330
1E
100
AcDbEntity
  8
0
100
AcDbLine
 10
190.0
 20
98.9015
 30
0.0
 11
190.0
 21
90.5015
 31
0.0
  0
LINE
  5
263
330
1E
100
AcDbEntity
  8
0
100
AcDbLine
 10
185.0
 20
116.9014999999999
 30
0.0
 11
185.0
 21
107.9015
 31
0.0
  0
LINE
  5
264
330
1E
100
AcDbEntity
  8
0
100
AcDbLine
 10
185.0
 20
116.9014999999999
 30
0.0
 11
185.0
 21
125.3014999999999
 31
0.0
  0
LINE
  5
265
330
1E
100
AcDbEntity
  8
0
100
AcDbLine
 10
190.0
 20
116.9014999999999
 30
0.0
 11
190.0
 21
107.9015
 31
0.0
  0
LINE
  5
266
330
1E
100
AcDbEntity
  8
0
100
AcDbLine
 10
190.0
 20
107.9015
 30
0.0
 11
190.0
 21
98.9015
 31
0.0
  0
LINE
  5
267
330
1E
100
AcDbEntity
  8
0
100
AcDbLine
 10
185.0
 20
107.9015
 30
0.0
 11
185.0
 21
98.9015
 31
0.0
  0
LINE
  5
268
330
1E
100
AcDbEntity
  8
0
100
AcDbLine
 10
185.0
 20
107.9015
 30
0.0
 11
185.0
 21
116.9014999999999
 31
0.0
  0
LINE
  5
269
330
1E
100
AcDbEntity
  8
0
100
AcDbLine
 10
185.0
 20
98.9015
 30
0.0
 11
185.0
 21
90.5015
 31
0.0
  0
LINE
  5
26A
330
1E
100
AcDbEntity
  8
0
100
AcDbLine
 10
185.0
 20
98.9015
 30
0.0
 11
185.0
 21
107.9015
 31
0.0
  0
LINE
  5
26B
330
1E
100
AcDbEntity
  8
0
100
AcDbLine
 10
165.0
 20
121.9014999999999
 30
0.0
 11
165.0
 21
121.4015
 31
0.0
  0
LINE
  5
26C
330
1E
100
AcDbEntity
  8
0
100
AcDbLine
 10
165.0
 20
121.9014999999999
 30
0.0
 11
185.0
 21
142.9014999999999
 31
0.0
  0
LINE
  5
26D
330
1E
100
AcDbEntity
  8
0
100
AcDbLine
 10
159.0
 20
96.9015
 30
0.0
 11
165.0
 21
96.9015
 31
0.0
  0
LINE
  5
26E
330
1E
100
AcDbEntity
  8
0
100
AcDbLine
 10
159.0
 20
96.9015
 30
0.0
 11
159.0
 21
97.30150000000001
 31
0.0
  0
LINE
  5
26F
330
1E
100
AcDbEntity
  8
0
100
AcDbLine
 10
147.0
 20
120.9014999999999
 30
0.0
 11
149.0
 21
121.9014999999999
 31
0.0
  0
LINE
  5
270
330
1E
100
AcDbEntity
  8
0
100
AcDbLine
 10
149.0
 20
93.9015
 30
0.0
 11
152.0
 21
93.9015
 31
0.0
  0
LINE
  5
271
330
1E
100
AcDbEntity
  8
0
100
AcDbLine
 10
145.0
 20
123.8015
 30
0.0
 11
145.0
 21
122.2015
 31
0.0
  0
LINE
  5
272
330
1E
100
AcDbEntity
  8
0
100
AcDbLine
 10
145.0
 20
123.8015
 30
0.0
 11
145.0
 21
124.4015
 31
0.0
  0
LINE
  5
273
330
1E
100
AcDbEntity
  8
0
100
AcDbLine
 10
185.0
 20
125.3014999999999
 30
0.0
 11
185.0
 21
116.9014999999999
 31
0.0
  0
LINE
  5
274
330
1E
100
AcDbEntity
  8
0
100
AcDbLine
 10
185.0
 20
125.3014999999999
 30
0.0
 11
185.0
 21
132.6014999999999
 31
0.0
  0
LINE
  5
275
330
1E
100
AcDbEntity
  8
0
100
AcDbLine
 10
185.0
 20
132.6014999999999
 30
0.0
 11
185.0
 21
125.3014999999999
 31
0.0
  0
LINE
  5
276
330
1E
100
AcDbEntity
  8
0
100
AcDbLine
 10
185.0
 20
132.6014999999999
 30
0.0
 11
185.0
 21
138.2015
 31
0.0
  0
LINE
  5
277
330
1E
100
AcDbEntity
  8
0
100
AcDbLine
 10
185.0
 20
138.2015
 30
0.0
 11
185.0
 21
132.6014999999999
 31
0.0
  0
LINE
  5
278
330
1E
100
AcDbEntity
  8
0
100
AcDbLine
 10
185.0
 20
138.2015
 30
0.0
 11
185.0
 21
141.6014999999999
 31
0.0
  0
LINE
  5
279
330
1E
100
AcDbEntity
  8
0
100
AcDbLine
 10
185.0
 20
141.6014999999999
 30
0.0
 11
185.0
 21
138.2015
 31
0.0
  0
LINE
  5
27A
330
1E
100
AcDbEntity
  8
0
100
AcDbLine
 10
185.0
 20
141.6014999999999
 30
0.0
 11
185.0
 21
142.9014999999999
 31
0.0
  0
LINE
  5
27B
330
1E
100
AcDbEntity
  8
0
100
AcDbLine
 10
190.0
 20
125.3014999999999
 30
0.0
 11
190.0
 21
116.9014999999999
 31
0.0
  0
LINE
  5
27C
330
1E
100
AcDbEntity
  8
0
100
AcDbLine
 10
190.0
 20
132.6014999999999
 30
0.0
 11
190.0
 21
125.3014999999999
 31
0.0
  0
LINE
  5
27D
330
1E
100
AcDbEntity
  8
0
100
AcDbLine
 10
190.0
 20
138.2015
 30
0.0
 11
190.0
 21
132.6014999999999
 31
0.0
  0
LINE
  5
27E
330
1E
100
AcDbEntity
  8
0
100
AcDbLine
 10
190.0
 20
141.6014999999999
 30
0.0
 11
190.0
 21
138.2015
 31
0.0
  0
LINE
  5
27F
330
1E
100
AcDbEntity
  8
0
100
AcDbLine
 10
190.0
 20
142.9014999999999
 30
0.0
 11
190.0
 21
141.6014999999999
 31
0.0
  0
LINE
  5
280
330
1E
100
AcDbEntity
  8
0
100
AcDbLine
 10
185.0
 20
142.9014999999999
 30
0.0
 11
185.0
 21
141.6014999999999
 31
0.0
  0
LINE
  5
281
330
1E
100
AcDbEntity
  8
0
100
AcDbLine
 10
185.0
 20
142.9014999999999
 30
0.0
 11
190.0
 21
142.9014999999999
 31
0.0
  0
LINE
  5
282
330
1E
100
AcDbEntity
  8
0
100
AcDbLine
 10
145.0
 20
124.4015
 30
0.0
 11
145.0
 21
123.8015
 31
0.0
  0
LINE
  5
283
330
1E
100
AcDbEntity
  8
0
100
AcDbLine
 10
144.5
 20
124.9014999999999
 30
0.0
 11
145.0
 21
124.4015
 31
0.0
  0
LINE
  5
284
330
1E
100
AcDbEntity
  8
0
100
AcDbLine
 10
144.5
 20
124.9014999999999
 30
0.0
 11
144.5
 21
124.3014999999999
 31
0.0
  0
LINE
  5
285
330
1E
100
AcDbEntity
  8
0
100
AcDbLine
 10
144.5
 20
90.90149999999999
 30
0.0
 11
145.0
 21
91.4015
 31
0.0
  0
LINE
  5
286
330
1E
100
AcDbEntity
  8
0
100
AcDbLine
 10
144.5
 20
90.90149999999999
 30
0.0
 11
144.5
 21
91.5015
 31
0.0
  0
LINE
  5
287
330
1E
100
AcDbEntity
  8
0
100
AcDbLine
 10
142.5
 20
191.4015
 30
0.0
 11
142.5
 21
189.9015
 31
0.0
  0
LINE
  5
28C
330
1E
100
AcDbEntity
  8
0
100
AcDbLine
 10
6.080425454506741
 20
110.349189028267
 30
0.0
 11
13.64834798285869
 21
105.1491416634569
 31
0.0
  0
LINE
  5
28D
330
1E
100
AcDbEntity
  8
0
100
AcDbLine
 10
13.64834798285869
 20
105.1491416634569
 30
0.0
 11
26.7175943295626
 21
96.87804000426551
 31
0.0
  0
LINE
  5
28E
330
1E
100
AcDbEntity
  8
0
100
AcDbLine
 10
52.4272
 20
91.49158831168829
 30
0.0
 11
70.4272
 21
90.90149999999999
 31
0.0
  0
LINE
  5
28F
330
1E
100
AcDbEntity
  8
0
100
AcDbLine
 10
157.0
 20
120.9014999999999
 30
0.0
 11
157.0
 21
94.90149999999999
 31
0.0
  0
LINE
  5
290
330
1E
100
AcDbEntity
  8
0
100
AcDbLine
 10
147.0
 20
120.9014999999999
 30
0.0
 11
147.0
 21
94.90149999999999
 31
0.0
  0
ENDSEC
  0
SECTION
  2
OBJECTS
  0
DICTIONARY
  5
C
330
0
100
AcDbDictionary
  3
ACAD_GROUP
350
D
  3
ACAD_LAYOUT
350
19
  3
ACAD_MLINESTYLE
350
16
  3
ACAD_PLOTSETTINGS
350
18
  3
ACAD_PLOTSTYLENAME
350
E
  3
ACDBHEADERROUNDTRIPXREC
350
294
  3
ACDBVARIABLEDICTIONARY
350
291
  0
DICTIONARY
  5
2B6
330
1E
100
AcDbDictionary
280
     1
  3
ACAD_LAYOUTSELFREF
360
2B7
  0
DICTIONARY
  5
2B4
330
1A
100
AcDbDictionary
280
     1
  3
ACAD_LAYOUTSELFREF
360
2B5
  0
DICTIONARY
  5
D
102
{ACAD_REACTORS
330
C
102
}
330
C
100
AcDbDictionary
  0
DICTIONARY
  5
19
102
{ACAD_REACTORS
330
C
102
}
330
C
100
AcDbDictionary
  0
DICTIONARY
  5
16
102
{ACAD_REACTORS
330
C
102
}
330
C
100
AcDbDictionary
  3
STANDARD
350
17
  0
DICTIONARY
  5
18
102
{ACAD_REACTORS
330
C
102
}
330
C
100
AcDbDictionary
  0
ACDBDICTIONARYWDFLT
  5
E
102
{ACAD_REACTORS
330
C
102
}
330
C
100
AcDbDictionary
281
     1
  3
Normal
350
F
100
AcDbDictionaryWithDefault
340
F
  0
DICTIONARY
  5
294
102
{ACAD_REACTORS
330
C
102
}
330
C
100
AcDbDictionary
  3
CEPSNTYPE
350
29E
  3
FINGERPRINTGUID
350
29F
  3
HYPERLINKBASE
350
297
  3
INSUNITS
350
29D
  3
LAYOUTDICT
350
299
  3
LWETCUNION
350
29C
  3
PLOTSETDICT
350
29A
  3
PLOTSTYLNAMDICT
350
29B
  3
PSVPSCALE
350
2A1
  3
PUCSBASE
350
2A4
  3
PUCSORGBACK
350
2AA
  3
PUCSORGBOTTOM
350
2A6
  3
PUCSORGFRONT
350
2A9
  3
PUCSORGLEFT
350
2A7
  3
PUCSORGRIGHT
350
2A8
  3
PUCSORGTOP
350
2A5
  3
PUCSORTHOREF
350
2A2
  3
PUCSORTHOVIEW
350
2A3
  3
STYLESHEET
350
298
  3
TSTACKALIGN
350
295
  3
TSTACKSIZE
350
296
  3
UCSBASE
350
2AD
  3
UCSORGBACK
350
2B3
  3
UCSORGBOTTOM
350
2AF
  3
UCSORGFRONT
350
2B2
  3
UCSORGLEFT
350
2B0
  3
UCSORGRIGHT
350
2B1
  3
UCSORGTOP
350
2AE
  3
UCSORTHOREF
350
2AB
  3
UCSORTHOVIEW
350
2AC
  3
VERSIONGUID
350
2A0
  0
DICTIONARY
  5
291
102
{ACAD_REACTORS
330
C
102
}
330
C
100
AcDbDictionary
  3
DIMASSOC
350
292
  0
XRECORD
  5
2B7
102
{ACAD_REACTORS
330
2B6
102
}
330
2B6
100
AcDbXrecord
340
1E
  0
XRECORD
  5
2B5
102
{ACAD_REACTORS
330
2B4
102
}
330
2B4
100
AcDbXrecord
340
1A
  0
MLINESTYLE
  5
17
102
{ACAD_REACTORS
330
16
102
}
330
16
100
AcDbMlineStyle
  2
STANDARD
 70
     0
  3

 62
   256
 51
90.0
 52
90.0
 71
     2
 49
0.5
 62
   256
  6
BYLAYER
 49
-0.5
 62
   256
  6
BYLAYER
  0
ACDBPLACEHOLDER
  5
F
102
{ACAD_REACTORS
330
E
102
}
330
E
100
AcDbPlaceHolder
280
     0
  0
XRECORD
  5
29E
102
{ACAD_REACTORS
330
294
102
}
330
294
100
AcDbXrecord
 90
        0
  0
XRECORD
  5
29F
102
{ACAD_REACTORS
330
294
102
}
330
294
100
AcDbXrecord
  1
{F94D3D7E-4234-4164-B2A5-AC445E6CC9F5}
  0
XRECORD
  5
297
102
{ACAD_REACTORS
330
294
102
}
330
294
100
AcDbXrecord
  1

  0
XRECORD
  5
29D
102
{ACAD_REACTORS
330
294
102
}
330
294
100
AcDbXrecord
 90
        0
  0
XRECORD
  5
299
102
{ACAD_REACTORS
330
294
102
}
330
294
100
AcDbXrecord
340
19
  0
XRECORD
  5
29C
102
{ACAD_REACTORS
330
294
102
}
330
294
100
AcDbXrecord
 90
    10781
  0
XRECORD
  5
29A
102
{ACAD_REACTORS
330
294
102
}
330
294
100
AcDbXrecord
340
18
  0
XRECORD
  5
29B
102
{ACAD_REACTORS
330
294
102
}
330
294
100
AcDbXrecord
340
E
  0
XRECORD
  5
2A1
102
{ACAD_REACTORS
330
294
102
}
330
294
100
AcDbXrecord
 40
0.0
  0
XRECORD
  5
2A4
102
{ACAD_REACTORS
330
294
102
}
330
294
100
AcDbXrecord
340
0
  0
XRECORD
  5
2AA
102
{ACAD_REACTORS
330
294
102
}
330
294
100
AcDbXrecord
 10
0.0
 20
0.0
 30
0.0
  0
XRECORD
  5
2A6
102
{ACAD_REACTORS
330
294
102
}
330
294
100
AcDbXrecord
 10
0.0
 20
0.0
 30
0.0
  0
XRECORD
  5
2A9
102
{ACAD_REACTORS
330
294
102
}
330
294
100
AcDbXrecord
 10
0.0
 20
0.0
 30
0.0
  0
XRECORD
  5
2A7
102
{ACAD_REACTORS
330
294
102
}
330
294
100
AcDbXrecord
 10
0.0
 20
0.0
 30
0.0
  0
XRECORD
  5
2A8
102
{ACAD_REACTORS
330
294
102
}
330
294
100
AcDbXrecord
 10
0.0
 20
0.0
 30
0.0
  0
XRECORD
  5
2A5
102
{ACAD_REACTORS
330
294
102
}
330
294
100
AcDbXrecord
 10
0.0
 20
0.0
 30
0.0
  0
XRECORD
  5
2A2
102
{ACAD_REACTORS
330
294
102
}
330
294
100
AcDbXrecord
340
0
  0
XRECORD
  5
2A3
102
{ACAD_REACTORS
330
294
102
}
330
294
100
AcDbXrecord
 70
     0
  0
XRECORD
  5
298
102
{ACAD_REACTORS
330
294
102
}
330
294
100
AcDbXrecord
  1

  0
XRECORD
  5
295
102
{ACAD_REACTORS
330
294
102
}
330
294
100
AcDbXrecord
 90
        1
  0
XRECORD
  5
296
102
{ACAD_REACTORS
330
294
102
}
330
294
100
AcDbXrecord
 90
       70
  0
XRECORD
  5
2AD
102
{ACAD_REACTORS
330
294
102
}
330
294
100
AcDbXrecord
340
0
  0
XRECORD
  5
2B3
102
{ACAD_REACTORS
330
294
102
}
330
294
100
AcDbXrecord
 10
0.0
 20
0.0
 30
0.0
  0
XRECORD
  5
2AF
102
{ACAD_REACTORS
330
294
102
}
330
294
100
AcDbXrecord
 10
0.0
 20
0.0
 30
0.0
  0
XRECORD
  5
2B2
102
{ACAD_REACTORS
330
294
102
}
330
294
100
AcDbXrecord
 10
0.0
 20
0.0
 30
0.0
  0
XRECORD
  5
2B0
102
{ACAD_REACTORS
330
294
102
}
330
294
100
AcDbXrecord
 10
0.0
 20
0.0
 30
0.0
  0
XRECORD
  5
2B1
102
{ACAD_REACTORS
330
294
102
}
330
294
100
AcDbXrecord
 10
0.0
 20
0.0
 30
0.0
  0
XRECORD
  5
2AE
102
{ACAD_REACTORS
330
294
102
}
330
294
100
AcDbXrecord
 10
0.0
 20
0.0
 30
0.0
  0
XRECORD
  5
2AB
102
{ACAD_REACTORS
330
294
102
}
330
294
100
AcDbXrecord
340
0
  0
XRECORD
  5
2AC
102
{ACAD_REACTORS
330
294
102
}
330
294
100
AcDbXrecord
 70
     1
  0
XRECORD
  5
2A0
102
{ACAD_REACTORS
330
294
102
}
330
294
100
AcDbXrecord
  1
{312876AB-817F-4CA9-AFCF-B35E59ECEAD8}
  0
DICTIONARYVAR
  5
292
102
{ACAD_REACTORS
330
291
102
}
330
291
100
DictionaryVariables
280
     0
  1
1
  0
ENDSEC
  0
EOF
