  0
SECTION
  2
HEADER
  9
$ACADVER
  1
AC1014
  9
$ACADMAINTVER
 70
     9
  9
$DWGCODEPAGE
  3
ANSI_1252
  9
$INSBASE
 10
0.0
 20
0.0
 30
0.0
  9
$EXTMIN
 10
-0.0000000000000048
 20
0.250000000000002
 30
0.0
  9
$EXTMAX
 10
150.0
 20
189.7499999999999
 30
0.0
  9
$LIMMIN
 10
0.0
 20
0.0
  9
$LIMMAX
 10
12.0
 20
9.0
  9
$ORTHOMODE
 70
     0
  9
$REGENMODE
 70
     1
  9
$FILLMODE
 70
     1
  9
$QTEXTMODE
 70
     0
  9
$MIRRTEXT
 70
     1
  9
$DRAGMODE
 70
     2
  9
$LTSCALE
 40
1.0
  9
$OSMODE
 70
    37
  9
$ATTMODE
 70
     1
  9
$TEXTSIZE
 40
0.2
  9
$TRACEWID
 40
0.05
  9
$TEXTSTYLE
  7
STANDARD
  9
$CLAYER
  8
0
  9
$CELTYPE
  6
CONTINUOUS
  9
$CECOLOR
 62
   256
  9
$CELTSCALE
 40
1.0
  9
$DELOBJ
 70
     1
  9
$DISPSILH
 70
     0
  9
$DIMSCALE
 40
1.0
  9
$DIMASZ
 40
0.18
  9
$DIMEXO
 40
0.0625
  9
$DIMDLI
 40
0.38
  9
$DIMRND
 40
0.0
  9
$DIMDLE
 40
0.0
  9
$DIMEXE
 40
0.18
  9
$DIMTP
 40
0.0
  9
$DIMTM
 40
0.0
  9
$DIMTXT
 40
0.18
  9
$DIMCEN
 40
0.09
  9
$DIMTSZ
 40
0.0
  9
$DIMTOL
 70
     0
  9
$DIMLIM
 70
     0
  9
$DIMTIH
 70
     1
  9
$DIMTOH
 70
     1
  9
$DIMSE1
 70
     0
  9
$DIMSE2
 70
     0
  9
$DIMTAD
 70
     0
  9
$DIMZIN
 70
     0
  9
$DIMBLK
  1

  9
$DIMASO
 70
     1
  9
$DIMSHO
 70
     1
  9
$DIMPOST
  1

  9
$DIMAPOST
  1

  9
$DIMALT
 70
     0
  9
$DIMALTD
 70
     2
  9
$DIMALTF
 40
25.4
  9
$DIMLFAC
 40
1.0
  9
$DIMTOFL
 70
     0
  9
$DIMTVP
 40
0.0
  9
$DIMTIX
 70
     0
  9
$DIMSOXD
 70
     0
  9
$DIMSAH
 70
     0
  9
$DIMBLK1
  1

  9
$DIMBLK2
  1

  9
$DIMSTYLE
  2
STANDARD
  9
$DIMCLRD
 70
     0
  9
$DIMCLRE
 70
     0
  9
$DIMCLRT
 70
     0
  9
$DIMTFAC
 40
1.0
  9
$DIMGAP
 40
0.09
  9
$DIMJUST
 70
     0
  9
$DIMSD1
 70
     0
  9
$DIMSD2
 70
     0
  9
$DIMTOLJ
 70
     1
  9
$DIMTZIN
 70
     0
  9
$DIMALTZ
 70
     0
  9
$DIMALTTZ
 70
     0
  9
$DIMFIT
 70
     3
  9
$DIMUPT
 70
     0
  9
$DIMUNIT
 70
     2
  9
$DIMDEC
 70
     4
  9
$DIMTDEC
 70
     4
  9
$DIMALTU
 70
     2
  9
$DIMALTTD
 70
     2
  9
$DIMTXSTY
  7
STANDARD
  9
$DIMAUNIT
 70
     0
  9
$LUNITS
 70
     2
  9
$LUPREC
 70
     4
  9
$SKETCHINC
 40
0.1
  9
$FILLETRAD
 40
0.0
  9
$AUNITS
 70
     0
  9
$AUPREC
 70
     0
  9
$MENU
  1
.
  9
$ELEVATION
 40
0.0
  9
$PELEVATION
 40
0.0
  9
$THICKNESS
 40
0.0
  9
$LIMCHECK
 70
     0
  9
$BLIPMODE
 70
     0
  9
$CHAMFERA
 40
0.0
  9
$CHAMFERB
 40
0.0
  9
$CHAMFERC
 40
0.0
  9
$CHAMFERD
 40
0.0
  9
$SKPOLY
 70
     0
  9
$TDCREATE
 40
2454700.336912789
  9
$TDUPDATE
 40
2454700.339048749
  9
$TDINDWG
 40
0.0021361458
  9
$TDUSRTIMER
 40
0.0021361458
  9
$USRTIMER
 70
     1
  9
$ANGBASE
 50
0.0
  9
$ANGDIR
 70
     0
  9
$PDMODE
 70
     0
  9
$PDSIZE
 40
0.0
  9
$PLINEWID
 40
0.0
  9
$COORDS
 70
     1
  9
$SPLFRAME
 70
     0
  9
$SPLINETYPE
 70
     6
  9
$SPLINESEGS
 70
     8
  9
$ATTDIA
 70
     0
  9
$ATTREQ
 70
     1
  9
$HANDLING
 70
 22529
  9
$HANDSEED
  5
10C
  9
$SURFTAB1
 70
     6
  9
$SURFTAB2
 70
     6
  9
$SURFTYPE
 70
     6
  9
$SURFU
 70
     6
  9
$SURFV
 70
     6
  9
$UCSNAME
  2

  9
$UCSORG
 10
0.0
 20
0.0
 30
0.0
  9
$UCSXDIR
 10
1.0
 20
0.0
 30
0.0
  9
$UCSYDIR
 10
0.0
 20
1.0
 30
0.0
  9
$PUCSNAME
  2

  9
$PUCSORG
 10
0.0
 20
0.0
 30
0.0
  9
$PUCSXDIR
 10
1.0
 20
0.0
 30
0.0
  9
$PUCSYDIR
 10
0.0
 20
1.0
 30
0.0
  9
$USERI1
 70
     0
  9
$USERI2
 70
     0
  9
$USERI3
 70
     0
  9
$USERI4
 70
     0
  9
$USERI5
 70
     0
  9
$USERR1
 40
0.0
  9
$USERR2
 40
0.0
  9
$USERR3
 40
0.0
  9
$USERR4
 40
0.0
  9
$USERR5
 40
0.0
  9
$WORLDVIEW
 70
     1
  9
$SHADEDGE
 70
     3
  9
$SHADEDIF
 70
    70
  9
$TILEMODE
 70
     1
  9
$MAXACTVP
 70
    64
  9
$PINSBASE
 10
0.0
 20
0.0
 30
0.0
  9
$PLIMCHECK
 70
     0
  9
$PEXTMIN
 10
1.000000000000000E+20
 20
1.000000000000000E+20
 30
1.000000000000000E+20
  9
$PEXTMAX
 10
-1.000000000000000E+20
 20
-1.000000000000000E+20
 30
-1.000000000000000E+20
  9
$PLIMMIN
 10
0.0
 20
0.0
  9
$PLIMMAX
 10
12.0
 20
9.0
  9
$UNITMODE
 70
     0
  9
$VISRETAIN
 70
     1
  9
$PLINEGEN
 70
     0
  9
$PSLTSCALE
 70
     1
  9
$TREEDEPTH
 70
  3020
  9
$PICKSTYLE
 70
     1
  9
$CMLSTYLE
  2
STANDARD
  9
$CMLJUST
 70
     0
  9
$CMLSCALE
 40
1.0
  9
$PROXYGRAPHICS
 70
     1
  9
$MEASUREMENT
 70
     0
  0
ENDSEC
  0
SECTION
  2
CLASSES
  0
CLASS
  1
ACDBDICTIONARYWDFLT
  2
AcDbDictionaryWithDefault
  3
AutoCAD 2000
 90
        0
280
     0
281
     0
  0
CLASS
  1
ACDBPLACEHOLDER
  2
AcDbPlaceHolder
  3
AutoCAD 2000
 90
        0
280
     0
281
     0
  0
CLASS
  1
LAYOUT
  2
AcDbLayout
  3
AutoCAD 2000
 90
        0
280
     0
281
     0
  0
CLASS
  1
DICTIONARYVAR
  2
AcDbDictionaryVar
  3
AutoCAD 2000
 90
        0
280
     0
281
     0
  0
CLASS
  1
LONG_TRANSACTION
  2
AcDbLongTransaction
  3
AutoCAD 2000
 90
        0
280
     0
281
     0
  0
CLASS
  1
LWPOLYLINE
  2
AcDbPolyline
  3
AutoCAD 2000
 90
        0
280
     0
281
     1
  0
CLASS
  1
HATCH
  2
AcDbHatch
  3
AutoCAD 2000
 90
        0
280
     0
281
     1
  0
CLASS
  1
XRECORD
  2
AcDbXrecord
  3
AutoCAD 2000
 90
        0
280
     0
281
     0
  0
ENDSEC
  0
SECTION
  2
TABLES
  0
TABLE
  2
VPORT
  5
8
330
0
100
AcDbSymbolTable
 70
     2
  0
VPORT
  5
E7
330
8
100
AcDbSymbolTableRecord
100
AcDbViewportTableRecord
  2
*ACTIVE
 70
     0
 10
0.0
 20
0.0
 11
1.0
 21
1.0
 12
75.0
 22
95.0
 13
0.0
 23
0.0
 14
1.0
 24
1.0
 15
0.0
 25
0.0
 16
0.0
 26
0.0
 36
1.0
 17
0.0
 27
0.0
 37
0.0
 40
190.9539641943734
 41
2.078104993597951
 42
50.0
 43
0.0
 44
0.0
 50
0.0
 51
0.0
 71
     0
 72
   100
 73
     1
 74
     3
 75
     0
 76
     0
 77
     0
 78
     0
  0
ENDTAB
  0
TABLE
  2
LTYPE
  5
5
330
0
100
AcDbSymbolTable
 70
     1
  0
LTYPE
  5
13
330
5
100
AcDbSymbolTableRecord
100
AcDbLinetypeTableRecord
  2
BYBLOCK
 70
     0
  3

 72
    65
 73
     0
 40
0.0
  0
LTYPE
  5
14
330
5
100
AcDbSymbolTableRecord
100
AcDbLinetypeTableRecord
  2
BYLAYER
 70
     0
  3

 72
    65
 73
     0
 40
0.0
  0
LTYPE
  5
15
330
5
100
AcDbSymbolTableRecord
100
AcDbLinetypeTableRecord
  2
CONTINUOUS
 70
     0
  3
Solid line
 72
    65
 73
     0
 40
0.0
  0
ENDTAB
  0
TABLE
  2
LAYER
  5
2
330
0
100
AcDbSymbolTable
 70
     1
  0
LAYER
  5
10
330
2
100
AcDbSymbolTableRecord
100
AcDbLayerTableRecord
  2
0
 70
     0
 62
     7
  6
CONTINUOUS
  0
ENDTAB
  0
TABLE
  2
STYLE
  5
3
330
0
100
AcDbSymbolTable
 70
     1
  0
STYLE
  5
11
330
3
100
AcDbSymbolTableRecord
100
AcDbTextStyleTableRecord
  2
STANDARD
 70
     0
 40
0.0
 41
1.0
 50
0.0
 71
     0
 42
0.2
  3
txt
  4

  0
ENDTAB
  0
TABLE
  2
VIEW
  5
6
330
0
100
AcDbSymbolTable
 70
     0
  0
ENDTAB
  0
TABLE
  2
UCS
  5
7
330
0
100
AcDbSymbolTable
 70
     0
  0
ENDTAB
  0
TABLE
  2
APPID
  5
9
330
0
100
AcDbSymbolTable
 70
     1
  0
APPID
  5
12
330
9
100
AcDbSymbolTableRecord
100
AcDbRegAppTableRecord
  2
ACAD
 70
     0
  0
ENDTAB
  0
TABLE
  2
DIMSTYLE
  5
A
330
0
100
AcDbSymbolTable
 70
     1
  0
DIMSTYLE
105
CF
330
A
100
AcDbSymbolTableRecord
100
AcDbDimStyleTableRecord
  2
STANDARD
 70
     0
  3

  4

  5

  6

  7

 40
1.0
 41
0.18
 42
0.0625
 43
0.38
 44
0.18
 45
0.0
 46
0.0
 47
0.0
 48
0.0
140
0.18
141
0.09
142
0.0
143
25.4
144
1.0
145
0.0
146
1.0
147
0.09
 71
     0
 72
     0
 73
     1
 74
     1
 75
     0
 76
     0
 77
     0
 78
     0
170
     0
171
     2
172
     0
173
     0
174
     0
175
     0
176
     0
177
     0
178
     0
270
     2
271
     4
272
     4
273
     2
274
     2
340
11
275
     0
280
     0
281
     0
282
     0
283
     1
284
     0
285
     0
286
     0
287
     3
288
     0
  0
ENDTAB
  0
TABLE
  2
BLOCK_RECORD
  5
1
330
0
100
AcDbSymbolTable
 70
     0
  0
BLOCK_RECORD
  5
1E
102
{ACAD_XDICTIONARY
360
10A
102
}
330
1
100
AcDbSymbolTableRecord
100
AcDbBlockTableRecord
  2
*MODEL_SPACE
  0
BLOCK_RECORD
  5
1A
102
{ACAD_XDICTIONARY
360
108
102
}
330
1
100
AcDbSymbolTableRecord
100
AcDbBlockTableRecord
  2
*PAPER_SPACE
  0
ENDTAB
  0
ENDSEC
  0
SECTION
  2
BLOCKS
  0
BLOCK
  5
1F
330
1E
100
AcDbEntity
  8
0
100
AcDbBlockBegin
  2
*MODEL_SPACE
 70
     0
 10
0.0
 20
0.0
 30
0.0
  3
*MODEL_SPACE
  1

  0
ENDBLK
  5
20
330
1E
100
AcDbEntity
  8
0
100
AcDbBlockEnd
  0
BLOCK
  5
1B
330
1A
100
AcDbEntity
 67
     1
  8
0
100
AcDbBlockBegin
  2
*PAPER_SPACE
 70
     0
 10
0.0
 20
0.0
 30
0.0
  3
*PAPER_SPACE
  1

  0
ENDBLK
  5
1C
330
1A
100
AcDbEntity
 67
     1
  8
0
100
AcDbBlockEnd
  0
ENDSEC
  0
SECTION
  2
ENTITIES
  0
LINE
  5
22
330
1E
100
AcDbEntity
  8
0
100
AcDbLine
 10
0.7941179999999949
 20
104.9558999999999
 30
0.0
 11
2.735289999999999
 21
95.4265
 31
0.0
  0
LINE
  5
23
330
1E
100
AcDbEntity
  8
0
100
AcDbLine
 10
2.735289999999999
 20
95.4265
 30
0.0
 11
5.82352999999999
 21
86.0735
 31
0.0
  0
LINE
  5
24
330
1E
100
AcDbEntity
  8
0
100
AcDbLine
 10
15.6176
 20
69.1324
 30
0.0
 11
22.0588
 21
61.8088
 31
0.0
  0
LINE
  5
25
330
1E
100
AcDbEntity
  8
0
100
AcDbLine
 10
29.3824
 20
55.36760000000001
 30
0.0
 11
37.67649999999999
 21
49.80879999999999
 31
0.0
  0
LINE
  5
26
330
1E
100
AcDbEntity
  8
0
100
AcDbLine
 10
10.0588
 20
77.42650000000001
 30
0.0
 11
15.6176
 21
69.1324
 31
0.0
  0
LINE
  5
27
330
1E
100
AcDbEntity
  8
0
100
AcDbLine
 10
5.82352999999999
 20
86.0735
 30
0.0
 11
10.0588
 21
77.42650000000001
 31
0.0
  0
LINE
  5
28
330
1E
100
AcDbEntity
  8
0
100
AcDbLine
 10
0.7941179999999949
 20
124.5441
 30
0.0
 11
2.735289999999999
 21
134.0735
 31
0.0
  0
LINE
  5
29
330
1E
100
AcDbEntity
  8
0
100
AcDbLine
 10
15.6176
 20
160.3679999999999
 30
0.0
 11
22.0588
 21
167.6909999999999
 31
0.0
  0
LINE
  5
2A
330
1E
100
AcDbEntity
  8
0
100
AcDbLine
 10
10.0588
 20
152.0739999999999
 30
0.0
 11
15.6176
 21
160.3679999999999
 31
0.0
  0
LINE
  5
2B
330
1E
100
AcDbEntity
  8
0
100
AcDbLine
 10
5.82352999999999
 20
143.426
 30
0.0
 11
10.0588
 21
152.0739999999999
 31
0.0
  0
LINE
  5
2C
330
1E
100
AcDbEntity
  8
0
100
AcDbLine
 10
-0.0000000000000048
 20
114.7499999999999
 30
0.0
 11
0.7941179999999949
 21
124.5441
 31
0.0
  0
LINE
  5
2D
330
1E
100
AcDbEntity
  8
0
100
AcDbLine
 10
-0.0000000000000048
 20
114.7499999999999
 30
0.0
 11
0.7941179999999949
 21
104.9558999999999
 31
0.0
  0
LINE
  5
2E
330
1E
100
AcDbEntity
  8
0
100
AcDbLine
 10
22.0588
 20
167.6909999999999
 30
0.0
 11
29.3824
 21
174.1319999999999
 31
0.0
  0
LINE
  5
2F
330
1E
100
AcDbEntity
  8
0
100
AcDbLine
 10
46.3235
 20
45.57352999999999
 30
0.0
 11
55.6765
 21
42.48529
 31
0.0
  0
LINE
  5
30
330
1E
100
AcDbEntity
  8
0
100
AcDbLine
 10
37.67649999999999
 20
179.6909999999999
 30
0.0
 11
46.3235
 21
183.9259999999999
 31
0.0
  0
LINE
  5
31
330
1E
100
AcDbEntity
  8
0
100
AcDbLine
 10
67.5333
 20
2.25
 30
0.0
 11
71.13330000000001
 21
0.783299999999999
 31
0.0
  0
LINE
  5
32
330
1E
100
AcDbEntity
  8
0
100
AcDbLine
 10
71.13330000000001
 20
0.783299999999999
 30
0.0
 11
75.0
 21
0.250000000000002
 31
0.0
  0
LINE
  5
33
330
1E
100
AcDbEntity
  8
0
100
AcDbLine
 10
64.40000000000001
 20
4.65
 30
0.0
 11
67.5333
 21
2.25
 31
0.0
  0
LINE
  5
34
330
1E
100
AcDbEntity
  8
0
100
AcDbLine
 10
67.7333
 20
2.5167
 30
0.0
 11
71.2
 21
1.1167
 31
0.0
  0
LINE
  5
35
330
1E
100
AcDbEntity
  8
0
100
AcDbLine
 10
75.0
 20
0.583299999999996
 30
0.0
 11
78.79999999999999
 21
1.1167
 31
0.0
  0
LINE
  5
36
330
1E
100
AcDbEntity
  8
0
100
AcDbLine
 10
82.2667
 20
2.5167
 30
0.0
 11
85.33329999999999
 21
4.916699999999999
 31
0.0
  0
LINE
  5
37
330
1E
100
AcDbEntity
  8
0
100
AcDbLine
 10
78.79999999999999
 20
1.1167
 30
0.0
 11
82.2667
 21
2.5167
 31
0.0
  0
LINE
  5
38
330
1E
100
AcDbEntity
  8
0
100
AcDbLine
 10
78.86669999999999
 20
0.783299999999999
 30
0.0
 11
82.46669999999999
 21
2.25
 31
0.0
  0
LINE
  5
39
330
1E
100
AcDbEntity
  8
0
100
AcDbLine
 10
82.46669999999999
 20
2.25
 30
0.0
 11
85.6
 21
4.65
 31
0.0
  0
LINE
  5
3A
330
1E
100
AcDbEntity
  8
0
100
AcDbLine
 10
82.46669999999999
 20
2.25
 30
0.0
 11
85.6
 21
4.65
 31
0.0
  0
LINE
  5
3B
330
1E
100
AcDbEntity
  8
0
100
AcDbLine
 10
85.6
 20
4.65
 30
0.0
 11
88.0
 21
7.783300000000009
 31
0.0
  0
LINE
  5
3C
330
1E
100
AcDbEntity
  8
0
100
AcDbLine
 10
71.2
 20
1.1167
 30
0.0
 11
75.0
 21
0.583299999999996
 31
0.0
  0
LINE
  5
3D
330
1E
100
AcDbEntity
  8
0
100
AcDbLine
 10
60.3333
 20
15.25
 30
0.0
 11
60.8667
 21
11.45
 31
0.0
  0
LINE
  5
3E
330
1E
100
AcDbEntity
  8
0
100
AcDbLine
 10
60.8667
 20
11.45
 30
0.0
 11
62.2667
 21
7.983300000000009
 31
0.0
  0
LINE
  5
3F
330
1E
100
AcDbEntity
  8
0
100
AcDbLine
 10
60.53329999999999
 20
11.3833
 30
0.0
 11
62.0
 21
7.783300000000009
 31
0.0
  0
LINE
  5
40
330
1E
100
AcDbEntity
  8
0
100
AcDbLine
 10
85.33329999999999
 20
4.916699999999999
 30
0.0
 11
87.73329999999999
 21
7.983300000000009
 31
0.0
  0
LINE
  5
41
330
1E
100
AcDbEntity
  8
0
100
AcDbLine
 10
87.73329999999999
 20
7.983300000000009
 30
0.0
 11
89.1333
 21
11.45
 31
0.0
  0
LINE
  5
42
330
1E
100
AcDbEntity
  8
0
100
AcDbLine
 10
89.1333
 20
11.45
 30
0.0
 11
89.6667
 21
15.25
 31
0.0
  0
LINE
  5
43
330
1E
100
AcDbEntity
  8
0
100
AcDbLine
 10
89.46670000000001
 20
11.3833
 30
0.0
 11
90.0
 21
15.25
 31
0.0
  0
LINE
  5
44
330
1E
100
AcDbEntity
  8
0
100
AcDbLine
 10
88.0
 20
7.783300000000009
 30
0.0
 11
89.46670000000001
 21
11.3833
 31
0.0
  0
LINE
  5
45
330
1E
100
AcDbEntity
  8
0
100
AcDbLine
 10
89.6667
 20
15.25
 30
0.0
 11
97.0
 21
77.75
 31
0.0
  0
LINE
  5
46
330
1E
100
AcDbEntity
  8
0
100
AcDbLine
 10
90.0
 20
15.25
 30
0.0
 11
97.5
 21
77.75
 31
0.0
  0
LINE
  5
47
330
1E
100
AcDbEntity
  8
0
100
AcDbLine
 10
89.6667
 20
15.25
 30
0.0
 11
97.0
 21
77.75
 31
0.0
  0
LINE
  5
48
330
1E
100
AcDbEntity
  8
0
100
AcDbLine
 10
90.0
 20
15.25
 30
0.0
 11
97.5
 21
77.75
 31
0.0
  0
LINE
  5
49
330
1E
100
AcDbEntity
  8
0
100
AcDbLine
 10
62.2667
 20
7.983300000000009
 30
0.0
 11
64.6667
 21
4.916699999999999
 31
0.0
  0
LINE
  5
4A
330
1E
100
AcDbEntity
  8
0
100
AcDbLine
 10
64.6667
 20
4.916699999999999
 30
0.0
 11
67.7333
 21
2.5167
 31
0.0
  0
LINE
  5
4B
330
1E
100
AcDbEntity
  8
0
100
AcDbLine
 10
62.0
 20
7.783300000000009
 30
0.0
 11
64.40000000000001
 21
4.65
 31
0.0
  0
LINE
  5
4C
330
1E
100
AcDbEntity
  8
0
100
AcDbLine
 10
62.0
 20
7.783300000000009
 30
0.0
 11
64.40000000000001
 21
4.65
 31
0.0
  0
LINE
  5
4D
330
1E
100
AcDbEntity
  8
0
100
AcDbLine
 10
64.40000000000001
 20
4.65
 30
0.0
 11
67.5333
 21
2.25
 31
0.0
  0
LINE
  5
4E
330
1E
100
AcDbEntity
  8
0
100
AcDbLine
 10
112.324
 20
49.80879999999999
 30
0.0
 11
120.618
 21
55.36760000000001
 31
0.0
  0
LINE
  5
7F
330
1E
100
AcDbEntity
  8
0
100
AcDbLine
 10
53.0
 20
77.75
 30
0.0
 11
53.79999999999999
 21
83.45
 31
0.0
  0
LINE
  5
80
330
1E
100
AcDbEntity
  8
0
100
AcDbLine
 10
53.0
 20
77.75
 30
0.0
 11
60.3333
 21
15.25
 31
0.0
  0
LINE
  5
81
330
1E
100
AcDbEntity
  8
0
100
AcDbLine
 10
53.0
 20
77.75
 30
0.0
 11
60.3333
 21
15.25
 31
0.0
  0
LINE
  5
82
330
1E
100
AcDbEntity
  8
0
100
AcDbLine
 10
53.3
 20
83.57829999999999
 30
0.0
 11
55.5
 21
88.95239999999999
 31
0.0
  0
LINE
  5
83
330
1E
100
AcDbEntity
  8
0
100
AcDbLine
 10
52.5
 20
77.75
 30
0.0
 11
53.3
 21
83.55
 31
0.0
  0
LINE
  5
84
330
1E
100
AcDbEntity
  8
0
100
AcDbLine
 10
52.5
 20
77.75
 30
0.0
 11
60.0
 21
15.25
 31
0.0
  0
LINE
  5
85
330
1E
100
AcDbEntity
  8
0
100
AcDbLine
 10
52.5
 20
77.75
 30
0.0
 11
60.0
 21
15.25
 31
0.0
  0
LINE
  5
86
330
1E
100
AcDbEntity
  8
0
100
AcDbLine
 10
52.5
 20
77.75
 30
0.0
 11
53.3
 21
83.57829999999999
 31
0.0
  0
LINE
  5
87
330
1E
100
AcDbEntity
  8
0
100
AcDbLine
 10
53.79999999999999
 20
83.45
 30
0.0
 11
55.89999999999999
 21
88.65
 31
0.0
  0
LINE
  5
88
330
1E
100
AcDbEntity
  8
0
100
AcDbLine
 10
55.89999999999999
 20
88.65
 30
0.0
 11
59.5
 21
93.25000000000001
 31
0.0
  0
LINE
  5
89
330
1E
100
AcDbEntity
  8
0
100
AcDbLine
 10
53.3
 20
83.55
 30
0.0
 11
55.5
 21
88.95000000000001
 31
0.0
  0
LINE
  5
8A
330
1E
100
AcDbEntity
  8
0
100
AcDbLine
 10
55.5
 20
88.95239999999999
 30
0.0
 11
55.6051094890511
 21
89.08722627737232
 31
0.0
  0
LINE
  5
8B
330
1E
100
AcDbEntity
  8
0
100
AcDbLine
 10
55.5
 20
88.95000000000001
 30
0.0
 11
59.1
 21
93.65
 31
0.0
  0
LINE
  5
8C
330
1E
100
AcDbEntity
  8
0
100
AcDbLine
 10
59.5
 20
93.25000000000001
 30
0.0
 11
64.1
 21
96.85
 31
0.0
  0
LINE
  5
8D
330
1E
100
AcDbEntity
  8
0
100
AcDbLine
 10
64.1
 20
96.85
 30
0.0
 11
69.29999999999999
 21
98.95000000000001
 31
0.0
  0
LINE
  5
8E
330
1E
100
AcDbEntity
  8
0
100
AcDbLine
 10
59.1
 20
93.65
 30
0.0
 11
63.79999999999999
 21
97.25000000000001
 31
0.0
  0
LINE
  5
8F
330
1E
100
AcDbEntity
  8
0
100
AcDbLine
 10
68.2778581765574
 20
99.0743125904493
 30
0.0
 11
69.2
 21
99.4618
 31
0.0
  0
LINE
  5
90
330
1E
100
AcDbEntity
  8
0
100
AcDbLine
 10
69.2
 20
99.4618
 30
0.0
 11
75.0
 21
100.2499999999999
 31
0.0
  0
LINE
  5
91
330
1E
100
AcDbEntity
  8
0
100
AcDbLine
 10
63.79999999999999
 20
97.25000000000001
 30
0.0
 11
69.2
 21
99.45
 31
0.0
  0
LINE
  5
92
330
1E
100
AcDbEntity
  8
0
100
AcDbLine
 10
94.1
 20
88.65
 30
0.0
 11
96.2
 21
83.45
 31
0.0
  0
LINE
  5
93
330
1E
100
AcDbEntity
  8
0
100
AcDbLine
 10
94.50000000000001
 20
88.95000000000001
 30
0.0
 11
96.70000000000001
 21
83.55
 31
0.0
  0
LINE
  5
94
330
1E
100
AcDbEntity
  8
0
100
AcDbLine
 10
85.90000000000001
 20
96.85
 30
0.0
 11
90.5
 21
93.25000000000001
 31
0.0
  0
LINE
  5
95
330
1E
100
AcDbEntity
  8
0
100
AcDbLine
 10
80.7
 20
98.95000000000001
 30
0.0
 11
85.90000000000001
 21
96.85
 31
0.0
  0
LINE
  5
96
330
1E
100
AcDbEntity
  8
0
100
AcDbLine
 10
90.5
 20
93.25000000000001
 30
0.0
 11
94.1
 21
88.65
 31
0.0
  0
LINE
  5
97
330
1E
100
AcDbEntity
  8
0
100
AcDbLine
 10
90.90000000000001
 20
93.65
 30
0.0
 11
94.50000000000001
 21
88.95000000000001
 31
0.0
  0
LINE
  5
98
330
1E
100
AcDbEntity
  8
0
100
AcDbLine
 10
86.2
 20
97.25000000000001
 30
0.0
 11
90.90000000000001
 21
93.65
 31
0.0
  0
LINE
  5
99
330
1E
100
AcDbEntity
  8
0
100
AcDbLine
 10
94.39489051094891
 20
89.08722627737232
 30
0.0
 11
94.50000000000001
 21
88.95239999999999
 31
0.0
  0
LINE
  5
9A
330
1E
100
AcDbEntity
  8
0
100
AcDbLine
 10
96.2
 20
83.45
 30
0.0
 11
97.0
 21
77.75
 31
0.0
  0
LINE
  5
9B
330
1E
100
AcDbEntity
  8
0
100
AcDbLine
 10
96.70000000000001
 20
83.55
 30
0.0
 11
97.5
 21
77.75
 31
0.0
  0
LINE
  5
9C
330
1E
100
AcDbEntity
  8
0
100
AcDbLine
 10
96.70000000000001
 20
83.57829999999999
 30
0.0
 11
97.5
 21
77.75
 31
0.0
  0
LINE
  5
9D
330
1E
100
AcDbEntity
  8
0
100
AcDbLine
 10
94.50000000000001
 20
88.95239999999999
 30
0.0
 11
96.70000000000001
 21
83.57829999999999
 31
0.0
  0
LINE
  5
9E
330
1E
100
AcDbEntity
  8
0
100
AcDbLine
 10
75.0
 20
99.75000000000001
 30
0.0
 11
80.7
 21
98.95000000000001
 31
0.0
  0
LINE
  5
9F
330
1E
100
AcDbEntity
  8
0
100
AcDbLine
 10
80.8
 20
99.45
 30
0.0
 11
86.2
 21
97.25000000000001
 31
0.0
  0
LINE
  5
A0
330
1E
100
AcDbEntity
  8
0
100
AcDbLine
 10
75.0
 20
100.2499999999999
 30
0.0
 11
80.8
 21
99.4618
 31
0.0
  0
LINE
  5
A1
330
1E
100
AcDbEntity
  8
0
100
AcDbLine
 10
75.0
 20
100.2499999999999
 30
0.0
 11
80.8
 21
99.45
 31
0.0
  0
LINE
  5
A2
330
1E
100
AcDbEntity
  8
0
100
AcDbLine
 10
80.8
 20
99.4618
 30
0.0
 11
81.7221418234426
 21
99.0743125904493
 31
0.0
  0
LINE
  5
A3
330
1E
100
AcDbEntity
  8
0
100
AcDbLine
 10
69.29999999999999
 20
98.95000000000001
 30
0.0
 11
75.0
 21
99.75000000000001
 31
0.0
  0
LINE
  5
A4
330
1E
100
AcDbEntity
  8
0
100
AcDbLine
 10
69.2
 20
99.45
 30
0.0
 11
75.0
 21
100.2499999999999
 31
0.0
  0
LINE
  5
A5
330
1E
100
AcDbEntity
  8
0
100
AcDbLine
 10
139.941
 20
77.42650000000001
 30
0.0
 11
144.176
 21
86.0735
 31
0.0
  0
LINE
  5
A6
330
1E
100
AcDbEntity
  8
0
100
AcDbLine
 10
149.206
 20
104.9558999999999
 30
0.0
 11
150.0
 21
114.7499999999999
 31
0.0
  0
LINE
  5
A7
330
1E
100
AcDbEntity
  8
0
100
AcDbLine
 10
147.2649999999999
 20
95.4265
 30
0.0
 11
149.206
 21
104.9558999999999
 31
0.0
  0
LINE
  5
A8
330
1E
100
AcDbEntity
  8
0
100
AcDbLine
 10
134.382
 20
69.1324
 30
0.0
 11
139.941
 21
77.42650000000001
 31
0.0
  0
LINE
  5
A9
330
1E
100
AcDbEntity
  8
0
100
AcDbLine
 10
149.206
 20
124.5441
 30
0.0
 11
150.0
 21
114.7499999999999
 31
0.0
  0
LINE
  5
AA
330
1E
100
AcDbEntity
  8
0
100
AcDbLine
 10
62.9867
 20
139.737
 30
0.0
 11
66.5
 21
137.0169999999999
 31
0.0
  0
LINE
  5
AB
330
1E
100
AcDbEntity
  8
0
100
AcDbLine
 10
58.5667
 20
156.1699999999999
 30
0.0
 11
60.2667
 21
160.25
 31
0.0
  0
LINE
  5
AC
330
1E
100
AcDbEntity
  8
0
100
AcDbLine
 10
58.0
 20
151.75
 30
0.0
 11
58.5667
 21
147.33
 31
0.0
  0
LINE
  5
AD
330
1E
100
AcDbEntity
  8
0
100
AcDbLine
 10
58.0
 20
151.75
 30
0.0
 11
58.5667
 21
156.1699999999999
 31
0.0
  0
LINE
  5
AE
330
1E
100
AcDbEntity
  8
0
100
AcDbLine
 10
60.2667
 20
160.25
 30
0.0
 11
62.9867
 21
163.763
 31
0.0
  0
LINE
  5
AF
330
1E
100
AcDbEntity
  8
0
100
AcDbLine
 10
58.5667
 20
147.33
 30
0.0
 11
60.2667
 21
143.25
 31
0.0
  0
LINE
  5
B0
330
1E
100
AcDbEntity
  8
0
100
AcDbLine
 10
60.2667
 20
143.25
 30
0.0
 11
62.9867
 21
139.737
 31
0.0
  0
LINE
  5
B1
330
1E
100
AcDbEntity
  8
0
100
AcDbLine
 10
60.2667
 20
143.25
 30
0.0
 11
62.9867
 21
139.737
 31
0.0
  0
LINE
  5
B2
330
1E
100
AcDbEntity
  8
0
100
AcDbLine
 10
62.9867
 20
139.737
 30
0.0
 11
66.5
 21
137.0169999999999
 31
0.0
  0
LINE
  5
B3
330
1E
100
AcDbEntity
  8
0
100
AcDbLine
 10
66.5
 20
137.0169999999999
 30
0.0
 11
70.57999999999999
 21
135.317
 31
0.0
  0
LINE
  5
B4
330
1E
100
AcDbEntity
  8
0
100
AcDbLine
 10
87.0133
 20
139.737
 30
0.0
 11
89.7333
 21
143.25
 31
0.0
  0
LINE
  5
B5
330
1E
100
AcDbEntity
  8
0
100
AcDbLine
 10
91.43299999999999
 20
156.1699999999999
 30
0.0
 11
92.0
 21
151.75
 31
0.0
  0
LINE
  5
B6
330
1E
100
AcDbEntity
  8
0
100
AcDbLine
 10
89.7333
 20
160.25
 30
0.0
 11
91.43299999999999
 21
156.1699999999999
 31
0.0
  0
LINE
  5
B7
330
1E
100
AcDbEntity
  8
0
100
AcDbLine
 10
91.43299999999999
 20
147.33
 30
0.0
 11
92.0
 21
151.75
 31
0.0
  0
LINE
  5
B8
330
1E
100
AcDbEntity
  8
0
100
AcDbLine
 10
89.7333
 20
143.25
 30
0.0
 11
91.43299999999999
 21
147.33
 31
0.0
  0
LINE
  5
B9
330
1E
100
AcDbEntity
  8
0
100
AcDbLine
 10
87.0133
 20
139.737
 30
0.0
 11
89.7333
 21
143.25
 31
0.0
  0
LINE
  5
BA
330
1E
100
AcDbEntity
  8
0
100
AcDbLine
 10
83.49999999999999
 20
137.0169999999999
 30
0.0
 11
87.0133
 21
139.737
 31
0.0
  0
LINE
  5
BB
330
1E
100
AcDbEntity
  8
0
100
AcDbLine
 10
83.49999999999999
 20
137.0169999999999
 30
0.0
 11
87.0133
 21
139.737
 31
0.0
  0
LINE
  5
BC
330
1E
100
AcDbEntity
  8
0
100
AcDbLine
 10
79.42
 20
135.317
 30
0.0
 11
83.49999999999999
 21
137.0169999999999
 31
0.0
  0
LINE
  5
BD
330
1E
100
AcDbEntity
  8
0
100
AcDbLine
 10
75.0
 20
134.7499999999999
 30
0.0
 11
79.42
 21
135.317
 31
0.0
  0
LINE
  5
BE
330
1E
100
AcDbEntity
  8
0
100
AcDbLine
 10
70.57999999999999
 20
135.317
 30
0.0
 11
75.0
 21
134.7499999999999
 31
0.0
  0
LINE
  5
BF
330
1E
100
AcDbEntity
  8
0
100
AcDbLine
 10
62.9867
 20
163.763
 30
0.0
 11
66.5
 21
166.483
 31
0.0
  0
LINE
  5
C0
330
1E
100
AcDbEntity
  8
0
100
AcDbLine
 10
66.5
 20
166.483
 30
0.0
 11
70.57999999999999
 21
168.1829999999999
 31
0.0
  0
LINE
  5
C1
330
1E
100
AcDbEntity
  8
0
100
AcDbLine
 10
87.0133
 20
163.763
 30
0.0
 11
89.7333
 21
160.25
 31
0.0
  0
LINE
  5
C2
330
1E
100
AcDbEntity
  8
0
100
AcDbLine
 10
83.49999999999999
 20
166.483
 30
0.0
 11
87.0133
 21
163.763
 31
0.0
  0
LINE
  5
C3
330
1E
100
AcDbEntity
  8
0
100
AcDbLine
 10
79.42
 20
168.1829999999999
 30
0.0
 11
83.49999999999999
 21
166.483
 31
0.0
  0
LINE
  5
C4
330
1E
100
AcDbEntity
  8
0
100
AcDbLine
 10
75.0
 20
168.75
 30
0.0
 11
79.42
 21
168.1829999999999
 31
0.0
  0
LINE
  5
C5
330
1E
100
AcDbEntity
  8
0
100
AcDbLine
 10
70.57999999999999
 20
168.1829999999999
 30
0.0
 11
75.0
 21
168.75
 31
0.0
  0
LINE
  5
C6
330
1E
100
AcDbEntity
  8
0
100
AcDbLine
 10
94.32349999999999
 20
187.0149999999999
 30
0.0
 11
103.676
 21
183.9259999999999
 31
0.0
  0
LINE
  5
C7
330
1E
100
AcDbEntity
  8
0
100
AcDbLine
 10
112.324
 20
179.6909999999999
 30
0.0
 11
120.618
 21
174.1319999999999
 31
0.0
  0
LINE
  5
C8
330
1E
100
AcDbEntity
  8
0
100
AcDbLine
 10
134.382
 20
160.3679999999999
 30
0.0
 11
139.941
 21
152.0739999999999
 31
0.0
  0
LINE
  5
C9
330
1E
100
AcDbEntity
  8
0
100
AcDbLine
 10
139.941
 20
152.0739999999999
 30
0.0
 11
144.176
 21
143.426
 31
0.0
  0
LINE
  5
CA
330
1E
100
AcDbEntity
  8
0
100
AcDbLine
 10
147.2649999999999
 20
134.0735
 30
0.0
 11
149.206
 21
124.5441
 31
0.0
  0
LINE
  5
CB
330
1E
100
AcDbEntity
  8
0
100
AcDbLine
 10
46.3235
 20
183.9259999999999
 30
0.0
 11
55.6765
 21
187.0149999999999
 31
0.0
  0
LINE
  5
CC
330
1E
100
AcDbEntity
  8
0
100
AcDbLine
 10
84.79409999999999
 20
188.9559999999999
 30
0.0
 11
94.32349999999999
 21
187.0149999999999
 31
0.0
  0
LINE
  5
CD
330
1E
100
AcDbEntity
  8
0
100
AcDbLine
 10
75.0
 20
189.7499999999999
 30
0.0
 11
84.79409999999999
 21
188.9559999999999
 31
0.0
  0
LINE
  5
CE
330
1E
100
AcDbEntity
  8
0
100
AcDbLine
 10
29.3824
 20
174.1319999999999
 30
0.0
 11
37.67649999999999
 21
179.6909999999999
 31
0.0
  0
LINE
  5
D3
330
1E
100
AcDbEntity
  8
0
100
AcDbLine
 10
55.6765
 20
187.0149999999999
 30
0.0
 11
65.83692112271456
 21
189.1339554711455
 31
0.0
  0
LINE
  5
D4
330
1E
100
AcDbEntity
  8
0
100
AcDbLine
 10
65.83692112271456
 20
189.1339554711455
 30
0.0
 11
75.0
 21
189.7499999999999
 31
0.0
  0
LINE
  5
D5
330
1E
100
AcDbEntity
  8
0
100
AcDbLine
 10
112.324
 20
179.6909999999999
 30
0.0
 11
103.676
 21
183.9259999999999
 31
0.0
  0
LINE
  5
D6
330
1E
100
AcDbEntity
  8
0
100
AcDbLine
 10
120.618
 20
174.1319999999999
 30
0.0
 11
129.611948408601
 21
165.9362235266292
 31
0.0
  0
LINE
  5
D7
330
1E
100
AcDbEntity
  8
0
100
AcDbLine
 10
129.611948408601
 20
165.9362235266292
 30
0.0
 11
134.382
 21
160.3679999999999
 31
0.0
  0
LINE
  5
D8
330
1E
100
AcDbEntity
  8
0
100
AcDbLine
 10
144.176
 20
143.426
 30
0.0
 11
147.2649999999999
 21
134.0735
 31
0.0
  0
LINE
  5
D9
330
1E
100
AcDbEntity
  8
0
100
AcDbLine
 10
147.2649999999999
 20
95.4265
 30
0.0
 11
144.176
 21
86.0735
 31
0.0
  0
LINE
  5
DA
330
1E
100
AcDbEntity
  8
0
100
AcDbLine
 10
134.382
 20
69.1324
 30
0.0
 11
127.6571578046299
 21
61.42433479356384
 31
0.0
  0
LINE
  5
DB
330
1E
100
AcDbEntity
  8
0
100
AcDbLine
 10
127.6571578046299
 20
61.42433479356384
 30
0.0
 11
120.618
 21
55.36760000000001
 31
0.0
  0
LINE
  5
DC
330
1E
100
AcDbEntity
  8
0
100
AcDbLine
 10
2.735289999999999
 20
134.0735
 30
0.0
 11
5.82352999999999
 21
143.426
 31
0.0
  0
LINE
  5
DD
330
1E
100
AcDbEntity
  8
0
100
AcDbLine
 10
29.3824
 20
55.36760000000001
 30
0.0
 11
22.0588
 21
61.8088
 31
0.0
  0
LINE
  5
DE
330
1E
100
AcDbEntity
  8
0
100
AcDbLine
 10
46.3235
 20
45.57352999999999
 30
0.0
 11
37.67649999999999
 21
49.80879999999999
 31
0.0
  0
LINE
  5
DF
330
1E
100
AcDbEntity
  8
0
100
AcDbLine
 10
112.324
 20
49.80879999999999
 30
0.0
 11
107.7832322050845
 21
47.18830157904847
 31
0.0
  0
LINE
  5
E0
330
1E
100
AcDbEntity
  8
0
100
AcDbLine
 10
107.7832322050845
 20
47.18830157904847
 30
0.0
 11
102.7088746448654
 21
44.68490094152008
 31
0.0
  0
LINE
  5
E1
330
1E
100
AcDbEntity
  8
0
100
AcDbLine
 10
102.7088746448654
 20
44.68490094152008
 30
0.0
 11
96.54256720309161
 21
42.43825953753787
 31
0.0
  0
LINE
  5
E2
330
1E
100
AcDbEntity
  8
0
100
AcDbLine
 10
96.54256720309161
 20
42.43825953753787
 30
0.0
 11
93.3309487630828
 21
41.53960288702513
 31
0.0
  0
LINE
  5
E3
330
1E
100
AcDbEntity
  8
0
100
AcDbLine
 10
60.53329999999999
 20
11.3833
 30
0.0
 11
60.0
 21
15.25
 31
0.0
  0
LINE
  5
E4
330
1E
100
AcDbEntity
  8
0
100
AcDbLine
 10
75.0
 20
0.250000000000002
 30
0.0
 11
78.86669999999999
 21
0.783299999999999
 31
0.0
  0
ENDSEC
  0
SECTION
  2
OBJECTS
  0
DICTIONARY
  5
C
330
0
100
AcDbDictionary
  3
ACAD_GROUP
350
D
  3
ACAD_LAYOUT
350
19
  3
ACAD_MLINESTYLE
350
16
  3
ACAD_PLOTSETTINGS
350
18
  3
ACAD_PLOTSTYLENAME
350
E
  3
ACDBHEADERROUNDTRIPXREC
350
E8
  3
ACDBVARIABLEDICTIONARY
350
E5
  0
DICTIONARY
  5
10A
330
1E
100
AcDbDictionary
280
     1
  3
ACAD_LAYOUTSELFREF
360
10B
  0
DICTIONARY
  5
108
330
1A
100
AcDbDictionary
280
     1
  3
ACAD_LAYOUTSELFREF
360
109
  0
DICTIONARY
  5
D
102
{ACAD_REACTORS
330
C
102
}
330
C
100
AcDbDictionary
  0
DICTIONARY
  5
19
102
{ACAD_REACTORS
330
C
102
}
330
C
100
AcDbDictionary
  0
DICTIONARY
  5
16
102
{ACAD_REACTORS
330
C
102
}
330
C
100
AcDbDictionary
  3
STANDARD
350
17
  0
DICTIONARY
  5
18
102
{ACAD_REACTORS
330
C
102
}
330
C
100
AcDbDictionary
  0
ACDBDICTIONARYWDFLT
  5
E
102
{ACAD_REACTORS
330
C
102
}
330
C
100
AcDbDictionary
281
     1
  3
Normal
350
F
100
AcDbDictionaryWithDefault
340
F
  0
DICTIONARY
  5
E8
102
{ACAD_REACTORS
330
C
102
}
330
C
100
AcDbDictionary
  3
CEPSNTYPE
350
F2
  3
FINGERPRINTGUID
350
F3
  3
HYPERLINKBASE
350
EB
  3
INSUNITS
350
F1
  3
LAYOUTDICT
350
ED
  3
LWETCUNION
350
F0
  3
PLOTSETDICT
350
EE
  3
PLOTSTYLNAMDICT
350
EF
  3
PSVPSCALE
350
F5
  3
PUCSBASE
350
F8
  3
PUCSORGBACK
350
FE
  3
PUCSORGBOTTOM
350
FA
  3
PUCSORGFRONT
350
FD
  3
PUCSORGLEFT
350
FB
  3
PUCSORGRIGHT
350
FC
  3
PUCSORGTOP
350
F9
  3
PUCSORTHOREF
350
F6
  3
PUCSORTHOVIEW
350
F7
  3
STYLESHEET
350
EC
  3
TSTACKALIGN
350
E9
  3
TSTACKSIZE
350
EA
  3
UCSBASE
350
101
  3
UCSORGBACK
350
107
  3
UCSORGBOTTOM
350
103
  3
UCSORGFRONT
350
106
  3
UCSORGLEFT
350
104
  3
UCSORGRIGHT
350
105
  3
UCSORGTOP
350
102
  3
UCSORTHOREF
350
FF
  3
UCSORTHOVIEW
350
100
  3
VERSIONGUID
350
F4
  0
DICTIONARY
  5
E5
102
{ACAD_REACTORS
330
C
102
}
330
C
100
AcDbDictionary
  3
DIMASSOC
350
E6
  0
XRECORD
  5
10B
102
{ACAD_REACTORS
330
10A
102
}
330
10A
100
AcDbXrecord
340
1E
  0
XRECORD
  5
109
102
{ACAD_REACTORS
330
108
102
}
330
108
100
AcDbXrecord
340
1A
  0
MLINESTYLE
  5
17
102
{ACAD_REACTORS
330
16
102
}
330
16
100
AcDbMlineStyle
  2
STANDARD
 70
     0
  3

 62
   256
 51
90.0
 52
90.0
 71
     2
 49
0.5
 62
   256
  6
BYLAYER
 49
-0.5
 62
   256
  6
BYLAYER
  0
ACDBPLACEHOLDER
  5
F
102
{ACAD_REACTORS
330
E
102
}
330
E
100
AcDbPlaceHolder
280
     0
  0
XRECORD
  5
F2
102
{ACAD_REACTORS
330
E8
102
}
330
E8
100
AcDbXrecord
 90
        0
  0
XRECORD
  5
F3
102
{ACAD_REACTORS
330
E8
102
}
330
E8
100
AcDbXrecord
  1
{174C91B7-7892-4736-90D7-81BF4EC7310F}
  0
XRECORD
  5
EB
102
{ACAD_REACTORS
330
E8
102
}
330
E8
100
AcDbXrecord
  1

  0
XRECORD
  5
F1
102
{ACAD_REACTORS
330
E8
102
}
330
E8
100
AcDbXrecord
 90
        0
  0
XRECORD
  5
ED
102
{ACAD_REACTORS
330
E8
102
}
330
E8
100
AcDbXrecord
340
19
  0
XRECORD
  5
F0
102
{ACAD_REACTORS
330
E8
102
}
330
E8
100
AcDbXrecord
 90
    10781
  0
XRECORD
  5
EE
102
{ACAD_REACTORS
330
E8
102
}
330
E8
100
AcDbXrecord
340
18
  0
XRECORD
  5
EF
102
{ACAD_REACTORS
330
E8
102
}
330
E8
100
AcDbXrecord
340
E
  0
XRECORD
  5
F5
102
{ACAD_REACTORS
330
E8
102
}
330
E8
100
AcDbXrecord
 40
0.0
  0
XRECORD
  5
F8
102
{ACAD_REACTORS
330
E8
102
}
330
E8
100
AcDbXrecord
340
0
  0
XRECORD
  5
FE
102
{ACAD_REACTORS
330
E8
102
}
330
E8
100
AcDbXrecord
 10
0.0
 20
0.0
 30
0.0
  0
XRECORD
  5
FA
102
{ACAD_REACTORS
330
E8
102
}
330
E8
100
AcDbXrecord
 10
0.0
 20
0.0
 30
0.0
  0
XRECORD
  5
FD
102
{ACAD_REACTORS
330
E8
102
}
330
E8
100
AcDbXrecord
 10
0.0
 20
0.0
 30
0.0
  0
XRECORD
  5
FB
102
{ACAD_REACTORS
330
E8
102
}
330
E8
100
AcDbXrecord
 10
0.0
 20
0.0
 30
0.0
  0
XRECORD
  5
FC
102
{ACAD_REACTORS
330
E8
102
}
330
E8
100
AcDbXrecord
 10
0.0
 20
0.0
 30
0.0
  0
XRECORD
  5
F9
102
{ACAD_REACTORS
330
E8
102
}
330
E8
100
AcDbXrecord
 10
0.0
 20
0.0
 30
0.0
  0
XRECORD
  5
F6
102
{ACAD_REACTORS
330
E8
102
}
330
E8
100
AcDbXrecord
340
0
  0
XRECORD
  5
F7
102
{ACAD_REACTORS
330
E8
102
}
330
E8
100
AcDbXrecord
 70
     0
  0
XRECORD
  5
EC
102
{ACAD_REACTORS
330
E8
102
}
330
E8
100
AcDbXrecord
  1

  0
XRECORD
  5
E9
102
{ACAD_REACTORS
330
E8
102
}
330
E8
100
AcDbXrecord
 90
        1
  0
XRECORD
  5
EA
102
{ACAD_REACTORS
330
E8
102
}
330
E8
100
AcDbXrecord
 90
       70
  0
XRECORD
  5
101
102
{ACAD_REACTORS
330
E8
102
}
330
E8
100
AcDbXrecord
340
0
  0
XRECORD
  5
107
102
{ACAD_REACTORS
330
E8
102
}
330
E8
100
AcDbXrecord
 10
0.0
 20
0.0
 30
0.0
  0
XRECORD
  5
103
102
{ACAD_REACTORS
330
E8
102
}
330
E8
100
AcDbXrecord
 10
0.0
 20
0.0
 30
0.0
  0
XRECORD
  5
106
102
{ACAD_REACTORS
330
E8
102
}
330
E8
100
AcDbXrecord
 10
0.0
 20
0.0
 30
0.0
  0
XRECORD
  5
104
102
{ACAD_REACTORS
330
E8
102
}
330
E8
100
AcDbXrecord
 10
0.0
 20
0.0
 30
0.0
  0
XRECORD
  5
105
102
{ACAD_REACTORS
330
E8
102
}
330
E8
100
AcDbXrecord
 10
0.0
 20
0.0
 30
0.0
  0
XRECORD
  5
102
102
{ACAD_REACTORS
330
E8
102
}
330
E8
100
AcDbXrecord
 10
0.0
 20
0.0
 30
0.0
  0
XRECORD
  5
FF
102
{ACAD_REACTORS
330
E8
102
}
330
E8
100
AcDbXrecord
340
0
  0
XRECORD
  5
100
102
{ACAD_REACTORS
330
E8
102
}
330
E8
100
AcDbXrecord
 70
     1
  0
XRECORD
  5
F4
102
{ACAD_REACTORS
330
E8
102
}
330
E8
100
AcDbXrecord
  1
{0B0507C1-4A71-4F77-9454-4CE717FDB1E7}
  0
DICTIONARYVAR
  5
E6
102
{ACAD_REACTORS
330
E5
102
}
330
E5
100
DictionaryVariables
280
     0
  1
1
  0
ENDSEC
  0
EOF
