  0
SECTION
  2
HEADER
  9
$ACADVER
  1
AC1015
  9
$ACADMAINTVER
 70
    13
  9
$DWGCODEPAGE
  3
ANSI_1252
  9
$INSBASE
 10
0.0
 20
0.0
 30
0.0
  9
$EXTMIN
 10
0.000000000000008
 20
0.0750000000000162
 30
0.0
  9
$EXTMAX
 10
192.0
 20
184.213
 30
0.0
  9
$LIMMIN
 10
0.0
 20
0.0
  9
$LIMMAX
 10
12.0
 20
9.0
  9
$ORTHOMODE
 70
     0
  9
$REGENMODE
 70
     1
  9
$FILLMODE
 70
     1
  9
$QTEXTMODE
 70
     0
  9
$MIRRTEXT
 70
     1
  9
$LTSCALE
 40
1.0
  9
$ATTMODE
 70
     1
  9
$TEXTSIZE
 40
0.2
  9
$TRACEWID
 40
0.05
  9
$TEXTSTYLE
  7
Standard
  9
$CLAYER
  8
0
  9
$CELTYPE
  6
Continuous
  9
$CECOLOR
 62
   256
  9
$CELTSCALE
 40
1.0
  9
$DISPSILH
 70
     0
  9
$DIMSCALE
 40
1.0
  9
$DIMASZ
 40
0.18
  9
$DIMEXO
 40
0.0625
  9
$DIMDLI
 40
0.38
  9
$DIMRND
 40
0.0
  9
$DIMDLE
 40
0.0
  9
$DIMEXE
 40
0.18
  9
$DIMTP
 40
0.0
  9
$DIMTM
 40
0.0
  9
$DIMTXT
 40
0.18
  9
$DIMCEN
 40
0.09
  9
$DIMTSZ
 40
0.0
  9
$DIMTOL
 70
     0
  9
$DIMLIM
 70
     0
  9
$DIMTIH
 70
     1
  9
$DIMTOH
 70
     1
  9
$DIMSE1
 70
     0
  9
$DIMSE2
 70
     0
  9
$DIMTAD
 70
     0
  9
$DIMZIN
 70
     0
  9
$DIMBLK
  1

  9
$DIMASO
 70
     1
  9
$DIMSHO
 70
     1
  9
$DIMPOST
  1

  9
$DIMAPOST
  1

  9
$DIMALT
 70
     0
  9
$DIMALTD
 70
     2
  9
$DIMALTF
 40
25.4
  9
$DIMLFAC
 40
1.0
  9
$DIMTOFL
 70
     0
  9
$DIMTVP
 40
0.0
  9
$DIMTIX
 70
     0
  9
$DIMSOXD
 70
     0
  9
$DIMSAH
 70
     0
  9
$DIMBLK1
  1

  9
$DIMBLK2
  1

  9
$DIMSTYLE
  2
Standard
  9
$DIMCLRD
 70
     0
  9
$DIMCLRE
 70
     0
  9
$DIMCLRT
 70
     0
  9
$DIMTFAC
 40
1.0
  9
$DIMGAP
 40
0.09
  9
$DIMJUST
 70
     0
  9
$DIMSD1
 70
     0
  9
$DIMSD2
 70
     0
  9
$DIMTOLJ
 70
     1
  9
$DIMTZIN
 70
     0
  9
$DIMALTZ
 70
     0
  9
$DIMALTTZ
 70
     0
  9
$DIMUPT
 70
     0
  9
$DIMDEC
 70
     4
  9
$DIMTDEC
 70
     4
  9
$DIMALTU
 70
     2
  9
$DIMALTTD
 70
     2
  9
$DIMTXSTY
  7
Standard
  9
$DIMAUNIT
 70
     0
  9
$DIMADEC
 70
     0
  9
$DIMALTRND
 40
0.0
  9
$DIMAZIN
 70
     0
  9
$DIMDSEP
 70
    46
  9
$DIMATFIT
 70
     3
  9
$DIMFRAC
 70
     0
  9
$DIMLDRBLK
  1

  9
$DIMLUNIT
 70
     2
  9
$DIMLWD
 70
    -2
  9
$DIMLWE
 70
    -2
  9
$DIMTMOVE
 70
     0
  9
$LUNITS
 70
     2
  9
$LUPREC
 70
     4
  9
$SKETCHINC
 40
0.1
  9
$FILLETRAD
 40
0.0
  9
$AUNITS
 70
     0
  9
$AUPREC
 70
     0
  9
$MENU
  1
.
  9
$ELEVATION
 40
0.0
  9
$PELEVATION
 40
0.0
  9
$THICKNESS
 40
0.0
  9
$LIMCHECK
 70
     0
  9
$CHAMFERA
 40
0.0
  9
$CHAMFERB
 40
0.0
  9
$CHAMFERC
 40
0.0
  9
$CHAMFERD
 40
0.0
  9
$SKPOLY
 70
     0
  9
$TDCREATE
 40
2455655.560617940
  9
$TDUCREATE
 40
2455655.477284606
  9
$TDUPDATE
 40
2455655.562639791
  9
$TDUUPDATE
 40
2455655.479306458
  9
$TDINDWG
 40
0.0020218519
  9
$TDUSRTIMER
 40
0.0020218519
  9
$USRTIMER
 70
     1
  9
$ANGBASE
 50
0.0
  9
$ANGDIR
 70
     0
  9
$PDMODE
 70
     0
  9
$PDSIZE
 40
0.0
  9
$PLINEWID
 40
0.0
  9
$SPLFRAME
 70
     0
  9
$SPLINETYPE
 70
     6
  9
$SPLINESEGS
 70
     8
  9
$HANDSEED
  5
45B
  9
$SURFTAB1
 70
     6
  9
$SURFTAB2
 70
     6
  9
$SURFTYPE
 70
     6
  9
$SURFU
 70
     6
  9
$SURFV
 70
     6
  9
$UCSBASE
  2

  9
$UCSNAME
  2

  9
$UCSORG
 10
0.0
 20
0.0
 30
0.0
  9
$UCSXDIR
 10
1.0
 20
0.0
 30
0.0
  9
$UCSYDIR
 10
0.0
 20
1.0
 30
0.0
  9
$UCSORTHOREF
  2

  9
$UCSORTHOVIEW
 70
     1
  9
$UCSORGTOP
 10
0.0
 20
0.0
 30
0.0
  9
$UCSORGBOTTOM
 10
0.0
 20
0.0
 30
0.0
  9
$UCSORGLEFT
 10
0.0
 20
0.0
 30
0.0
  9
$UCSORGRIGHT
 10
0.0
 20
0.0
 30
0.0
  9
$UCSORGFRONT
 10
0.0
 20
0.0
 30
0.0
  9
$UCSORGBACK
 10
0.0
 20
0.0
 30
0.0
  9
$PUCSBASE
  2

  9
$PUCSNAME
  2

  9
$PUCSORG
 10
0.0
 20
0.0
 30
0.0
  9
$PUCSXDIR
 10
1.0
 20
0.0
 30
0.0
  9
$PUCSYDIR
 10
0.0
 20
1.0
 30
0.0
  9
$PUCSORTHOREF
  2

  9
$PUCSORTHOVIEW
 70
     0
  9
$PUCSORGTOP
 10
0.0
 20
0.0
 30
0.0
  9
$PUCSORGBOTTOM
 10
0.0
 20
0.0
 30
0.0
  9
$PUCSORGLEFT
 10
0.0
 20
0.0
 30
0.0
  9
$PUCSORGRIGHT
 10
0.0
 20
0.0
 30
0.0
  9
$PUCSORGFRONT
 10
0.0
 20
0.0
 30
0.0
  9
$PUCSORGBACK
 10
0.0
 20
0.0
 30
0.0
  9
$USERI1
 70
     0
  9
$USERI2
 70
     0
  9
$USERI3
 70
     0
  9
$USERI4
 70
     0
  9
$USERI5
 70
     0
  9
$USERR1
 40
0.0
  9
$USERR2
 40
0.0
  9
$USERR3
 40
0.0
  9
$USERR4
 40
0.0
  9
$USERR5
 40
0.0
  9
$WORLDVIEW
 70
     1
  9
$SHADEDGE
 70
     3
  9
$SHADEDIF
 70
    70
  9
$TILEMODE
 70
     1
  9
$MAXACTVP
 70
    64
  9
$PINSBASE
 10
0.0
 20
0.0
 30
0.0
  9
$PLIMCHECK
 70
     0
  9
$PEXTMIN
 10
1.000000000000000E+20
 20
1.000000000000000E+20
 30
1.000000000000000E+20
  9
$PEXTMAX
 10
-1.000000000000000E+20
 20
-1.000000000000000E+20
 30
-1.000000000000000E+20
  9
$PLIMMIN
 10
0.0
 20
0.0
  9
$PLIMMAX
 10
12.0
 20
9.0
  9
$UNITMODE
 70
     0
  9
$VISRETAIN
 70
     1
  9
$PLINEGEN
 70
     0
  9
$PSLTSCALE
 70
     1
  9
$TREEDEPTH
 70
  3020
  9
$CMLSTYLE
  2
Standard
  9
$CMLJUST
 70
     0
  9
$CMLSCALE
 40
1.0
  9
$PROXYGRAPHICS
 70
     1
  9
$MEASUREMENT
 70
     0
  9
$CELWEIGHT
370
    -1
  9
$ENDCAPS
280
     0
  9
$JOINSTYLE
280
     0
  9
$LWDISPLAY
290
     0
  9
$INSUNITS
 70
     0
  9
$HYPERLINKBASE
  1

  9
$STYLESHEET
  1

  9
$XEDIT
290
     1
  9
$CEPSNTYPE
380
     0
  9
$PSTYLEMODE
290
     1
  9
$FINGERPRINTGUID
  2
{09428A2B-A54F-42E2-9F6C-28562112785E}
  9
$VERSIONGUID
  2
{9E1D56D0-201E-4BB7-90E0-337E89401BAB}
  9
$EXTNAMES
290
     1
  9
$PSVPSCALE
 40
0.0
  9
$OLESTARTUP
290
     0
  0
ENDSEC
  0
SECTION
  2
CLASSES
  0
CLASS
  1
ACDBDICTIONARYWDFLT
  2
AcDbDictionaryWithDefault
  3
AutoCAD 2000
 90
        0
280
     0
281
     0
  0
CLASS
  1
ACDBPLACEHOLDER
  2
AcDbPlaceHolder
  3
AutoCAD 2000
 90
        0
280
     0
281
     0
  0
CLASS
  1
LAYOUT
  2
AcDbLayout
  3
AutoCAD 2000
 90
        0
280
     0
281
     0
  0
CLASS
  1
DICTIONARYVAR
  2
AcDbDictionaryVar
  3
AutoCAD 2000
 90
        0
280
     0
281
     0
  0
ENDSEC
  0
SECTION
  2
TABLES
  0
TABLE
  2
VPORT
  5
8
330
0
100
AcDbSymbolTable
 70
     3
  0
VPORT
  5
45A
330
8
100
AcDbSymbolTableRecord
100
AcDbViewportTableRecord
  2
*Active
 70
     0
 10
0.0
 20
0.0
 11
1.0
 21
1.0
 12
96.00000000000001
 22
92.14400000000003
 13
0.0
 23
0.0
 14
1.0
 24
1.0
 15
0.0
 25
0.0
 16
0.0
 26
0.0
 36
1.0
 17
0.0
 27
0.0
 37
0.0
 40
185.3835783540022
 41
2.073363431151241
 42
50.0
 43
0.0
 44
0.0
 50
0.0
 51
0.0
 71
     0
 72
   100
 73
     1
 74
     3
 75
     0
 76
     0
 77
     0
 78
     0
281
     0
 65
     1
110
0.0
120
0.0
130
0.0
111
1.0
121
0.0
131
0.0
112
0.0
122
1.0
132
0.0
 79
     1
146
0.0
  0
ENDTAB
  0
TABLE
  2
LTYPE
  5
5
330
0
100
AcDbSymbolTable
 70
     1
  0
LTYPE
  5
13
330
5
100
AcDbSymbolTableRecord
100
AcDbLinetypeTableRecord
  2
ByBlock
 70
     0
  3

 72
    65
 73
     0
 40
0.0
  0
LTYPE
  5
14
330
5
100
AcDbSymbolTableRecord
100
AcDbLinetypeTableRecord
  2
ByLayer
 70
     0
  3

 72
    65
 73
     0
 40
0.0
  0
LTYPE
  5
15
330
5
100
AcDbSymbolTableRecord
100
AcDbLinetypeTableRecord
  2
Continuous
 70
     0
  3
Solid line
 72
    65
 73
     0
 40
0.0
  0
ENDTAB
  0
TABLE
  2
LAYER
  5
2
330
0
100
AcDbSymbolTable
 70
     1
  0
LAYER
  5
10
330
2
100
AcDbSymbolTableRecord
100
AcDbLayerTableRecord
  2
0
 70
     0
 62
     7
  6
Continuous
370
    -3
390
F
  0
ENDTAB
  0
TABLE
  2
STYLE
  5
3
330
0
100
AcDbSymbolTable
 70
     1
  0
STYLE
  5
11
330
3
100
AcDbSymbolTableRecord
100
AcDbTextStyleTableRecord
  2
Standard
 70
     0
 40
0.0
 41
1.0
 50
0.0
 71
     0
 42
0.2
  3
txt
  4

  0
ENDTAB
  0
TABLE
  2
VIEW
  5
6
330
0
100
AcDbSymbolTable
 70
     0
  0
ENDTAB
  0
TABLE
  2
UCS
  5
7
330
0
100
AcDbSymbolTable
 70
     0
  0
ENDTAB
  0
TABLE
  2
APPID
  5
9
330
0
100
AcDbSymbolTable
 70
     1
  0
APPID
  5
12
330
9
100
AcDbSymbolTableRecord
100
AcDbRegAppTableRecord
  2
ACAD
 70
     0
  0
ENDTAB
  0
TABLE
  2
DIMSTYLE
  5
A
330
0
100
AcDbSymbolTable
 70
     1
100
AcDbDimStyleTable
 71
     0
  0
DIMSTYLE
105
37D
330
A
100
AcDbSymbolTableRecord
100
AcDbDimStyleTableRecord
  2
Standard
 70
     0
340
11
  0
ENDTAB
  0
TABLE
  2
BLOCK_RECORD
  5
1
330
0
100
AcDbSymbolTable
 70
     1
  0
BLOCK_RECORD
  5
1E
330
1
100
AcDbSymbolTableRecord
100
AcDbBlockTableRecord
  2
*Model_Space
340
21
  0
BLOCK_RECORD
  5
1A
330
1
100
AcDbSymbolTableRecord
100
AcDbBlockTableRecord
  2
*Paper_Space
340
1D
  0
ENDTAB
  0
ENDSEC
  0
SECTION
  2
BLOCKS
  0
BLOCK
  5
1F
330
1E
100
AcDbEntity
  8
0
100
AcDbBlockBegin
  2
*Model_Space
 70
     0
 10
0.0
 20
0.0
 30
0.0
  3
*Model_Space
  1

  0
ENDBLK
  5
20
330
1E
100
AcDbEntity
  8
0
100
AcDbBlockEnd
  0
BLOCK
  5
1B
330
1A
100
AcDbEntity
 67
     1
  8
0
100
AcDbBlockBegin
  2
*Paper_Space
 70
     0
 10
0.0
 20
0.0
 30
0.0
  3
*Paper_Space
  1

  0
ENDBLK
  5
1C
330
1A
100
AcDbEntity
 67
     1
  8
0
100
AcDbBlockEnd
  0
ENDSEC
  0
SECTION
  2
ENTITIES
  0
LINE
  5
22
330
1E
100
AcDbEntity
  8
0
100
AcDbLine
 10
53.5632
 20
89.43845000000001
 30
0.0
 11
53.7141
 21
89.54185
 31
0.0
  0
LINE
  5
23
330
1E
100
AcDbEntity
  8
0
100
AcDbLine
 10
54.1269
 20
89.8169
 30
0.0
 11
54.7994
 21
90.24454
 31
0.0
  0
LINE
  5
24
330
1E
100
AcDbEntity
  8
0
100
AcDbLine
 10
53.7141
 20
89.54185
 30
0.0
 11
54.1269
 21
89.8169
 31
0.0
  0
LINE
  5
25
330
1E
100
AcDbEntity
  8
0
100
AcDbLine
 10
55.0048
 20
90.07451999999998
 30
0.0
 11
56.10479999999999
 21
90.07451999999998
 31
0.0
  0
LINE
  5
26
330
1E
100
AcDbEntity
  8
0
100
AcDbLine
 10
55.6048
 20
60.075
 30
0.0
 11
56.00480000000001
 21
60.075
 31
0.0
  0
LINE
  5
27
330
1E
100
AcDbEntity
  8
0
100
AcDbLine
 10
54.6048
 20
90.07451999999998
 30
0.0
 11
55.6048
 21
60.075
 31
0.0
  0
LINE
  5
28
330
1E
100
AcDbEntity
  8
0
100
AcDbLine
 10
54.6048
 20
90.07451999999998
 30
0.0
 11
55.0048
 21
90.07451999999998
 31
0.0
  0
LINE
  5
29
330
1E
100
AcDbEntity
  8
0
100
AcDbLine
 10
58.60479999999999
 20
60.075
 30
0.0
 11
58.60479999999999
 21
4.336700000000019
 31
0.0
  0
LINE
  5
2A
330
1E
100
AcDbEntity
  8
0
100
AcDbLine
 10
58.60479999999999
 20
60.075
 30
0.0
 11
58.9048
 21
60.075
 31
0.0
  0
LINE
  5
2B
330
1E
100
AcDbEntity
  8
0
100
AcDbLine
 10
58.60479999999999
 20
4.336700000000019
 30
0.0
 11
58.9048
 21
2.35020000000002
 31
0.0
  0
LINE
  5
2C
330
1E
100
AcDbEntity
  8
0
100
AcDbLine
 10
58.60479999999999
 20
4.336700000000019
 30
0.0
 11
58.60479999999999
 21
60.075
 31
0.0
  0
LINE
  5
2D
330
1E
100
AcDbEntity
  8
0
100
AcDbLine
 10
58.60479999999999
 20
4.336700000000019
 30
0.0
 11
58.9048
 21
5.686100000000009
 31
0.0
  0
LINE
  5
2E
330
1E
100
AcDbEntity
  8
0
100
AcDbLine
 10
56.10479999999999
 20
90.07451999999998
 30
0.0
 11
58.0048
 21
90.07451999999998
 31
0.0
  0
LINE
  5
2F
330
1E
100
AcDbEntity
  8
0
100
AcDbLine
 10
57.0048
 20
60.075
 30
0.0
 11
58.7048
 21
60.075
 31
0.0
  0
LINE
  5
30
330
1E
100
AcDbEntity
  8
0
100
AcDbLine
 10
58.9048
 20
60.075
 30
0.0
 11
59.6048
 21
60.075
 31
0.0
  0
LINE
  5
31
330
1E
100
AcDbEntity
  8
0
100
AcDbLine
 10
58.9048
 20
5.686100000000009
 30
0.0
 11
59.6048
 21
6.885500000000009
 31
0.0
  0
LINE
  5
32
330
1E
100
AcDbEntity
  8
0
100
AcDbLine
 10
59.6048
 20
6.885500000000009
 30
0.0
 11
60.8048
 21
8.085000000000009
 31
0.0
  0
LINE
  5
33
330
1E
100
AcDbEntity
  8
0
100
AcDbLine
 10
58.9048
 20
2.35020000000002
 30
0.0
 11
59.6048
 21
1.22570000000001
 31
0.0
  0
LINE
  5
34
330
1E
100
AcDbEntity
  8
0
100
AcDbLine
 10
59.6048
 20
60.075
 30
0.0
 11
60.8048
 21
60.075
 31
0.0
  0
LINE
  5
35
330
1E
100
AcDbEntity
  8
0
100
AcDbLine
 10
60.8048
 20
60.075
 30
0.0
 11
62.4048
 21
60.075
 31
0.0
  0
LINE
  5
36
330
1E
100
AcDbEntity
  8
0
100
AcDbLine
 10
60.8048
 20
8.085000000000009
 30
0.0
 11
62.4048
 21
9.134499999999999
 31
0.0
  0
LINE
  5
37
330
1E
100
AcDbEntity
  8
0
100
AcDbLine
 10
59.6048
 20
1.22570000000001
 30
0.0
 11
60.8048
 21
0.5510000000000151
 31
0.0
  0
LINE
  5
38
330
1E
100
AcDbEntity
  8
0
100
AcDbLine
 10
60.8048
 20
0.5510000000000151
 30
0.0
 11
62.4048
 21
0.176200000000005
 31
0.0
  0
LINE
  5
39
330
1E
100
AcDbEntity
  8
0
100
AcDbLine
 10
58.7048
 20
60.075
 30
0.0
 11
60.9048
 21
60.075
 31
0.0
  0
LINE
  5
3A
330
1E
100
AcDbEntity
  8
0
100
AcDbLine
 10
58.0048
 20
90.07451999999998
 30
0.0
 11
60.4048
 21
90.07451999999998
 31
0.0
  0
LINE
  5
3B
330
1E
100
AcDbEntity
  8
0
100
AcDbLine
 10
62.4048
 20
9.134499999999999
 30
0.0
 11
64.20480000000001
 21
9.846700000000019
 31
0.0
  0
LINE
  5
3C
330
1E
100
AcDbEntity
  8
0
100
AcDbLine
 10
62.4048
 20
60.075
 30
0.0
 11
64.20480000000001
 21
60.075
 31
0.0
  0
LINE
  5
3D
330
1E
100
AcDbEntity
  8
0
100
AcDbLine
 10
62.4048
 20
0.176200000000005
 30
0.0
 11
64.20480000000001
 21
0.101200000000009
 31
0.0
  0
LINE
  5
3E
330
1E
100
AcDbEntity
  8
0
100
AcDbLine
 10
60.9048
 20
60.075
 30
0.0
 11
63.4048
 21
60.075
 31
0.0
  0
LINE
  5
3F
330
1E
100
AcDbEntity
  8
0
100
AcDbLine
 10
60.4048
 20
90.07451999999998
 30
0.0
 11
63.1048
 21
90.07451999999998
 31
0.0
  0
LINE
  5
40
330
1E
100
AcDbEntity
  8
0
100
AcDbLine
 10
64.20480000000001
 20
9.846700000000019
 30
0.0
 11
66.10479999999999
 21
10.075
 31
0.0
  0
LINE
  5
41
330
1E
100
AcDbEntity
  8
0
100
AcDbLine
 10
66.10479999999999
 20
0.0750000000000162
 30
0.0
 11
68.0048
 21
0.101200000000009
 31
0.0
  0
LINE
  5
42
330
1E
100
AcDbEntity
  8
0
100
AcDbLine
 10
66.10479999999999
 20
10.075
 30
0.0
 11
68.0048
 21
9.846700000000019
 31
0.0
  0
LINE
  5
43
330
1E
100
AcDbEntity
  8
0
100
AcDbLine
 10
64.20480000000001
 20
60.075
 30
0.0
 11
66.10479999999999
 21
60.075
 31
0.0
  0
LINE
  5
44
330
1E
100
AcDbEntity
  8
0
100
AcDbLine
 10
64.20480000000001
 20
0.101200000000009
 30
0.0
 11
66.10479999999999
 21
0.0750000000000162
 31
0.0
  0
LINE
  5
45
330
1E
100
AcDbEntity
  8
0
100
AcDbLine
 10
66.10479999999999
 20
60.075
 30
0.0
 11
68.8048
 21
60.075
 31
0.0
  0
LINE
  5
46
330
1E
100
AcDbEntity
  8
0
100
AcDbLine
 10
66.10479999999999
 20
60.075
 30
0.0
 11
68.0048
 21
60.075
 31
0.0
  0
LINE
  5
47
330
1E
100
AcDbEntity
  8
0
100
AcDbLine
 10
63.4048
 20
60.075
 30
0.0
 11
66.10479999999999
 21
60.075
 31
0.0
  0
LINE
  5
48
330
1E
100
AcDbEntity
  8
0
100
AcDbLine
 10
63.1048
 20
90.07451999999998
 30
0.0
 11
66.10479999999999
 21
90.07451999999998
 31
0.0
  0
LINE
  5
49
330
1E
100
AcDbEntity
  8
0
100
AcDbLine
 10
56.00480000000001
 20
60.075
 30
0.0
 11
57.0048
 21
60.075
 31
0.0
  0
LINE
  5
4A
330
1E
100
AcDbEntity
  8
0
100
AcDbLine
 10
54.7994
 20
90.24454
 30
0.0
 11
55.9787
 21
90.94320999999998
 31
0.0
  0
LINE
  5
4B
330
1E
100
AcDbEntity
  8
0
100
AcDbLine
 10
55.1094252672822
 20
90.4282128173425
 30
0.0
 11
55.3688
 21
90.07451999999998
 31
0.0
  0
LINE
  5
4C
330
1E
100
AcDbEntity
  8
0
100
AcDbLine
 10
55.1200712954614
 20
90.43452
 30
0.0
 11
55.5008
 21
90.43452
 31
0.0
  0
LINE
  5
4D
330
1E
100
AcDbEntity
  8
0
100
AcDbLine
 10
55.5008
 20
90.43452
 30
0.0
 11
56.5568
 21
90.43452
 31
0.0
  0
LINE
  5
4E
330
1E
100
AcDbEntity
  8
0
100
AcDbLine
 10
56.5568
 20
90.43452
 30
0.0
 11
58.3168
 21
90.43452
 31
0.0
  0
LINE
  5
4F
330
1E
100
AcDbEntity
  8
0
100
AcDbLine
 10
58.3168
 20
90.43452
 30
0.0
 11
60.6488
 21
90.43452
 31
0.0
  0
LINE
  5
57
330
1E
100
AcDbEntity
  8
0
100
AcDbLine
 10
27.2486
 20
92.33605
 30
0.0
 11
27.4171
 21
92.26378000000002
 31
0.0
  0
LINE
  5
58
330
1E
100
AcDbEntity
  8
0
100
AcDbLine
 10
27.2486
 20
92.33605
 30
0.0
 11
27.4171
 21
92.26378000000002
 31
0.0
  0
LINE
  5
59
330
1E
100
AcDbEntity
  8
0
100
AcDbLine
 10
27.4171
 20
92.26378000000002
 30
0.0
 11
27.4892
 21
92.23278
 31
0.0
  0
LINE
  5
5B
330
1E
100
AcDbEntity
  8
0
100
AcDbLine
 10
27.8916
 20
92.2817
 30
0.0
 11
28.0211
 21
92.44804999999999
 31
0.0
  0
LINE
  5
5C
330
1E
100
AcDbEntity
  8
0
100
AcDbLine
 10
27.6964
 20
92.20300999999999
 30
0.0
 11
27.8916
 21
92.2817
 31
0.0
  0
LINE
  5
5D
330
1E
100
AcDbEntity
  8
0
100
AcDbLine
 10
27.4892
 20
92.23278
 30
0.0
 11
27.6964
 21
92.20300999999999
 31
0.0
  0
LINE
  5
77
330
1E
100
AcDbEntity
  8
0
100
AcDbLine
 10
28.0211
 20
92.44804999999999
 30
0.0
 11
29.40193524647289
 21
95.65622919644111
 31
0.0
  0
LINE
  5
78
330
1E
100
AcDbEntity
  8
0
100
AcDbLine
 10
28.0211
 20
92.44804999999999
 30
0.0
 11
29.40193524647289
 21
95.65622919644111
 31
0.0
  0
LINE
  5
7B
330
1E
100
AcDbEntity
  8
0
100
AcDbLine
 10
32.961
 20
94.40246
 30
0.0
 11
39.213
 21
92.63367999999999
 31
0.0
  0
LINE
  5
7C
330
1E
100
AcDbEntity
  8
0
100
AcDbLine
 10
30.87
 20
95.08005
 30
0.0
 11
32.961
 21
94.40246
 31
0.0
  0
LINE
  5
7F
330
1E
100
AcDbEntity
  8
0
100
AcDbLine
 10
5.944500000000009
 20
101.7279599999999
 30
0.0
 11
6.021470000000009
 21
101.5314999999999
 31
0.0
  0
LINE
  5
80
330
1E
100
AcDbEntity
  8
0
100
AcDbLine
 10
5.944500000000009
 20
101.7279599999999
 30
0.0
 11
5.976200000000009
 21
101.9359799999999
 31
0.0
  0
LINE
  5
81
330
1E
100
AcDbEntity
  8
0
100
AcDbLine
 10
6.027540000000009
 20
101.52896
 30
0.0
 11
6.191330000000009
 21
101.39919
 31
0.0
  0
LINE
  5
87
330
1E
100
AcDbEntity
  8
0
100
AcDbLine
 10
6.425980000000009
 20
101.29836
 30
0.0
 11
27.2486
 21
92.33605
 31
0.0
  0
LINE
  5
88
330
1E
100
AcDbEntity
  8
0
100
AcDbLine
 10
6.257590000000009
 20
101.3713099999999
 30
0.0
 11
6.425980000000009
 21
101.29836
 31
0.0
  0
LINE
  5
89
330
1E
100
AcDbEntity
  8
0
100
AcDbLine
 10
6.021470000000009
 20
101.5314999999999
 30
0.0
 11
6.185480000000009
 21
101.40171
 31
0.0
  0
LINE
  5
8A
330
1E
100
AcDbEntity
  8
0
100
AcDbLine
 10
5.976200000000009
 20
101.9359799999999
 30
0.0
 11
7.01807272487553
 21
104.356672035811
 31
0.0
  0
LINE
  5
8B
330
1E
100
AcDbEntity
  8
0
100
AcDbLine
 10
0.958000000000009
 20
106.6132
 30
0.0
 11
6.167000000000009
 21
104.6055
 31
0.0
  0
LINE
  5
8C
330
1E
100
AcDbEntity
  8
0
100
AcDbLine
 10
6.167000000000009
 20
104.6055
 30
0.0
 11
6.541000000000009
 21
104.4971
 31
0.0
  0
LINE
  5
8D
330
1E
100
AcDbEntity
  8
0
100
AcDbLine
 10
6.541000000000009
 20
104.4971
 30
0.0
 11
7.639000000000009
 21
104.1738999999999
 31
0.0
  0
LINE
  5
8E
330
1E
100
AcDbEntity
  8
0
100
AcDbLine
 10
6.541000000000009
 20
104.4971
 30
0.0
 11
7.01807272487553
 21
104.356672035811
 31
0.0
  0
LINE
  5
BD
330
1E
100
AcDbEntity
  8
0
100
AcDbLine
 10
20.047
 20
99.8262
 30
0.0
 11
22.609
 21
98.76420000000001
 31
0.0
  0
LINE
  5
BE
330
1E
100
AcDbEntity
  8
0
100
AcDbLine
 10
22.609
 20
98.76420000000001
 30
0.0
 11
24.904
 21
97.76229999999999
 31
0.0
  0
LINE
  5
BF
330
1E
100
AcDbEntity
  8
0
100
AcDbLine
 10
29.40193524647289
 20
95.65622919644111
 30
0.0
 11
29.496
 21
95.61008000000001
 31
0.0
  0
LINE
  5
C0
330
1E
100
AcDbEntity
  8
0
100
AcDbLine
 10
29.18499999999999
 20
95.76266
 30
0.0
 11
29.496
 21
95.61008000000001
 31
0.0
  0
LINE
  5
C1
330
1E
100
AcDbEntity
  8
0
100
AcDbLine
 10
28.27199999999999
 20
96.2034
 30
0.0
 11
29.18499999999999
 21
95.76266
 31
0.0
  0
LINE
  5
C2
330
1E
100
AcDbEntity
  8
0
100
AcDbLine
 10
26.82199999999999
 20
96.888
 30
0.0
 11
28.27199999999999
 21
96.2034
 31
0.0
  0
LINE
  5
C3
330
1E
100
AcDbEntity
  8
0
100
AcDbLine
 10
24.904
 20
97.76229999999999
 30
0.0
 11
26.82199999999999
 21
96.888
 31
0.0
  0
LINE
  5
C5
330
1E
100
AcDbEntity
  8
0
100
AcDbLine
 10
11.319
 20
103.0183999999999
 30
0.0
 11
13.21299999999999
 21
102.381
 31
0.0
  0
LINE
  5
C9
330
1E
100
AcDbEntity
  8
0
100
AcDbLine
 10
13.21299999999999
 20
102.381
 30
0.0
 11
15.258
 21
101.6581999999999
 31
0.0
  0
LINE
  5
CA
330
1E
100
AcDbEntity
  8
0
100
AcDbLine
 10
15.258
 20
101.6581999999999
 30
0.0
 11
17.658
 21
100.7647999999999
 31
0.0
  0
LINE
  5
CB
330
1E
100
AcDbEntity
  8
0
100
AcDbLine
 10
9.242000000000009
 20
103.6839999999999
 30
0.0
 11
11.319
 21
103.0183999999999
 31
0.0
  0
LINE
  5
CC
330
1E
100
AcDbEntity
  8
0
100
AcDbLine
 10
17.658
 20
100.7647999999999
 30
0.0
 11
20.047
 21
99.8262
 31
0.0
  0
LINE
  5
CD
330
1E
100
AcDbEntity
  8
0
100
AcDbLine
 10
7.639000000000009
 20
104.1738999999999
 30
0.0
 11
9.242000000000009
 21
103.6839999999999
 31
0.0
  0
LINE
  5
CE
330
1E
100
AcDbEntity
  8
0
100
AcDbLine
 10
29.496
 20
95.61008000000001
 30
0.0
 11
30.87
 21
95.08005
 31
0.0
  0
LINE
  5
D0
330
1E
100
AcDbEntity
  8
0
100
AcDbLine
 10
55.9787
 20
90.94320999999998
 30
0.0
 11
57.5457
 21
91.76235
 31
0.0
  0
LINE
  5
D1
330
1E
100
AcDbEntity
  8
0
100
AcDbLine
 10
59.9001
 20
92.73909000000001
 30
0.0
 11
62.4215
 21
93.41165999999999
 31
0.0
  0
LINE
  5
D2
330
1E
100
AcDbEntity
  8
0
100
AcDbLine
 10
57.5457
 20
91.76235
 30
0.0
 11
59.9001
 21
92.73909000000001
 31
0.0
  0
LINE
  5
D3
330
1E
100
AcDbEntity
  8
0
100
AcDbLine
 10
45.42399999999999
 20
91.07873000000001
 30
0.0
 11
53.5632
 21
89.43845000000001
 31
0.0
  0
LINE
  5
D4
330
1E
100
AcDbEntity
  8
0
100
AcDbLine
 10
39.213
 20
92.63367999999999
 30
0.0
 11
45.42399999999999
 21
91.07873000000001
 31
0.0
  0
LINE
  5
D5
330
1E
100
AcDbEntity
  8
0
100
AcDbLine
 10
0.0350000000000055
 20
107.3249
 30
0.0
 11
0.228000000000007
 21
107.0288
 31
0.0
  0
LINE
  5
D6
330
1E
100
AcDbEntity
  8
0
100
AcDbLine
 10
0.228000000000007
 20
107.0288
 30
0.0
 11
0.430000000000009
 21
106.8632
 31
0.0
  0
LINE
  5
D7
330
1E
100
AcDbEntity
  8
0
100
AcDbLine
 10
0.430000000000009
 20
106.8632
 30
0.0
 11
0.958000000000009
 21
106.6132
 31
0.0
  0
LINE
  5
D8
330
1E
100
AcDbEntity
  8
0
100
AcDbLine
 10
0.000000000000008
 20
107.6441999999999
 30
0.0
 11
0.0730000000000093
 21
107.8508999999999
 31
0.0
  0
LINE
  5
D9
330
1E
100
AcDbEntity
  8
0
100
AcDbLine
 10
0.000000000000008
 20
107.6441999999999
 30
0.0
 11
0.0350000000000055
 21
107.3249
 31
0.0
  0
LINE
  5
DA
330
1E
100
AcDbEntity
  8
0
100
AcDbLine
 10
2.422000000000009
 20
109.9690999999999
 30
0.0
 11
4.559000000000009
 21
111.5982999999999
 31
0.0
  0
LINE
  5
DB
330
1E
100
AcDbEntity
  8
0
100
AcDbLine
 10
0.4290000000000071
 20
108.2524999999999
 30
0.0
 11
2.422000000000009
 21
109.9690999999999
 31
0.0
  0
LINE
  5
DC
330
1E
100
AcDbEntity
  8
0
100
AcDbLine
 10
4.559000000000009
 20
111.5982999999999
 30
0.0
 11
6.822000000000009
 21
113.1221
 31
0.0
  0
LINE
  5
DD
330
1E
100
AcDbEntity
  8
0
100
AcDbLine
 10
9.195000000000009
 20
114.5245
 30
0.0
 11
11.663
 21
115.7903
 31
0.0
  0
LINE
  5
E1
330
1E
100
AcDbEntity
  8
0
100
AcDbLine
 10
11.663
 20
115.7903
 30
0.0
 11
14.211
 21
116.9146
 31
0.0
  0
LINE
  5
E3
330
1E
100
AcDbEntity
  8
0
100
AcDbLine
 10
6.822000000000009
 20
113.1221
 30
0.0
 11
9.195000000000009
 21
114.5245
 31
0.0
  0
LINE
  5
E4
330
1E
100
AcDbEntity
  8
0
100
AcDbLine
 10
23.063
 20
119.5818999999999
 30
0.0
 11
26.66199999999999
 21
120.2031999999999
 31
0.0
  0
LINE
  5
E5
330
1E
100
AcDbEntity
  8
0
100
AcDbLine
 10
19.477
 20
118.7124999999999
 30
0.0
 11
23.063
 21
119.5818999999999
 31
0.0
  0
LINE
  5
E6
330
1E
100
AcDbEntity
  8
0
100
AcDbLine
 10
16.82099999999999
 20
117.8884
 30
0.0
 11
19.477
 21
118.7124999999999
 31
0.0
  0
LINE
  5
E7
330
1E
100
AcDbEntity
  8
0
100
AcDbLine
 10
26.66199999999999
 20
120.2031999999999
 30
0.0
 11
31.41099999999999
 21
120.6941
 31
0.0
  0
LINE
  5
ED
330
1E
100
AcDbEntity
  8
0
100
AcDbLine
 10
14.211
 20
116.9146
 30
0.0
 11
16.82099999999999
 21
117.8884
 31
0.0
  0
LINE
  5
F0
330
1E
100
AcDbEntity
  8
0
100
AcDbLine
 10
60.16149999999999
 20
120.899295383728
 30
0.0
 11
60.16149999999999
 21
122.0906999999999
 31
0.0
  0
LINE
  5
F1
330
1E
100
AcDbEntity
  8
0
100
AcDbLine
 10
60.6596
 20
120.8989
 30
0.0
 11
61.7179
 21
120.8909
 31
0.0
  0
LINE
  5
F2
330
1E
100
AcDbEntity
  8
0
100
AcDbLine
 10
59.9141
 20
120.9059
 30
0.0
 11
60.6596
 21
120.8989
 31
0.0
  0
LINE
  5
F3
330
1E
100
AcDbEntity
  8
0
100
AcDbLine
 10
59.6593
 20
120.9089
 30
0.0
 11
59.9141
 21
120.9059
 31
0.0
  0
LINE
  5
F4
330
1E
100
AcDbEntity
  8
0
100
AcDbLine
 10
57.16149999999999
 20
139.6287
 30
0.0
 11
57.16149999999999
 21
132.0907
 31
0.0
  0
LINE
  5
F5
330
1E
100
AcDbEntity
  8
0
100
AcDbLine
 10
57.16149999999999
 20
139.6287
 30
0.0
 11
57.2939
 21
139.9367
 31
0.0
  0
LINE
  5
F6
330
1E
100
AcDbEntity
  8
0
100
AcDbLine
 10
58.1615
 20
132.0907
 30
0.0
 11
58.1615
 21
122.0906999999999
 31
0.0
  0
LINE
  5
F7
330
1E
100
AcDbEntity
  8
0
100
AcDbLine
 10
58.1615
 20
132.0907
 30
0.0
 11
58.4439
 21
132.0907
 31
0.0
  0
LINE
  5
F8
330
1E
100
AcDbEntity
  8
0
100
AcDbLine
 10
58.1615
 20
122.0906999999999
 30
0.0
 11
58.4439
 21
122.0906999999999
 31
0.0
  0
LINE
  5
F9
330
1E
100
AcDbEntity
  8
0
100
AcDbLine
 10
58.1615
 20
122.0906999999999
 30
0.0
 11
58.1615
 21
132.0907
 31
0.0
  0
LINE
  5
FA
330
1E
100
AcDbEntity
  8
0
100
AcDbLine
 10
59.24389999999999
 20
122.0906999999999
 30
0.0
 11
60.5144
 21
122.0906999999999
 31
0.0
  0
LINE
  5
FB
330
1E
100
AcDbEntity
  8
0
100
AcDbLine
 10
59.24389999999999
 20
122.0906999999999
 30
0.0
 11
60.16149999999999
 21
122.0906999999999
 31
0.0
  0
LINE
  5
FC
330
1E
100
AcDbEntity
  8
0
100
AcDbLine
 10
59.24389999999999
 20
132.0907
 30
0.0
 11
60.5144
 21
132.0907
 31
0.0
  0
LINE
  5
FD
330
1E
100
AcDbEntity
  8
0
100
AcDbLine
 10
58.4439
 20
132.0907
 30
0.0
 11
59.24389999999999
 21
132.0907
 31
0.0
  0
LINE
  5
FE
330
1E
100
AcDbEntity
  8
0
100
AcDbLine
 10
58.4439
 20
122.0906999999999
 30
0.0
 11
59.24389999999999
 21
122.0906999999999
 31
0.0
  0
LINE
  5
FF
330
1E
100
AcDbEntity
  8
0
100
AcDbLine
 10
60.16149999999999
 20
122.0906999999999
 30
0.0
 11
60.16149999999999
 21
120.899295383728
 31
0.0
  0
LINE
  5
100
330
1E
100
AcDbEntity
  8
0
100
AcDbLine
 10
60.5144
 20
132.0907
 30
0.0
 11
62.185
 21
132.0907
 31
0.0
  0
LINE
  5
101
330
1E
100
AcDbEntity
  8
0
100
AcDbLine
 10
60.5144
 20
122.0906999999999
 30
0.0
 11
62.185
 21
122.0906999999999
 31
0.0
  0
LINE
  5
102
330
1E
100
AcDbEntity
  8
0
100
AcDbLine
 10
59.80859999999999
 20
132.0907
 30
0.0
 11
61.688
 21
132.0907
 31
0.0
  0
LINE
  5
103
330
1E
100
AcDbEntity
  8
0
100
AcDbLine
 10
61.688
 20
132.0907
 30
0.0
 11
63.8586
 21
132.0907
 31
0.0
  0
LINE
  5
104
330
1E
100
AcDbEntity
  8
0
100
AcDbLine
 10
58.3791
 20
132.0907
 30
0.0
 11
59.80859999999999
 21
132.0907
 31
0.0
  0
LINE
  5
105
330
1E
100
AcDbEntity
  8
0
100
AcDbLine
 10
57.4791
 20
132.0907
 30
0.0
 11
58.3791
 21
132.0907
 31
0.0
  0
LINE
  5
106
330
1E
100
AcDbEntity
  8
0
100
AcDbLine
 10
57.4791
 20
132.0907
 30
0.0
 11
58.1615
 21
132.0907
 31
0.0
  0
LINE
  5
107
330
1E
100
AcDbEntity
  8
0
100
AcDbLine
 10
57.16149999999999
 20
132.0907
 30
0.0
 11
57.4791
 21
132.0907
 31
0.0
  0
LINE
  5
108
330
1E
100
AcDbEntity
  8
0
100
AcDbLine
 10
57.16149999999999
 20
132.0907
 30
0.0
 11
57.16149999999999
 21
139.6287
 31
0.0
  0
LINE
  5
109
330
1E
100
AcDbEntity
  8
0
100
AcDbLine
 10
40.377
 20
120.915
 30
0.0
 11
59.6593
 21
120.9089
 31
0.0
  0
LINE
  5
10A
330
1E
100
AcDbEntity
  8
0
100
AcDbLine
 10
62.185
 20
132.0907
 30
0.0
 11
64.1144
 21
132.0907
 31
0.0
  0
LINE
  5
10B
330
1E
100
AcDbEntity
  8
0
100
AcDbLine
 10
62.185
 20
122.0906999999999
 30
0.0
 11
64.1144
 21
122.0906999999999
 31
0.0
  0
LINE
  5
10C
330
1E
100
AcDbEntity
  8
0
100
AcDbLine
 10
61.7179
 20
120.8909
 30
0.0
 11
63.0671
 21
120.8828
 31
0.0
  0
LINE
  5
10D
330
1E
100
AcDbEntity
  8
0
100
AcDbLine
 10
34.50199999999999
 20
120.8486999999999
 30
0.0
 11
40.377
 21
120.915
 31
0.0
  0
LINE
  5
10E
330
1E
100
AcDbEntity
  8
0
100
AcDbLine
 10
31.41099999999999
 20
120.6941
 30
0.0
 11
34.50199999999999
 21
120.8486999999999
 31
0.0
  0
LINE
  5
10F
330
1E
100
AcDbEntity
  8
0
100
AcDbLine
 10
0.0730000000000093
 20
107.8508999999999
 30
0.0
 11
0.4290000000000071
 21
108.2524999999999
 31
0.0
  0
LINE
  5
110
330
1E
100
AcDbEntity
  8
0
100
AcDbLine
 10
63.0671
 20
120.8828
 30
0.0
 11
64.6171
 21
120.8768
 31
0.0
  0
LINE
  5
111
330
1E
100
AcDbEntity
  8
0
100
AcDbLine
 10
62.4215
 20
93.41165999999999
 30
0.0
 11
64.14039999999999
 21
93.62749
 31
0.0
  0
LINE
  5
112
330
1E
100
AcDbEntity
  8
0
100
AcDbLine
 10
60.6488
 20
90.43452
 30
0.0
 11
63.2888
 21
90.43452
 31
0.0
  0
LINE
  5
113
330
1E
100
AcDbEntity
  8
0
100
AcDbLine
 10
64.1144
 20
132.0907
 30
0.0
 11
66.16150000000001
 21
132.0907
 31
0.0
  0
LINE
  5
114
330
1E
100
AcDbEntity
  8
0
100
AcDbLine
 10
64.1144
 20
122.0906999999999
 30
0.0
 11
66.16150000000001
 21
122.0906999999999
 31
0.0
  0
LINE
  5
115
330
1E
100
AcDbEntity
  8
0
100
AcDbLine
 10
63.8586
 20
132.0907
 30
0.0
 11
66.16150000000001
 21
132.0907
 31
0.0
  0
LINE
  5
116
330
1E
100
AcDbEntity
  8
0
100
AcDbLine
 10
64.6171
 20
120.8768
 30
0.0
 11
66.263
 21
120.8747999999999
 31
0.0
  0
LINE
  5
117
330
1E
100
AcDbEntity
  8
0
100
AcDbLine
 10
65.92019999999999
 20
93.63049999999999
 30
0.0
 11
68.4855
 21
93.22194000000001
 31
0.0
  0
LINE
  5
118
330
1E
100
AcDbEntity
  8
0
100
AcDbLine
 10
64.14039999999999
 20
93.62749
 30
0.0
 11
65.92019999999999
 21
93.63049999999999
 31
0.0
  0
LINE
  5
119
330
1E
100
AcDbEntity
  8
0
100
AcDbLine
 10
63.2888
 20
90.43452
 30
0.0
 11
66.10479999999999
 21
90.43452
 31
0.0
  0
LINE
  5
11A
330
1E
100
AcDbEntity
  8
0
100
AcDbLine
 10
66.10479999999999
 20
90.07451999999998
 30
0.0
 11
68.8768
 21
90.07451999999998
 31
0.0
  0
LINE
  5
11B
330
1E
100
AcDbEntity
  8
0
100
AcDbLine
 10
66.10479999999999
 20
90.07451999999998
 30
0.0
 11
69.10479999999999
 21
90.07451999999998
 31
0.0
  0
LINE
  5
11C
330
1E
100
AcDbEntity
  8
0
100
AcDbLine
 10
68.0048
 20
0.101200000000009
 30
0.0
 11
69.8048
 21
0.176200000000005
 31
0.0
  0
LINE
  5
11D
330
1E
100
AcDbEntity
  8
0
100
AcDbLine
 10
68.0048
 20
60.075
 30
0.0
 11
69.8048
 21
60.075
 31
0.0
  0
LINE
  5
11E
330
1E
100
AcDbEntity
  8
0
100
AcDbLine
 10
68.0048
 20
9.846700000000019
 30
0.0
 11
69.8048
 21
9.134499999999999
 31
0.0
  0
LINE
  5
11F
330
1E
100
AcDbEntity
  8
0
100
AcDbLine
 10
69.8048
 20
0.176200000000005
 30
0.0
 11
71.4048
 21
0.5510000000000151
 31
0.0
  0
LINE
  5
120
330
1E
100
AcDbEntity
  8
0
100
AcDbLine
 10
69.8048
 20
60.075
 30
0.0
 11
71.4048
 21
60.075
 31
0.0
  0
LINE
  5
121
330
1E
100
AcDbEntity
  8
0
100
AcDbLine
 10
69.8048
 20
9.134499999999999
 30
0.0
 11
71.4048
 21
8.085000000000009
 31
0.0
  0
LINE
  5
122
330
1E
100
AcDbEntity
  8
0
100
AcDbLine
 10
71.4048
 20
0.5510000000000151
 30
0.0
 11
72.6048
 21
1.22570000000001
 31
0.0
  0
LINE
  5
123
330
1E
100
AcDbEntity
  8
0
100
AcDbLine
 10
71.4048
 20
60.075
 30
0.0
 11
72.6048
 21
60.075
 31
0.0
  0
LINE
  5
124
330
1E
100
AcDbEntity
  8
0
100
AcDbLine
 10
71.4048
 20
8.085000000000009
 30
0.0
 11
72.6048
 21
6.885500000000009
 31
0.0
  0
LINE
  5
125
330
1E
100
AcDbEntity
  8
0
100
AcDbLine
 10
71.3048
 20
60.075
 30
0.0
 11
73.50480000000001
 21
60.075
 31
0.0
  0
LINE
  5
126
330
1E
100
AcDbEntity
  8
0
100
AcDbLine
 10
69.10479999999999
 20
90.07451999999998
 30
0.0
 11
71.8048
 21
90.07451999999998
 31
0.0
  0
LINE
  5
127
330
1E
100
AcDbEntity
  8
0
100
AcDbLine
 10
68.8048
 20
60.075
 30
0.0
 11
71.3048
 21
60.075
 31
0.0
  0
LINE
  5
128
330
1E
100
AcDbEntity
  8
0
100
AcDbLine
 10
68.8768
 20
90.07451999999998
 30
0.0
 11
69.10479999999999
 21
90.07451999999998
 31
0.0
  0
LINE
  5
129
330
1E
100
AcDbEntity
  8
0
100
AcDbLine
 10
73.3048
 20
2.35020000000002
 30
0.0
 11
73.60479999999999
 21
4.336700000000019
 31
0.0
  0
LINE
  5
12A
330
1E
100
AcDbEntity
  8
0
100
AcDbLine
 10
72.6048
 20
1.22570000000001
 30
0.0
 11
73.3048
 21
2.35020000000002
 31
0.0
  0
LINE
  5
12B
330
1E
100
AcDbEntity
  8
0
100
AcDbLine
 10
73.3048
 20
5.686100000000009
 30
0.0
 11
73.60479999999999
 21
4.336700000000019
 31
0.0
  0
LINE
  5
12C
330
1E
100
AcDbEntity
  8
0
100
AcDbLine
 10
73.3048
 20
60.075
 30
0.0
 11
73.60479999999999
 21
60.075
 31
0.0
  0
LINE
  5
12D
330
1E
100
AcDbEntity
  8
0
100
AcDbLine
 10
72.6048
 20
60.075
 30
0.0
 11
73.3048
 21
60.075
 31
0.0
  0
LINE
  5
12E
330
1E
100
AcDbEntity
  8
0
100
AcDbLine
 10
72.6048
 20
6.885500000000009
 30
0.0
 11
73.3048
 21
5.686100000000009
 31
0.0
  0
LINE
  5
12F
330
1E
100
AcDbEntity
  8
0
100
AcDbLine
 10
73.60479999999999
 20
4.336700000000019
 30
0.0
 11
73.60479999999999
 21
60.075
 31
0.0
  0
LINE
  5
130
330
1E
100
AcDbEntity
  8
0
100
AcDbLine
 10
73.50480000000001
 20
60.075
 30
0.0
 11
75.2048
 21
60.075
 31
0.0
  0
LINE
  5
131
330
1E
100
AcDbEntity
  8
0
100
AcDbLine
 10
71.8048
 20
90.07451999999998
 30
0.0
 11
74.20480000000001
 21
90.07451999999998
 31
0.0
  0
LINE
  5
132
330
1E
100
AcDbEntity
  8
0
100
AcDbLine
 10
76.60479999999999
 20
60.075
 30
0.0
 11
77.5263937265209
 21
87.7223694306377
 31
0.0
  0
LINE
  5
133
330
1E
100
AcDbEntity
  8
0
100
AcDbLine
 10
76.2048
 20
60.075
 30
0.0
 11
76.60479999999999
 21
60.075
 31
0.0
  0
LINE
  5
134
330
1E
100
AcDbEntity
  8
0
100
AcDbLine
 10
77.5263937265209
 20
87.7223694306377
 30
0.0
 11
77.83750000000001
 21
87.42473999999999
 31
0.0
  0
LINE
  5
135
330
1E
100
AcDbEntity
  8
0
100
AcDbLine
 10
91.1948508981048
 20
86.22747262857869
 30
0.0
 11
91.4447
 21
86.21909999999999
 31
0.0
  0
LINE
  5
136
330
1E
100
AcDbEntity
  8
0
100
AcDbLine
 10
91.0797882589266
 20
86.23008705419598
 30
0.0
 11
91.4447
 21
86.21909999999999
 31
0.0
  0
LINE
  5
137
330
1E
100
AcDbEntity
  8
0
100
AcDbLine
 10
101.278
 20
86.07460000000001
 30
0.0
 11
111.06
 21
86.0013
 31
0.0
  0
LINE
  5
139
330
1E
100
AcDbEntity
  8
0
100
AcDbLine
 10
94.38970000000001
 20
86.16889999999999
 30
0.0
 11
101.278
 21
86.07460000000001
 31
0.0
  0
LINE
  5
13A
330
1E
100
AcDbEntity
  8
0
100
AcDbLine
 10
91.8274
 20
86.21309999999999
 30
0.0
 11
94.38970000000001
 21
86.16889999999999
 31
0.0
  0
LINE
  5
13B
330
1E
100
AcDbEntity
  8
0
100
AcDbLine
 10
91.4447
 20
86.21909999999999
 30
0.0
 11
91.8274
 21
86.21309999999999
 31
0.0
  0
LINE
  5
13C
330
1E
100
AcDbEntity
  8
0
100
AcDbLine
 10
91.4447
 20
86.21909999999999
 30
0.0
 11
91.7805273821976
 21
86.2141650283498
 31
0.0
  0
LINE
  5
13D
330
1E
100
AcDbEntity
  8
0
100
AcDbLine
 10
81.61799999999999
 20
86.5484
 30
0.0
 11
83.75824128289719
 21
86.47667892838311
 31
0.0
  0
LINE
  5
13E
330
1E
100
AcDbEntity
  8
0
100
AcDbLine
 10
81.61799999999999
 20
86.5484
 30
0.0
 11
84.1744
 21
86.43799999999998
 31
0.0
  0
LINE
  5
13F
330
1E
100
AcDbEntity
  8
0
100
AcDbLine
 10
81.61799999999999
 20
86.5484
 30
0.0
 11
83.7582412828973
 21
86.47667892838311
 31
0.0
  0
LINE
  5
140
330
1E
100
AcDbEntity
  8
0
100
AcDbLine
 10
84.1744
 20
86.43799999999998
 30
0.0
 11
86.68288040405121
 21
86.36247266819159
 31
0.0
  0
LINE
  5
141
330
1E
100
AcDbEntity
  8
0
100
AcDbLine
 10
84.1744
 20
86.43799999999998
 30
0.0
 11
86.7307
 21
86.3466
 31
0.0
  0
LINE
  5
142
330
1E
100
AcDbEntity
  8
0
100
AcDbLine
 10
86.7307
 20
86.3466
 30
0.0
 11
89.35399999999999
 21
86.26929999999999
 31
0.0
  0
LINE
  5
143
330
1E
100
AcDbEntity
  8
0
100
AcDbLine
 10
89.35399999999999
 20
86.26929999999999
 30
0.0
 11
91.4447
 21
86.21909999999999
 31
0.0
  0
LINE
  5
144
330
1E
100
AcDbEntity
  8
0
100
AcDbLine
 10
78.547
 20
86.706
 30
0.0
 11
81.61799999999999
 21
86.5484
 31
0.0
  0
LINE
  5
145
330
1E
100
AcDbEntity
  8
0
100
AcDbLine
 10
78.35309999999999
 20
86.9058
 30
0.0
 11
78.547
 21
86.706
 31
0.0
  0
LINE
  5
146
330
1E
100
AcDbEntity
  8
0
100
AcDbLine
 10
77.83750000000001
 20
87.42473999999999
 30
0.0
 11
78.35309999999999
 21
86.9058
 31
0.0
  0
LINE
  5
147
330
1E
100
AcDbEntity
  8
0
100
AcDbLine
 10
77.018
 20
88.20874000000001
 30
0.0
 11
77.83750000000001
 21
87.42473999999999
 31
0.0
  0
LINE
  5
148
330
1E
100
AcDbEntity
  8
0
100
AcDbLine
 10
76.4774
 20
88.69561
 30
0.0
 11
77.018
 21
88.20874000000001
 31
0.0
  0
LINE
  5
149
330
1E
100
AcDbEntity
  8
0
100
AcDbLine
 10
75.0913
 20
89.83798
 30
0.0
 11
76.4774
 21
88.69561
 31
0.0
  0
LINE
  5
14A
330
1E
100
AcDbEntity
  8
0
100
AcDbLine
 10
74.20480000000001
 20
90.07451999999998
 30
0.0
 11
74.75433793845009
 21
90.07451999999998
 31
0.0
  0
LINE
  5
14B
330
1E
100
AcDbEntity
  8
0
100
AcDbLine
 10
75.2048
 20
60.075
 30
0.0
 11
76.2048
 21
60.075
 31
0.0
  0
LINE
  5
14C
330
1E
100
AcDbEntity
  8
0
100
AcDbLine
 10
73.60479999999999
 20
60.075
 30
0.0
 11
75.2048
 21
60.075
 31
0.0
  0
LINE
  5
14D
330
1E
100
AcDbEntity
  8
0
100
AcDbLine
 10
73.89279999999999
 20
90.43452
 30
0.0
 11
74.24150145346679
 21
90.43452
 31
0.0
  0
LINE
  5
14E
330
1E
100
AcDbEntity
  8
0
100
AcDbLine
 10
71.5608
 20
90.43452
 30
0.0
 11
73.89279999999999
 21
90.43452
 31
0.0
  0
LINE
  5
14F
330
1E
100
AcDbEntity
  8
0
100
AcDbLine
 10
66.16150000000001
 20
122.0906999999999
 30
0.0
 11
68.2086
 21
122.0906999999999
 31
0.0
  0
LINE
  5
150
330
1E
100
AcDbEntity
  8
0
100
AcDbLine
 10
66.16150000000001
 20
132.0907
 30
0.0
 11
68.4644
 21
132.0907
 31
0.0
  0
LINE
  5
151
330
1E
100
AcDbEntity
  8
0
100
AcDbLine
 10
66.16150000000001
 20
132.0907
 30
0.0
 11
68.2086
 21
132.0907
 31
0.0
  0
LINE
  5
152
330
1E
100
AcDbEntity
  8
0
100
AcDbLine
 10
68.2086
 20
132.0907
 30
0.0
 11
70.138
 21
132.0907
 31
0.0
  0
LINE
  5
153
330
1E
100
AcDbEntity
  8
0
100
AcDbLine
 10
68.2086
 20
122.0906999999999
 30
0.0
 11
70.138
 21
122.0906999999999
 31
0.0
  0
LINE
  5
154
330
1E
100
AcDbEntity
  8
0
100
AcDbLine
 10
68.4644
 20
132.0907
 30
0.0
 11
70.63500000000001
 21
132.0907
 31
0.0
  0
LINE
  5
155
330
1E
100
AcDbEntity
  8
0
100
AcDbLine
 10
70.138
 20
132.0907
 30
0.0
 11
71.8086
 21
132.0907
 31
0.0
  0
LINE
  5
156
330
1E
100
AcDbEntity
  8
0
100
AcDbLine
 10
70.138
 20
122.0906999999999
 30
0.0
 11
71.8086
 21
122.0906999999999
 31
0.0
  0
LINE
  5
157
330
1E
100
AcDbEntity
  8
0
100
AcDbLine
 10
70.63500000000001
 20
132.0907
 30
0.0
 11
72.51439999999999
 21
132.0907
 31
0.0
  0
LINE
  5
158
330
1E
100
AcDbEntity
  8
0
100
AcDbLine
 10
70.6931
 20
120.8898999999999
 30
0.0
 11
71.6685
 21
120.8968999999999
 31
0.0
  0
LINE
  5
159
330
1E
100
AcDbEntity
  8
0
100
AcDbLine
 10
69.40899999999999
 20
120.8817999999999
 30
0.0
 11
70.6931
 21
120.8898999999999
 31
0.0
  0
LINE
  5
15A
330
1E
100
AcDbEntity
  8
0
100
AcDbLine
 10
67.8979
 20
120.8768
 30
0.0
 11
69.40899999999999
 21
120.8817999999999
 31
0.0
  0
LINE
  5
15B
330
1E
100
AcDbEntity
  8
0
100
AcDbLine
 10
66.263
 20
120.8747999999999
 30
0.0
 11
67.8979
 21
120.8768
 31
0.0
  0
LINE
  5
15C
330
1E
100
AcDbEntity
  8
0
100
AcDbLine
 10
68.4855
 20
93.22194000000001
 30
0.0
 11
70.96890000000001
 21
92.34659
 31
0.0
  0
LINE
  5
15D
330
1E
100
AcDbEntity
  8
0
100
AcDbLine
 10
72.1615
 20
120.89287156641
 30
0.0
 11
72.1615
 21
122.0906999999999
 31
0.0
  0
LINE
  5
15E
330
1E
100
AcDbEntity
  8
0
100
AcDbLine
 10
72.1615
 20
120.9011237834129
 30
0.0
 11
72.2521
 21
120.9019
 31
0.0
  0
LINE
  5
15F
330
1E
100
AcDbEntity
  8
0
100
AcDbLine
 10
71.6685
 20
120.8968999999999
 30
0.0
 11
72.2521
 21
120.9019
 31
0.0
  0
LINE
  5
160
330
1E
100
AcDbEntity
  8
0
100
AcDbLine
 10
71.8086
 20
122.0906999999999
 30
0.0
 11
73.07909999999999
 21
122.0906999999999
 31
0.0
  0
LINE
  5
161
330
1E
100
AcDbEntity
  8
0
100
AcDbLine
 10
71.8086
 20
132.0907
 30
0.0
 11
73.07909999999999
 21
132.0907
 31
0.0
  0
LINE
  5
162
330
1E
100
AcDbEntity
  8
0
100
AcDbLine
 10
72.1615
 20
122.0906999999999
 30
0.0
 11
73.07909999999999
 21
122.0906999999999
 31
0.0
  0
LINE
  5
163
330
1E
100
AcDbEntity
  8
0
100
AcDbLine
 10
72.1615
 20
122.0906999999999
 30
0.0
 11
72.1615
 21
120.89287156641
 31
0.0
  0
LINE
  5
164
330
1E
100
AcDbEntity
  8
0
100
AcDbLine
 10
74.1615
 20
122.0906999999999
 30
0.0
 11
74.1615
 21
132.0907
 31
0.0
  0
LINE
  5
165
330
1E
100
AcDbEntity
  8
0
100
AcDbLine
 10
73.07909999999999
 20
122.0906999999999
 30
0.0
 11
73.8792
 21
122.0906999999999
 31
0.0
  0
LINE
  5
166
330
1E
100
AcDbEntity
  8
0
100
AcDbLine
 10
73.07909999999999
 20
132.0907
 30
0.0
 11
73.8792
 21
132.0907
 31
0.0
  0
LINE
  5
167
330
1E
100
AcDbEntity
  8
0
100
AcDbLine
 10
73.8792
 20
132.0907
 30
0.0
 11
74.1615
 21
132.0907
 31
0.0
  0
LINE
  5
168
330
1E
100
AcDbEntity
  8
0
100
AcDbLine
 10
73.8792
 20
122.0906999999999
 30
0.0
 11
74.1615
 21
122.0906999999999
 31
0.0
  0
LINE
  5
169
330
1E
100
AcDbEntity
  8
0
100
AcDbLine
 10
72.51439999999999
 20
132.0907
 30
0.0
 11
73.94379999999999
 21
132.0907
 31
0.0
  0
LINE
  5
16A
330
1E
100
AcDbEntity
  8
0
100
AcDbLine
 10
73.94379999999999
 20
132.0907
 30
0.0
 11
74.84390000000001
 21
132.0907
 31
0.0
  0
LINE
  5
16B
330
1E
100
AcDbEntity
  8
0
100
AcDbLine
 10
75.1615
 20
132.0907
 30
0.0
 11
75.1615
 21
139.6287
 31
0.0
  0
LINE
  5
16C
330
1E
100
AcDbEntity
  8
0
100
AcDbLine
 10
74.1615
 20
132.0907
 30
0.0
 11
74.84390000000001
 21
132.0907
 31
0.0
  0
LINE
  5
16D
330
1E
100
AcDbEntity
  8
0
100
AcDbLine
 10
74.1615
 20
132.0907
 30
0.0
 11
74.1615
 21
122.0906999999999
 31
0.0
  0
LINE
  5
16E
330
1E
100
AcDbEntity
  8
0
100
AcDbLine
 10
75.1615
 20
139.6287
 30
0.0
 11
75.1615
 21
132.0907
 31
0.0
  0
LINE
  5
16F
330
1E
100
AcDbEntity
  8
0
100
AcDbLine
 10
74.84390000000001
 20
132.0907
 30
0.0
 11
75.1615
 21
132.0907
 31
0.0
  0
LINE
  5
170
330
1E
100
AcDbEntity
  8
0
100
AcDbLine
 10
72.451
 20
120.9038999999999
 30
0.0
 11
81.61799999999999
 21
120.8999
 31
0.0
  0
LINE
  5
171
330
1E
100
AcDbEntity
  8
0
100
AcDbLine
 10
72.2521
 20
120.9019
 30
0.0
 11
72.451
 21
120.9038999999999
 31
0.0
  0
LINE
  5
172
330
1E
100
AcDbEntity
  8
0
100
AcDbLine
 10
70.96890000000001
 20
92.34659
 30
0.0
 11
73.3624
 21
91.05163000000001
 31
0.0
  0
LINE
  5
173
330
1E
100
AcDbEntity
  8
0
100
AcDbLine
 10
73.3624
 20
91.05163000000001
 30
0.0
 11
75.0913
 21
89.83798
 31
0.0
  0
LINE
  5
174
330
1E
100
AcDbEntity
  8
0
100
AcDbLine
 10
104.0
 20
120.8822599708879
 30
0.0
 11
104.0
 21
139.625
 31
0.0
  0
LINE
  5
175
330
1E
100
AcDbEntity
  8
0
100
AcDbLine
 10
104.7919999999999
 20
139.625
 30
0.0
 11
106.9039999999999
 21
139.625
 31
0.0
  0
LINE
  5
176
330
1E
100
AcDbEntity
  8
0
100
AcDbLine
 10
105.3199999999999
 20
139.925
 30
0.0
 11
107.4319999999999
 21
139.925
 31
0.0
  0
LINE
  5
177
330
1E
100
AcDbEntity
  8
0
100
AcDbLine
 10
104.5279999999999
 20
139.925
 30
0.0
 11
105.3199999999999
 21
139.925
 31
0.0
  0
LINE
  5
178
330
1E
100
AcDbEntity
  8
0
100
AcDbLine
 10
104.0
 20
139.625
 30
0.0
 11
104.0
 21
120.8822599708879
 31
0.0
  0
LINE
  5
179
330
1E
100
AcDbEntity
  8
0
100
AcDbLine
 10
104.0
 20
139.625
 30
0.0
 11
104.7919999999999
 21
139.625
 31
0.0
  0
LINE
  5
17A
330
1E
100
AcDbEntity
  8
0
100
AcDbLine
 10
104.0
 20
139.625
 30
0.0
 11
104.5279999999999
 21
139.925
 31
0.0
  0
LINE
  5
17B
330
1E
100
AcDbEntity
  8
0
100
AcDbLine
 10
81.61799999999999
 20
120.8999
 30
0.0
 11
150.52
 21
120.5134
 31
0.0
  0
LINE
  5
17C
330
1E
100
AcDbEntity
  8
0
100
AcDbLine
 10
68.92079999999999
 20
90.43452
 30
0.0
 11
71.5608
 21
90.43452
 31
0.0
  0
LINE
  5
17D
330
1E
100
AcDbEntity
  8
0
100
AcDbLine
 10
66.10479999999999
 20
90.43452
 30
0.0
 11
68.92079999999999
 21
90.43452
 31
0.0
  0
LINE
  5
18F
330
1E
100
AcDbEntity
  8
0
100
AcDbLine
 10
59.88800000000001
 20
139.9367
 30
0.0
 11
61.7409
 21
139.9367
 31
0.0
  0
LINE
  5
190
330
1E
100
AcDbEntity
  8
0
100
AcDbLine
 10
61.7409
 20
139.9367
 30
0.0
 11
63.885
 21
139.9367
 31
0.0
  0
LINE
  5
191
330
1E
100
AcDbEntity
  8
0
100
AcDbLine
 10
63.885
 20
139.9367
 30
0.0
 11
66.16150000000001
 21
139.9367
 31
0.0
  0
LINE
  5
192
330
1E
100
AcDbEntity
  8
0
100
AcDbLine
 10
58.485
 20
139.9367
 30
0.0
 11
59.88800000000001
 21
139.9367
 31
0.0
  0
LINE
  5
193
330
1E
100
AcDbEntity
  8
0
100
AcDbLine
 10
57.6115
 20
139.9367
 30
0.0
 11
58.485
 21
139.9367
 31
0.0
  0
LINE
  5
194
330
1E
100
AcDbEntity
  8
0
100
AcDbLine
 10
57.2939
 20
139.9367
 30
0.0
 11
57.6115
 21
139.9367
 31
0.0
  0
LINE
  5
195
330
1E
100
AcDbEntity
  8
0
100
AcDbLine
 10
57.2939
 20
139.9367
 30
0.0
 11
57.5586
 21
140.0906999999999
 31
0.0
  0
LINE
  5
196
330
1E
100
AcDbEntity
  8
0
100
AcDbLine
 10
70.58209999999999
 20
139.9367
 30
0.0
 11
72.435
 21
139.9367
 31
0.0
  0
LINE
  5
197
330
1E
100
AcDbEntity
  8
0
100
AcDbLine
 10
68.438
 20
139.9367
 30
0.0
 11
70.58209999999999
 21
139.9367
 31
0.0
  0
LINE
  5
198
330
1E
100
AcDbEntity
  8
0
100
AcDbLine
 10
66.16150000000001
 20
139.9367
 30
0.0
 11
68.438
 21
139.9367
 31
0.0
  0
LINE
  5
199
330
1E
100
AcDbEntity
  8
0
100
AcDbLine
 10
72.435
 20
139.9367
 30
0.0
 11
73.838
 21
139.9367
 31
0.0
  0
LINE
  5
19A
330
1E
100
AcDbEntity
  8
0
100
AcDbLine
 10
73.838
 20
139.9367
 30
0.0
 11
74.7115
 21
139.9367
 31
0.0
  0
LINE
  5
19B
330
1E
100
AcDbEntity
  8
0
100
AcDbLine
 10
74.7115
 20
139.9367
 30
0.0
 11
75.02909999999999
 21
139.9367
 31
0.0
  0
LINE
  5
19C
330
1E
100
AcDbEntity
  8
0
100
AcDbLine
 10
60.0733
 20
140.0906999999999
 30
0.0
 11
61.8733
 21
140.0906999999999
 31
0.0
  0
LINE
  5
19D
330
1E
100
AcDbEntity
  8
0
100
AcDbLine
 10
61.8733
 20
140.0906999999999
 30
0.0
 11
63.938
 21
140.0906999999999
 31
0.0
  0
LINE
  5
19E
330
1E
100
AcDbEntity
  8
0
100
AcDbLine
 10
63.938
 20
140.0906999999999
 30
0.0
 11
66.16150000000001
 21
140.0906999999999
 31
0.0
  0
LINE
  5
19F
330
1E
100
AcDbEntity
  8
0
100
AcDbLine
 10
58.7233
 20
140.0906999999999
 30
0.0
 11
60.0733
 21
140.0906999999999
 31
0.0
  0
LINE
  5
1A0
330
1E
100
AcDbEntity
  8
0
100
AcDbLine
 10
57.8762
 20
140.0906999999999
 30
0.0
 11
58.7233
 21
140.0906999999999
 31
0.0
  0
LINE
  5
1A1
330
1E
100
AcDbEntity
  8
0
100
AcDbLine
 10
57.5586
 20
140.0906999999999
 30
0.0
 11
57.8762
 21
140.0906999999999
 31
0.0
  0
LINE
  5
1A2
330
1E
100
AcDbEntity
  8
0
100
AcDbLine
 10
70.44970000000001
 20
140.0906999999999
 30
0.0
 11
72.2497
 21
140.0906999999999
 31
0.0
  0
LINE
  5
1A3
330
1E
100
AcDbEntity
  8
0
100
AcDbLine
 10
68.385
 20
140.0906999999999
 30
0.0
 11
70.44970000000001
 21
140.0906999999999
 31
0.0
  0
LINE
  5
1A4
330
1E
100
AcDbEntity
  8
0
100
AcDbLine
 10
66.16150000000001
 20
140.0906999999999
 30
0.0
 11
68.385
 21
140.0906999999999
 31
0.0
  0
LINE
  5
1A5
330
1E
100
AcDbEntity
  8
0
100
AcDbLine
 10
72.2497
 20
140.0906999999999
 30
0.0
 11
73.5997
 21
140.0906999999999
 31
0.0
  0
LINE
  5
1A6
330
1E
100
AcDbEntity
  8
0
100
AcDbLine
 10
73.5997
 20
140.0906999999999
 30
0.0
 11
74.44679999999999
 21
140.0906999999999
 31
0.0
  0
LINE
  5
1A7
330
1E
100
AcDbEntity
  8
0
100
AcDbLine
 10
74.44679999999999
 20
140.0906999999999
 30
0.0
 11
74.7644
 21
140.0906999999999
 31
0.0
  0
LINE
  5
1A8
330
1E
100
AcDbEntity
  8
0
100
AcDbLine
 10
74.7644
 20
140.0906999999999
 30
0.0
 11
75.02909999999999
 21
139.9367
 31
0.0
  0
LINE
  5
1A9
330
1E
100
AcDbEntity
  8
0
100
AcDbLine
 10
75.02909999999999
 20
139.9367
 30
0.0
 11
75.1615
 21
139.6287
 31
0.0
  0
LINE
  5
252
330
1E
100
AcDbEntity
  8
0
100
AcDbLine
 10
111.06
 20
86.0013
 30
0.0
 11
114.315
 21
85.9722
 31
0.0
  0
LINE
  5
253
330
1E
100
AcDbEntity
  8
0
100
AcDbLine
 10
107.4319999999999
 20
139.925
 30
0.0
 11
110.8639999999999
 21
139.925
 31
0.0
  0
LINE
  5
254
330
1E
100
AcDbEntity
  8
0
100
AcDbLine
 10
106.9039999999999
 20
139.625
 30
0.0
 11
110.4239999999999
 21
139.625
 31
0.0
  0
LINE
  5
256
330
1E
100
AcDbEntity
  8
0
100
AcDbLine
 10
110.8639999999999
 20
139.925
 30
0.0
 11
115.352
 21
139.925
 31
0.0
  0
LINE
  5
257
330
1E
100
AcDbEntity
  8
0
100
AcDbLine
 10
110.4239999999999
 20
139.625
 30
0.0
 11
115.0879999999999
 21
139.625
 31
0.0
  0
LINE
  5
25D
330
1E
100
AcDbEntity
  8
0
100
AcDbLine
 10
115.0879999999999
 20
139.625
 30
0.0
 11
120.368
 21
139.625
 31
0.0
  0
LINE
  5
25E
330
1E
100
AcDbEntity
  8
0
100
AcDbLine
 10
114.315
 20
85.9722
 30
0.0
 11
137.416
 21
86.01130000000001
 31
0.0
  0
LINE
  5
261
330
1E
100
AcDbEntity
  8
0
100
AcDbLine
 10
115.352
 20
139.925
 30
0.0
 11
120.456
 21
139.925
 31
0.0
  0
LINE
  5
262
330
1E
100
AcDbEntity
  8
0
100
AcDbLine
 10
120.456
 20
139.925
 30
0.0
 11
126.0
 21
139.925
 31
0.0
  0
LINE
  5
263
330
1E
100
AcDbEntity
  8
0
100
AcDbLine
 10
120.368
 20
139.625
 30
0.0
 11
126.0
 21
139.625
 31
0.0
  0
LINE
  5
269
330
1E
100
AcDbEntity
  8
0
100
AcDbLine
 10
126.0
 20
139.925
 30
0.0
 11
131.5439999999999
 21
139.925
 31
0.0
  0
LINE
  5
26A
330
1E
100
AcDbEntity
  8
0
100
AcDbLine
 10
126.0
 20
139.625
 30
0.0
 11
131.632
 21
139.625
 31
0.0
  0
LINE
  5
26D
330
1E
100
AcDbEntity
  8
0
100
AcDbLine
 10
131.5439999999999
 20
139.925
 30
0.0
 11
136.6479999999999
 21
139.925
 31
0.0
  0
LINE
  5
26E
330
1E
100
AcDbEntity
  8
0
100
AcDbLine
 10
136.6479999999999
 20
139.925
 30
0.0
 11
141.1359999999999
 21
139.925
 31
0.0
  0
LINE
  5
26F
330
1E
100
AcDbEntity
  8
0
100
AcDbLine
 10
131.632
 20
139.625
 30
0.0
 11
136.912
 21
139.625
 31
0.0
  0
LINE
  5
270
330
1E
100
AcDbEntity
  8
0
100
AcDbLine
 10
141.1359999999999
 20
139.925
 30
0.0
 11
144.5679999999999
 21
139.925
 31
0.0
  0
LINE
  5
271
330
1E
100
AcDbEntity
  8
0
100
AcDbLine
 10
144.5679999999999
 20
139.925
 30
0.0
 11
146.68
 21
139.925
 31
0.0
  0
LINE
  5
272
330
1E
100
AcDbEntity
  8
0
100
AcDbLine
 10
136.912
 20
139.625
 30
0.0
 11
141.5759999999999
 21
139.625
 31
0.0
  0
LINE
  5
273
330
1E
100
AcDbEntity
  8
0
100
AcDbLine
 10
141.5759999999999
 20
139.625
 30
0.0
 11
145.096
 21
139.625
 31
0.0
  0
LINE
  5
274
330
1E
100
AcDbEntity
  8
0
100
AcDbLine
 10
145.096
 20
139.625
 30
0.0
 11
147.208
 21
139.625
 31
0.0
  0
LINE
  5
275
330
1E
100
AcDbEntity
  8
0
100
AcDbLine
 10
137.416
 20
86.01130000000001
 30
0.0
 11
150.52
 21
86.34359999999999
 31
0.0
  0
LINE
  5
286
330
1E
100
AcDbEntity
  8
0
100
AcDbLine
 10
169.0
 20
71.5917
 30
0.0
 11
169.5
 21
69.5917
 31
0.0
  0
LINE
  5
288
330
1E
100
AcDbEntity
  8
0
100
AcDbLine
 10
169.5
 20
79.325
 30
0.0
 11
169.5
 21
74.125
 31
0.0
  0
LINE
  5
289
330
1E
100
AcDbEntity
  8
0
100
AcDbLine
 10
169.5
 20
79.325
 30
0.0
 11
169.5
 21
86.3917
 31
0.0
  0
LINE
  5
28A
330
1E
100
AcDbEntity
  8
0
100
AcDbLine
 10
169.5
 20
74.125
 30
0.0
 11
169.5
 21
70.79170000000001
 31
0.0
  0
LINE
  5
28B
330
1E
100
AcDbEntity
  8
0
100
AcDbLine
 10
169.5
 20
74.125
 30
0.0
 11
169.5
 21
79.325
 31
0.0
  0
LINE
  5
28C
330
1E
100
AcDbEntity
  8
0
100
AcDbLine
 10
169.5
 20
70.79170000000001
 30
0.0
 11
169.5
 21
69.5917
 31
0.0
  0
LINE
  5
28D
330
1E
100
AcDbEntity
  8
0
100
AcDbLine
 10
169.5
 20
70.79170000000001
 30
0.0
 11
169.5
 21
74.125
 31
0.0
  0
LINE
  5
28F
330
1E
100
AcDbEntity
  8
0
100
AcDbLine
 10
151.0
 20
86.98204999999999
 30
0.0
 11
151.0
 21
86.84549999999999
 31
0.0
  0
LINE
  5
290
330
1E
100
AcDbEntity
  8
0
100
AcDbLine
 10
151.0
 20
86.84549999999999
 30
0.0
 11
151.0
 21
86.98204999999999
 31
0.0
  0
LINE
  5
291
330
1E
100
AcDbEntity
  8
0
100
AcDbLine
 10
151.0
 20
86.98204999999999
 30
0.0
 11
151.0
 21
87.33038
 31
0.0
  0
LINE
  5
292
330
1E
100
AcDbEntity
  8
0
100
AcDbLine
 10
150.936
 20
86.59959999999999
 30
0.0
 11
151.0
 21
86.84549999999999
 31
0.0
  0
LINE
  5
293
330
1E
100
AcDbEntity
  8
0
100
AcDbLine
 10
150.762
 20
86.4169
 30
0.0
 11
150.936
 21
86.59959999999999
 31
0.0
  0
LINE
  5
294
330
1E
100
AcDbEntity
  8
0
100
AcDbLine
 10
150.52
 20
86.34359999999999
 30
0.0
 11
150.762
 21
86.4169
 31
0.0
  0
LINE
  5
2AA
330
1E
100
AcDbEntity
  8
0
100
AcDbLine
 10
151.0
 20
90.16523000000001
 30
0.0
 11
151.0
 21
88.41955
 31
0.0
  0
LINE
  5
2AD
330
1E
100
AcDbEntity
  8
0
100
AcDbLine
 10
151.0
 20
88.41955
 30
0.0
 11
151.0
 21
90.16523000000001
 31
0.0
  0
LINE
  5
2AE
330
1E
100
AcDbEntity
  8
0
100
AcDbLine
 10
151.0
 20
88.41955
 30
0.0
 11
151.0
 21
87.33038
 31
0.0
  0
LINE
  5
2AF
330
1E
100
AcDbEntity
  8
0
100
AcDbLine
 10
151.0
 20
87.33038
 30
0.0
 11
151.0
 21
88.41955
 31
0.0
  0
LINE
  5
2B0
330
1E
100
AcDbEntity
  8
0
100
AcDbLine
 10
151.0
 20
87.33038
 30
0.0
 11
151.0
 21
86.98204999999999
 31
0.0
  0
LINE
  5
2BA
330
1E
100
AcDbEntity
  8
0
100
AcDbLine
 10
164.0
 20
86.925
 30
0.0
 11
166.0
 21
88.06789999999999
 31
0.0
  0
LINE
  5
2BB
330
1E
100
AcDbEntity
  8
0
100
AcDbLine
 10
158.0
 20
86.925
 30
0.0
 11
164.0
 21
86.925
 31
0.0
  0
LINE
  5
2BC
330
1E
100
AcDbEntity
  8
0
100
AcDbLine
 10
166.0
 20
88.06789999999999
 30
0.0
 11
168.0
 21
90.3536
 31
0.0
  0
LINE
  5
2BD
330
1E
100
AcDbEntity
  8
0
100
AcDbLine
 10
155.0
 20
86.925
 30
0.0
 11
158.0
 21
86.925
 31
0.0
  0
LINE
  5
2CB
330
1E
100
AcDbEntity
  8
0
100
AcDbLine
 10
168.0
 20
111.8392999999999
 30
0.0
 11
168.0
 21
113.7820999999999
 31
0.0
  0
LINE
  5
2CC
330
1E
100
AcDbEntity
  8
0
100
AcDbLine
 10
168.0
 20
111.8392999999999
 30
0.0
 11
168.0
 21
109.2107
 31
0.0
  0
LINE
  5
2CD
330
1E
100
AcDbEntity
  8
0
100
AcDbLine
 10
168.0
 20
113.7820999999999
 30
0.0
 11
168.0
 21
115.0392999999999
 31
0.0
  0
LINE
  5
2CE
330
1E
100
AcDbEntity
  8
0
100
AcDbLine
 10
168.0
 20
113.7820999999999
 30
0.0
 11
168.0
 21
111.8392999999999
 31
0.0
  0
LINE
  5
2CF
330
1E
100
AcDbEntity
  8
0
100
AcDbLine
 10
168.0
 20
115.0392999999999
 30
0.0
 11
168.0
 21
115.4963999999999
 31
0.0
  0
LINE
  5
2D0
330
1E
100
AcDbEntity
  8
0
100
AcDbLine
 10
168.0
 20
115.0392999999999
 30
0.0
 11
168.0
 21
113.7820999999999
 31
0.0
  0
LINE
  5
2D1
330
1E
100
AcDbEntity
  8
0
100
AcDbLine
 10
168.0
 20
115.4963999999999
 30
0.0
 11
169.0
 21
115.4963999999999
 31
0.0
  0
LINE
  5
2D2
330
1E
100
AcDbEntity
  8
0
100
AcDbLine
 10
168.0
 20
115.4963999999999
 30
0.0
 11
168.0
 21
115.0392999999999
 31
0.0
  0
LINE
  5
2D3
330
1E
100
AcDbEntity
  8
0
100
AcDbLine
 10
168.0
 20
109.2107
 30
0.0
 11
168.0
 21
111.8392999999999
 31
0.0
  0
LINE
  5
2D4
330
1E
100
AcDbEntity
  8
0
100
AcDbLine
 10
168.0
 20
109.2107
 30
0.0
 11
168.0
 21
106.125
 31
0.0
  0
LINE
  5
2D5
330
1E
100
AcDbEntity
  8
0
100
AcDbLine
 10
168.0
 20
106.125
 30
0.0
 11
168.0
 21
109.2107
 31
0.0
  0
LINE
  5
2D6
330
1E
100
AcDbEntity
  8
0
100
AcDbLine
 10
168.0
 20
106.125
 30
0.0
 11
168.0
 21
102.9249999999999
 31
0.0
  0
LINE
  5
2D9
330
1E
100
AcDbEntity
  8
0
100
AcDbLine
 10
168.0
 20
102.9249999999999
 30
0.0
 11
168.0
 21
99.725
 31
0.0
  0
LINE
  5
2DA
330
1E
100
AcDbEntity
  8
0
100
AcDbLine
 10
168.0
 20
102.9249999999999
 30
0.0
 11
168.0
 21
106.125
 31
0.0
  0
LINE
  5
2DB
330
1E
100
AcDbEntity
  8
0
100
AcDbLine
 10
168.0
 20
99.725
 30
0.0
 11
168.0
 21
96.6393
 31
0.0
  0
LINE
  5
2DC
330
1E
100
AcDbEntity
  8
0
100
AcDbLine
 10
168.0
 20
99.725
 30
0.0
 11
168.0
 21
102.9249999999999
 31
0.0
  0
LINE
  5
2DD
330
1E
100
AcDbEntity
  8
0
100
AcDbLine
 10
168.0
 20
96.6393
 30
0.0
 11
168.0
 21
94.0107
 31
0.0
  0
LINE
  5
2DE
330
1E
100
AcDbEntity
  8
0
100
AcDbLine
 10
168.0
 20
96.6393
 30
0.0
 11
168.0
 21
99.725
 31
0.0
  0
LINE
  5
2DF
330
1E
100
AcDbEntity
  8
0
100
AcDbLine
 10
168.0
 20
94.0107
 30
0.0
 11
168.0
 21
92.06789999999999
 31
0.0
  0
LINE
  5
2E0
330
1E
100
AcDbEntity
  8
0
100
AcDbLine
 10
168.0
 20
94.0107
 30
0.0
 11
168.0
 21
96.6393
 31
0.0
  0
LINE
  5
2E1
330
1E
100
AcDbEntity
  8
0
100
AcDbLine
 10
168.0
 20
92.06789999999999
 30
0.0
 11
168.0
 21
90.8107
 31
0.0
  0
LINE
  5
2E2
330
1E
100
AcDbEntity
  8
0
100
AcDbLine
 10
168.0
 20
92.06789999999999
 30
0.0
 11
168.0
 21
94.0107
 31
0.0
  0
LINE
  5
2E3
330
1E
100
AcDbEntity
  8
0
100
AcDbLine
 10
168.0
 20
90.8107
 30
0.0
 11
168.0
 21
90.3536
 31
0.0
  0
LINE
  5
2E4
330
1E
100
AcDbEntity
  8
0
100
AcDbLine
 10
168.0
 20
90.8107
 30
0.0
 11
168.0
 21
92.06789999999999
 31
0.0
  0
LINE
  5
2E8
330
1E
100
AcDbEntity
  8
0
100
AcDbLine
 10
169.0
 20
94.92499999999999
 30
0.0
 11
169.0
 21
102.9248999999999
 31
0.0
  0
LINE
  5
2E9
330
1E
100
AcDbEntity
  8
0
100
AcDbLine
 10
169.0
 20
102.9248999999999
 30
0.0
 11
169.0
 21
87.32499999999999
 31
0.0
  0
LINE
  5
2EC
330
1E
100
AcDbEntity
  8
0
100
AcDbLine
 10
169.0
 20
102.9250999999999
 30
0.0
 11
169.0
 21
110.925
 31
0.0
  0
LINE
  5
2ED
330
1E
100
AcDbEntity
  8
0
100
AcDbLine
 10
169.0
 20
115.4963999999999
 30
0.0
 11
169.0
 21
102.9250999999999
 31
0.0
  0
LINE
  5
2EE
330
1E
100
AcDbEntity
  8
0
100
AcDbLine
 10
168.0
 20
90.3536
 30
0.0
 11
169.0
 21
90.3536
 31
0.0
  0
LINE
  5
2EF
330
1E
100
AcDbEntity
  8
0
100
AcDbLine
 10
168.0
 20
90.3536
 30
0.0
 11
168.0
 21
90.8107
 31
0.0
  0
LINE
  5
2F0
330
1E
100
AcDbEntity
  8
0
100
AcDbLine
 10
153.0
 20
88.06789999999999
 30
0.0
 11
155.0
 21
86.925
 31
0.0
  0
LINE
  5
2F1
330
1E
100
AcDbEntity
  8
0
100
AcDbLine
 10
151.0
 20
90.3536
 30
0.0
 11
153.0
 21
88.06789999999999
 31
0.0
  0
LINE
  5
2F6
330
1E
100
AcDbEntity
  8
0
100
AcDbLine
 10
151.0
 20
115.4963999999999
 30
0.0
 11
153.0
 21
117.7821
 31
0.0
  0
LINE
  5
2F8
330
1E
100
AcDbEntity
  8
0
100
AcDbLine
 10
166.0
 20
117.7821
 30
0.0
 11
168.0
 21
115.4963999999999
 31
0.0
  0
LINE
  5
300
330
1E
100
AcDbEntity
  8
0
100
AcDbLine
 10
151.0
 20
90.16523000000001
 30
0.0
 11
151.0
 21
119.7033
 31
0.0
  0
LINE
  5
301
330
1E
100
AcDbEntity
  8
0
100
AcDbLine
 10
151.0
 20
119.7033
 30
0.0
 11
151.0
 21
119.9713
 31
0.0
  0
LINE
  5
302
330
1E
100
AcDbEntity
  8
0
100
AcDbLine
 10
151.0
 20
119.7033
 30
0.0
 11
151.0
 21
90.16523000000001
 31
0.0
  0
LINE
  5
303
330
1E
100
AcDbEntity
  8
0
100
AcDbLine
 10
151.0
 20
119.9713
 30
0.0
 11
151.0
 21
119.7033
 31
0.0
  0
LINE
  5
306
330
1E
100
AcDbEntity
  8
0
100
AcDbLine
 10
150.936
 20
120.2574
 30
0.0
 11
151.0
 21
120.0125
 31
0.0
  0
LINE
  5
307
330
1E
100
AcDbEntity
  8
0
100
AcDbLine
 10
150.762
 20
120.4401
 30
0.0
 11
150.936
 21
120.2574
 31
0.0
  0
LINE
  5
308
330
1E
100
AcDbEntity
  8
0
100
AcDbLine
 10
148.0
 20
120.599151269036
 30
0.0
 11
148.0
 21
139.625
 31
0.0
  0
LINE
  5
309
330
1E
100
AcDbEntity
  8
0
100
AcDbLine
 10
150.52
 20
120.5134
 30
0.0
 11
150.762
 21
120.4401
 31
0.0
  0
LINE
  5
30A
330
1E
100
AcDbEntity
  8
0
100
AcDbLine
 10
158.0
 20
118.9249999999999
 30
0.0
 11
164.0
 21
118.9249999999999
 31
0.0
  0
LINE
  5
30B
330
1E
100
AcDbEntity
  8
0
100
AcDbLine
 10
164.0
 20
118.9249999999999
 30
0.0
 11
166.0
 21
117.7821
 31
0.0
  0
LINE
  5
30C
330
1E
100
AcDbEntity
  8
0
100
AcDbLine
 10
155.0
 20
118.9249999999999
 30
0.0
 11
158.0
 21
118.9249999999999
 31
0.0
  0
LINE
  5
30D
330
1E
100
AcDbEntity
  8
0
100
AcDbLine
 10
153.0
 20
117.7821
 30
0.0
 11
155.0
 21
118.9249999999999
 31
0.0
  0
LINE
  5
30E
330
1E
100
AcDbEntity
  8
0
100
AcDbLine
 10
169.0
 20
118.525
 30
0.0
 11
169.0
 21
125.0583
 31
0.0
  0
LINE
  5
30F
330
1E
100
AcDbEntity
  8
0
100
AcDbLine
 10
169.0
 20
118.525
 30
0.0
 11
169.0
 21
115.4963999999999
 31
0.0
  0
LINE
  5
310
330
1E
100
AcDbEntity
  8
0
100
AcDbLine
 10
146.68
 20
139.925
 30
0.0
 11
147.472
 21
139.925
 31
0.0
  0
LINE
  5
311
330
1E
100
AcDbEntity
  8
0
100
AcDbLine
 10
148.0
 20
139.625
 30
0.0
 11
148.0
 21
120.599151269036
 31
0.0
  0
LINE
  5
312
330
1E
100
AcDbEntity
  8
0
100
AcDbLine
 10
147.472
 20
139.925
 30
0.0
 11
148.0
 21
139.625
 31
0.0
  0
LINE
  5
313
330
1E
100
AcDbEntity
  8
0
100
AcDbLine
 10
147.208
 20
139.625
 30
0.0
 11
148.0
 21
139.625
 31
0.0
  0
LINE
  5
314
330
1E
100
AcDbEntity
  8
0
100
AcDbLine
 10
169.0
 20
134.2582999999999
 30
0.0
 11
169.5
 21
136.2582999999999
 31
0.0
  0
LINE
  5
315
330
1E
100
AcDbEntity
  8
0
100
AcDbLine
 10
169.0
 20
133.0583
 30
0.0
 11
169.0
 21
130.125
 31
0.0
  0
LINE
  5
316
330
1E
100
AcDbEntity
  8
0
100
AcDbLine
 10
169.0
 20
125.0583
 30
0.0
 11
169.0
 21
130.125
 31
0.0
  0
LINE
  5
317
330
1E
100
AcDbEntity
  8
0
100
AcDbLine
 10
169.0
 20
125.0583
 30
0.0
 11
169.0
 21
118.525
 31
0.0
  0
LINE
  5
318
330
1E
100
AcDbEntity
  8
0
100
AcDbLine
 10
169.0
 20
130.125
 30
0.0
 11
169.0
 21
125.0583
 31
0.0
  0
LINE
  5
319
330
1E
100
AcDbEntity
  8
0
100
AcDbLine
 10
169.0
 20
130.125
 30
0.0
 11
169.0
 21
134.2582999999999
 31
0.0
  0
LINE
  5
31A
330
1E
100
AcDbEntity
  8
0
100
AcDbLine
 10
169.0
 20
115.4963999999999
 30
0.0
 11
169.0
 21
118.525
 31
0.0
  0
LINE
  5
31B
330
1E
100
AcDbEntity
  8
0
100
AcDbLine
 10
169.5
 20
102.9248999999999
 30
0.0
 11
169.5
 21
111.4582999999999
 31
0.0
  0
LINE
  5
31D
330
1E
100
AcDbEntity
  8
0
100
AcDbLine
 10
169.5
 20
111.4582999999999
 30
0.0
 11
169.5
 21
119.4582999999999
 31
0.0
  0
LINE
  5
31E
330
1E
100
AcDbEntity
  8
0
100
AcDbLine
 10
169.5
 20
111.4582999999999
 30
0.0
 11
169.5
 21
102.9248999999999
 31
0.0
  0
LINE
  5
31F
330
1E
100
AcDbEntity
  8
0
100
AcDbLine
 10
169.5
 20
119.4582999999999
 30
0.0
 11
169.5
 21
111.4582999999999
 31
0.0
  0
LINE
  5
320
330
1E
100
AcDbEntity
  8
0
100
AcDbLine
 10
169.5
 20
119.4582999999999
 30
0.0
 11
169.5
 21
126.5249999999999
 31
0.0
  0
LINE
  5
321
330
1E
100
AcDbEntity
  8
0
100
AcDbLine
 10
169.5
 20
126.5249999999999
 30
0.0
 11
169.5
 21
119.4582999999999
 31
0.0
  0
LINE
  5
322
330
1E
100
AcDbEntity
  8
0
100
AcDbLine
 10
169.5
 20
126.5249999999999
 30
0.0
 11
169.5
 21
131.725
 31
0.0
  0
LINE
  5
323
330
1E
100
AcDbEntity
  8
0
100
AcDbLine
 10
169.5
 20
136.2582999999999
 30
0.0
 11
171.0
 21
136.925
 31
0.0
  0
LINE
  5
324
330
1E
100
AcDbEntity
  8
0
100
AcDbLine
 10
169.5
 20
136.2582999999999
 30
0.0
 11
169.5
 21
135.0583
 31
0.0
  0
LINE
  5
325
330
1E
100
AcDbEntity
  8
0
100
AcDbLine
 10
169.5
 20
131.725
 30
0.0
 11
169.5
 21
135.0583
 31
0.0
  0
LINE
  5
326
330
1E
100
AcDbEntity
  8
0
100
AcDbLine
 10
169.5
 20
131.725
 30
0.0
 11
169.5
 21
126.5249999999999
 31
0.0
  0
LINE
  5
327
330
1E
100
AcDbEntity
  8
0
100
AcDbLine
 10
169.5
 20
135.0583
 30
0.0
 11
169.5
 21
131.725
 31
0.0
  0
LINE
  5
328
330
1E
100
AcDbEntity
  8
0
100
AcDbLine
 10
169.5
 20
135.0583
 30
0.0
 11
169.5
 21
136.2582999999999
 31
0.0
  0
LINE
  5
329
330
1E
100
AcDbEntity
  8
0
100
AcDbLine
 10
169.5
 20
102.9250999999999
 30
0.0
 11
169.5
 21
94.3917
 31
0.0
  0
LINE
  5
32B
330
1E
100
AcDbEntity
  8
0
100
AcDbLine
 10
169.5
 20
94.3917
 30
0.0
 11
169.5
 21
86.3917
 31
0.0
  0
LINE
  5
32C
330
1E
100
AcDbEntity
  8
0
100
AcDbLine
 10
169.5
 20
94.3917
 30
0.0
 11
169.5
 21
102.9250999999999
 31
0.0
  0
LINE
  5
32D
330
1E
100
AcDbEntity
  8
0
100
AcDbLine
 10
169.5
 20
86.3917
 30
0.0
 11
169.5
 21
79.325
 31
0.0
  0
LINE
  5
32E
330
1E
100
AcDbEntity
  8
0
100
AcDbLine
 10
169.5
 20
86.3917
 30
0.0
 11
169.5
 21
94.3917
 31
0.0
  0
LINE
  5
32F
330
1E
100
AcDbEntity
  8
0
100
AcDbLine
 10
169.0
 20
87.32499999999999
 30
0.0
 11
169.0
 21
80.79170000000001
 31
0.0
  0
LINE
  5
330
330
1E
100
AcDbEntity
  8
0
100
AcDbLine
 10
169.0
 20
71.5917
 30
0.0
 11
169.0
 21
87.32499999999999
 31
0.0
  0
LINE
  5
331
330
1E
100
AcDbEntity
  8
0
100
AcDbLine
 10
192.0
 20
68.925
 30
0.0
 11
192.0
 21
70.125
 31
0.0
  0
LINE
  5
333
330
1E
100
AcDbEntity
  8
0
100
AcDbLine
 10
192.0
 20
102.9248999999999
 30
0.0
 11
192.0
 21
111.725
 31
0.0
  0
LINE
  5
334
330
1E
100
AcDbEntity
  8
0
100
AcDbLine
 10
192.0
 20
102.9250999999999
 30
0.0
 11
192.0
 21
94.12499999999999
 31
0.0
  0
LINE
  5
335
330
1E
100
AcDbEntity
  8
0
100
AcDbLine
 10
192.0
 20
119.8582999999999
 30
0.0
 11
192.0
 21
126.9249999999999
 31
0.0
  0
LINE
  5
336
330
1E
100
AcDbEntity
  8
0
100
AcDbLine
 10
192.0
 20
119.8582999999999
 30
0.0
 11
192.0
 21
111.725
 31
0.0
  0
LINE
  5
337
330
1E
100
AcDbEntity
  8
0
100
AcDbLine
 10
192.0
 20
111.725
 30
0.0
 11
192.0
 21
119.8582999999999
 31
0.0
  0
LINE
  5
338
330
1E
100
AcDbEntity
  8
0
100
AcDbLine
 10
192.0
 20
111.725
 30
0.0
 11
192.0
 21
102.9248999999999
 31
0.0
  0
LINE
  5
339
330
1E
100
AcDbEntity
  8
0
100
AcDbLine
 10
192.0
 20
126.9249999999999
 30
0.0
 11
192.0
 21
132.3916999999999
 31
0.0
  0
LINE
  5
33A
330
1E
100
AcDbEntity
  8
0
100
AcDbLine
 10
192.0
 20
126.9249999999999
 30
0.0
 11
192.0
 21
119.8582999999999
 31
0.0
  0
LINE
  5
33B
330
1E
100
AcDbEntity
  8
0
100
AcDbLine
 10
192.0
 20
136.925
 30
0.0
 11
192.0
 21
135.725
 31
0.0
  0
LINE
  5
33C
330
1E
100
AcDbEntity
  8
0
100
AcDbLine
 10
171.0
 20
136.925
 30
0.0
 11
192.0
 21
136.925
 31
0.0
  0
LINE
  5
33D
330
1E
100
AcDbEntity
  8
0
100
AcDbLine
 10
192.0
 20
132.3916999999999
 30
0.0
 11
192.0
 21
135.725
 31
0.0
  0
LINE
  5
33E
330
1E
100
AcDbEntity
  8
0
100
AcDbLine
 10
192.0
 20
132.3916999999999
 30
0.0
 11
192.0
 21
126.9249999999999
 31
0.0
  0
LINE
  5
33F
330
1E
100
AcDbEntity
  8
0
100
AcDbLine
 10
192.0
 20
135.725
 30
0.0
 11
192.0
 21
132.3916999999999
 31
0.0
  0
LINE
  5
340
330
1E
100
AcDbEntity
  8
0
100
AcDbLine
 10
192.0
 20
135.725
 30
0.0
 11
192.0
 21
136.925
 31
0.0
  0
LINE
  5
342
330
1E
100
AcDbEntity
  8
0
100
AcDbLine
 10
192.0
 20
94.12499999999999
 30
0.0
 11
192.0
 21
85.99169999999999
 31
0.0
  0
LINE
  5
343
330
1E
100
AcDbEntity
  8
0
100
AcDbLine
 10
192.0
 20
94.12499999999999
 30
0.0
 11
192.0
 21
102.9250999999999
 31
0.0
  0
LINE
  5
344
330
1E
100
AcDbEntity
  8
0
100
AcDbLine
 10
192.0
 20
85.99169999999999
 30
0.0
 11
192.0
 21
78.925
 31
0.0
  0
LINE
  5
345
330
1E
100
AcDbEntity
  8
0
100
AcDbLine
 10
192.0
 20
85.99169999999999
 30
0.0
 11
192.0
 21
94.12499999999999
 31
0.0
  0
LINE
  5
346
330
1E
100
AcDbEntity
  8
0
100
AcDbLine
 10
192.0
 20
78.925
 30
0.0
 11
192.0
 21
73.45829999999999
 31
0.0
  0
LINE
  5
347
330
1E
100
AcDbEntity
  8
0
100
AcDbLine
 10
192.0
 20
78.925
 30
0.0
 11
192.0
 21
85.99169999999999
 31
0.0
  0
LINE
  5
348
330
1E
100
AcDbEntity
  8
0
100
AcDbLine
 10
192.0
 20
73.45829999999999
 30
0.0
 11
192.0
 21
70.125
 31
0.0
  0
LINE
  5
349
330
1E
100
AcDbEntity
  8
0
100
AcDbLine
 10
192.0
 20
73.45829999999999
 30
0.0
 11
192.0
 21
78.925
 31
0.0
  0
LINE
  5
34A
330
1E
100
AcDbEntity
  8
0
100
AcDbLine
 10
192.0
 20
70.125
 30
0.0
 11
192.0
 21
68.925
 31
0.0
  0
LINE
  5
34B
330
1E
100
AcDbEntity
  8
0
100
AcDbLine
 10
192.0
 20
70.125
 30
0.0
 11
192.0
 21
73.45829999999999
 31
0.0
  0
LINE
  5
34C
330
1E
100
AcDbEntity
  8
0
100
AcDbLine
 10
171.0
 20
68.925
 30
0.0
 11
192.0
 21
68.925
 31
0.0
  0
LINE
  5
34D
330
1E
100
AcDbEntity
  8
0
100
AcDbLine
 10
169.5
 20
69.5917
 30
0.0
 11
171.0
 21
68.925
 31
0.0
  0
LINE
  5
34E
330
1E
100
AcDbEntity
  8
0
100
AcDbLine
 10
169.5
 20
69.5917
 30
0.0
 11
169.5
 21
70.79170000000001
 31
0.0
  0
LINE
  5
3EE
330
1E
100
AcDbEntity
  8
0
100
AcDbLine
 10
75.63251315746402
 20
180.473
 30
0.0
 11
79.979513157464
 21
180.433
 31
0.0
  0
LINE
  5
3EF
330
1E
100
AcDbEntity
  8
0
100
AcDbLine
 10
75.28931315746399
 20
171.203
 30
0.0
 11
81.64971315746413
 21
170.728
 31
0.0
  0
LINE
  5
3F0
330
1E
100
AcDbEntity
  8
0
100
AcDbLine
 10
48.91451315746405
 20
183.041
 30
0.0
 11
53.20771315746402
 21
182.223
 31
0.0
  0
LINE
  5
3F1
330
1E
100
AcDbEntity
  8
0
100
AcDbLine
 10
50.29451315746405
 20
182.778
 30
0.0
 11
53.20771315746402
 21
182.223
 31
0.0
  0
LINE
  5
3F2
330
1E
100
AcDbEntity
  8
0
100
AcDbLine
 10
51.684213157464
 20
175.414
 30
0.0
 11
53.62481315746402
 21
174.678
 31
0.0
  0
LINE
  5
3F3
330
1E
100
AcDbEntity
  8
0
100
AcDbLine
 10
44.45371315746405
 20
179.262
 30
0.0
 11
45.88241315746404
 21
178.345
 31
0.0
  0
LINE
  5
3F4
330
1E
100
AcDbEntity
  8
0
100
AcDbLine
 10
45.88241315746404
 20
178.345
 30
0.0
 11
48.77081315746403
 21
176.738
 31
0.0
  0
LINE
  5
3F5
330
1E
100
AcDbEntity
  8
0
100
AcDbLine
 10
48.77081315746403
 20
176.738
 30
0.0
 11
51.684213157464
 21
175.414
 31
0.0
  0
LINE
  5
3F6
330
1E
100
AcDbEntity
  8
0
100
AcDbLine
 10
44.43871315746401
 20
184.107
 30
0.0
 11
48.91451315746405
 21
183.041
 31
0.0
  0
LINE
  5
3F7
330
1E
100
AcDbEntity
  8
0
100
AcDbLine
 10
43.037913157464
 20
180.259
 30
0.0
 11
44.45371315746405
 21
179.262
 31
0.0
  0
LINE
  5
3F8
330
1E
100
AcDbEntity
  8
0
100
AcDbLine
 10
43.51091315746401
 20
184.171
 30
0.0
 11
43.96881315746401
 21
184.213
 31
0.0
  0
LINE
  5
3F9
330
1E
100
AcDbEntity
  8
0
100
AcDbLine
 10
42.09211315746403
 20
181.902
 30
0.0
 11
42.18291315746404
 21
182.222
 31
0.0
  0
LINE
  5
3FA
330
1E
100
AcDbEntity
  8
0
100
AcDbLine
 10
42.25771315746402
 20
181.008
 30
0.0
 11
42.45831315746403
 21
180.747
 31
0.0
  0
LINE
  5
3FB
330
1E
100
AcDbEntity
  8
0
100
AcDbLine
 10
42.09011315746403
 20
181.438
 30
0.0
 11
42.09211315746403
 21
181.902
 31
0.0
  0
LINE
  5
3FC
330
1E
100
AcDbEntity
  8
0
100
AcDbLine
 10
42.09011315746403
 20
181.438
 30
0.0
 11
42.25771315746402
 21
181.008
 31
0.0
  0
LINE
  5
3FD
330
1E
100
AcDbEntity
  8
0
100
AcDbLine
 10
42.45831315746403
 20
180.747
 30
0.0
 11
43.037913157464
 21
180.259
 31
0.0
  0
LINE
  5
3FE
330
1E
100
AcDbEntity
  8
0
100
AcDbLine
 10
42.18291315746404
 20
182.222
 30
0.0
 11
42.53811315746401
 21
182.897
 31
0.0
  0
LINE
  5
3FF
330
1E
100
AcDbEntity
  8
0
100
AcDbLine
 10
42.53811315746401
 20
182.897
 30
0.0
 11
42.88831315746404
 21
183.482
 31
0.0
  0
LINE
  5
400
330
1E
100
AcDbEntity
  8
0
100
AcDbLine
 10
42.88831315746404
 20
183.482
 30
0.0
 11
43.15171315746403
 21
183.884
 31
0.0
  0
LINE
  5
401
330
1E
100
AcDbEntity
  8
0
100
AcDbLine
 10
43.15171315746403
 20
183.884
 30
0.0
 11
43.51091315746401
 21
184.171
 31
0.0
  0
LINE
  5
402
330
1E
100
AcDbEntity
  8
0
100
AcDbLine
 10
44.119913157464
 20
184.1789999999999
 30
0.0
 11
44.43871315746401
 21
184.107
 31
0.0
  0
LINE
  5
403
330
1E
100
AcDbEntity
  8
0
100
AcDbLine
 10
43.96881315746401
 20
184.213
 30
0.0
 11
44.119913157464
 21
184.1789999999999
 31
0.0
  0
LINE
  5
404
330
1E
100
AcDbEntity
  8
0
100
AcDbLine
 10
48.91451315746405
 20
183.041
 30
0.0
 11
50.29451315746405
 21
182.778
 31
0.0
  0
LINE
  5
405
330
1E
100
AcDbEntity
  8
0
100
AcDbLine
 10
63.15301315746404
 20
172.357
 30
0.0
 11
65.85581315746401
 21
171.989
 31
0.0
  0
LINE
  5
406
330
1E
100
AcDbEntity
  8
0
100
AcDbLine
 10
57.97581315746402
 20
173.383
 30
0.0
 11
60.36041315746405
 21
172.85
 31
0.0
  0
LINE
  5
407
330
1E
100
AcDbEntity
  8
0
100
AcDbLine
 10
55.56031315746401
 20
174.045
 30
0.0
 11
57.97581315746402
 21
173.383
 31
0.0
  0
LINE
  5
408
330
1E
100
AcDbEntity
  8
0
100
AcDbLine
 10
53.62471315746404
 20
174.678
 30
0.0
 11
55.56031315746401
 21
174.045
 31
0.0
  0
LINE
  5
409
330
1E
100
AcDbEntity
  8
0
100
AcDbLine
 10
60.36041315746405
 20
172.85
 30
0.0
 11
63.15301315746404
 21
172.357
 31
0.0
  0
LINE
  5
40A
330
1E
100
AcDbEntity
  8
0
100
AcDbLine
 10
71.41811315746401
 20
171.471
 30
0.0
 11
75.28931315746399
 21
171.203
 31
0.0
  0
LINE
  5
40B
330
1E
100
AcDbEntity
  8
0
100
AcDbLine
 10
65.85581315746401
 20
171.989
 30
0.0
 11
69.27801315746404
 21
171.642
 31
0.0
  0
LINE
  5
40C
330
1E
100
AcDbEntity
  8
0
100
AcDbLine
 10
69.27801315746404
 20
171.642
 30
0.0
 11
71.41811315746401
 21
171.471
 31
0.0
  0
LINE
  5
40D
330
1E
100
AcDbEntity
  8
0
100
AcDbLine
 10
64.37921315746405
 20
180.918
 30
0.0
 11
68.72821315746404
 21
180.668
 31
0.0
  0
LINE
  5
40E
330
1E
100
AcDbEntity
  8
0
100
AcDbLine
 10
56.56901315746404
 20
181.714
 30
0.0
 11
59.82161315746401
 21
181.321
 31
0.0
  0
LINE
  5
40F
330
1E
100
AcDbEntity
  8
0
100
AcDbLine
 10
53.20771315746402
 20
182.223
 30
0.0
 11
56.56901315746404
 21
181.714
 31
0.0
  0
LINE
  5
410
330
1E
100
AcDbEntity
  8
0
100
AcDbLine
 10
59.82161315746401
 20
181.321
 30
0.0
 11
62.91421315746402
 21
181.048
 31
0.0
  0
LINE
  5
411
330
1E
100
AcDbEntity
  8
0
100
AcDbLine
 10
62.91421315746402
 20
181.048
 30
0.0
 11
64.37921315746405
 21
180.918
 31
0.0
  0
LINE
  5
412
330
1E
100
AcDbEntity
  8
0
100
AcDbLine
 10
68.72821315746404
 20
180.668
 30
0.0
 11
75.63251315746402
 21
180.473
 31
0.0
  0
LINE
  5
413
330
1E
100
AcDbEntity
  8
0
100
AcDbLine
 10
126.120713157464
 20
142.455
 30
0.0
 11
127.8627131574639
 21
142.987
 31
0.0
  0
LINE
  5
414
330
1E
100
AcDbEntity
  8
0
100
AcDbLine
 10
88.20471315746402
 20
180.421
 30
0.0
 11
145.548713157464
 21
180.421
 31
0.0
  0
LINE
  5
415
330
1E
100
AcDbEntity
  8
0
100
AcDbLine
 10
103.500713157464
 20
159.721
 30
0.0
 11
104.013713157464
 21
142.918
 31
0.0
  0
LINE
  5
416
330
1E
100
AcDbEntity
  8
0
100
AcDbLine
 10
112.988713157464
 20
142.433
 30
0.0
 11
115.217713157464
 21
142.433
 31
0.0
  0
LINE
  5
417
330
1E
100
AcDbEntity
  8
0
100
AcDbLine
 10
107.643713157464
 20
142.433
 30
0.0
 11
109.174713157464
 21
142.433
 31
0.0
  0
LINE
  5
418
330
1E
100
AcDbEntity
  8
0
100
AcDbLine
 10
105.359713157464
 20
142.433
 30
0.0
 11
105.966156471418
 21
142.433
 31
0.0
  0
LINE
  5
419
330
1E
100
AcDbEntity
  8
0
100
AcDbLine
 10
104.912713157464
 20
142.433
 30
0.0
 11
105.546713157464
 21
142.433
 31
0.0
  0
LINE
  5
41A
330
1E
100
AcDbEntity
  8
0
100
AcDbLine
 10
104.013713157464
 20
142.918
 30
0.0
 11
104.084713157464
 21
142.674
 31
0.0
  0
LINE
  5
41B
330
1E
100
AcDbEntity
  8
0
100
AcDbLine
 10
104.084713157464
 20
142.674
 30
0.0
 11
104.266713157464
 21
142.497
 31
0.0
  0
LINE
  5
41C
330
1E
100
AcDbEntity
  8
0
100
AcDbLine
 10
104.266713157464
 20
142.497
 30
0.0
 11
104.511713157464
 21
142.433
 31
0.0
  0
LINE
  5
41D
330
1E
100
AcDbEntity
  8
0
100
AcDbLine
 10
104.814713157464
 20
142.433
 30
0.0
 11
105.359713157464
 21
142.433
 31
0.0
  0
LINE
  5
41E
330
1E
100
AcDbEntity
  8
0
100
AcDbLine
 10
104.633713157464
 20
142.433
 30
0.0
 11
104.814713157464
 21
142.433
 31
0.0
  0
LINE
  5
41F
330
1E
100
AcDbEntity
  8
0
100
AcDbLine
 10
104.511713157464
 20
142.433
 30
0.0
 11
104.571713157464
 21
142.433
 31
0.0
  0
LINE
  5
420
330
1E
100
AcDbEntity
  8
0
100
AcDbLine
 10
104.571713157464
 20
142.433
 30
0.0
 11
104.912713157464
 21
142.433
 31
0.0
  0
LINE
  5
421
330
1E
100
AcDbEntity
  8
0
100
AcDbLine
 10
105.746713157464
 20
141.022
 30
0.0
 11
105.966156471418
 21
142.433
 31
0.0
  0
LINE
  5
422
330
1E
100
AcDbEntity
  8
0
100
AcDbLine
 10
105.690866098028
 20
139.932721373438
 30
0.0
 11
105.746713157464
 21
141.022
 31
0.0
  0
LINE
  5
423
330
1E
100
AcDbEntity
  8
0
100
AcDbLine
 10
106.461713157464
 20
142.433
 30
0.0
 11
107.643713157464
 21
142.433
 31
0.0
  0
LINE
  5
424
330
1E
100
AcDbEntity
  8
0
100
AcDbLine
 10
105.546713157464
 20
142.433
 30
0.0
 11
106.461713157464
 21
142.433
 31
0.0
  0
LINE
  5
425
330
1E
100
AcDbEntity
  8
0
100
AcDbLine
 10
110.965713157464
 20
142.433
 30
0.0
 11
112.988713157464
 21
142.433
 31
0.0
  0
LINE
  5
426
330
1E
100
AcDbEntity
  8
0
100
AcDbLine
 10
109.174713157464
 20
142.433
 30
0.0
 11
110.965713157464
 21
142.433
 31
0.0
  0
LINE
  5
427
330
1E
100
AcDbEntity
  8
0
100
AcDbLine
 10
119.547713157464
 20
142.433
 30
0.0
 11
121.854713157464
 21
142.433
 31
0.0
  0
LINE
  5
428
330
1E
100
AcDbEntity
  8
0
100
AcDbLine
 10
117.327713157464
 20
142.433
 30
0.0
 11
119.547713157464
 21
142.433
 31
0.0
  0
LINE
  5
429
330
1E
100
AcDbEntity
  8
0
100
AcDbLine
 10
115.217713157464
 20
142.433
 30
0.0
 11
117.327713157464
 21
142.433
 31
0.0
  0
LINE
  5
42A
330
1E
100
AcDbEntity
  8
0
100
AcDbLine
 10
121.854713157464
 20
142.433
 30
0.0
 11
124.222713157464
 21
142.433
 31
0.0
  0
LINE
  5
42B
330
1E
100
AcDbEntity
  8
0
100
AcDbLine
 10
124.222713157464
 20
142.433
 30
0.0
 11
125.974713157464
 21
142.433
 31
0.0
  0
LINE
  5
42C
330
1E
100
AcDbEntity
  8
0
100
AcDbLine
 10
125.974713157464
 20
142.433
 30
0.0
 11
126.120713157464
 21
142.455
 31
0.0
  0
LINE
  5
42D
330
1E
100
AcDbEntity
  8
0
100
AcDbLine
 10
102.315713157464
 20
164.954
 30
0.0
 11
102.870713157464
 21
163.618
 31
0.0
  0
LINE
  5
42E
330
1E
100
AcDbEntity
  8
0
100
AcDbLine
 10
87.79671315746401
 20
170.212
 30
0.0
 11
90.44361315746414
 21
169.963
 31
0.0
  0
LINE
  5
42F
330
1E
100
AcDbEntity
  8
0
100
AcDbLine
 10
81.64971315746413
 20
170.728
 30
0.0
 11
87.79671315746401
 21
170.212
 31
0.0
  0
LINE
  5
430
330
1E
100
AcDbEntity
  8
0
100
AcDbLine
 10
101.586713157464
 20
166.063
 30
0.0
 11
102.315713157464
 21
164.954
 31
0.0
  0
LINE
  5
431
330
1E
100
AcDbEntity
  8
0
100
AcDbLine
 10
95.50901315746404
 20
169.192
 30
0.0
 11
96.98871315746401
 21
168.807
 31
0.0
  0
LINE
  5
432
330
1E
100
AcDbEntity
  8
0
100
AcDbLine
 10
91.96647833746908
 20
169.786817224943
 30
0.0
 11
93.95761315746403
 21
169.495
 31
0.0
  0
LINE
  5
433
330
1E
100
AcDbEntity
  8
0
100
AcDbLine
 10
90.44361315746414
 20
169.963
 30
0.0
 11
91.84241315746403
 21
169.805
 31
0.0
  0
LINE
  5
434
330
1E
100
AcDbEntity
  8
0
100
AcDbLine
 10
93.95761315746403
 20
169.495
 30
0.0
 11
95.50901315746404
 21
169.192
 31
0.0
  0
LINE
  5
435
330
1E
100
AcDbEntity
  8
0
100
AcDbLine
 10
98.99871315746402
 20
168.037
 30
0.0
 11
99.88571315746401
 21
167.549
 31
0.0
  0
LINE
  5
436
330
1E
100
AcDbEntity
  8
0
100
AcDbLine
 10
96.98871315746401
 20
168.807
 30
0.0
 11
98.03031315746403
 21
168.455
 31
0.0
  0
LINE
  5
437
330
1E
100
AcDbEntity
  8
0
100
AcDbLine
 10
98.03031315746403
 20
168.455
 30
0.0
 11
98.99871315746402
 21
168.037
 31
0.0
  0
LINE
  5
438
330
1E
100
AcDbEntity
  8
0
100
AcDbLine
 10
100.680713157464
 20
166.976
 30
0.0
 11
101.586713157464
 21
166.063
 31
0.0
  0
LINE
  5
439
330
1E
100
AcDbEntity
  8
0
100
AcDbLine
 10
99.88571315746401
 20
167.549
 30
0.0
 11
100.680713157464
 21
166.976
 31
0.0
  0
LINE
  5
43A
330
1E
100
AcDbEntity
  8
0
100
AcDbLine
 10
82.62341315746402
 20
180.4289999999999
 30
0.0
 11
88.20471315746402
 21
180.421
 31
0.0
  0
LINE
  5
43B
330
1E
100
AcDbEntity
  8
0
100
AcDbLine
 10
79.979513157464
 20
180.433
 30
0.0
 11
80.92441315746402
 21
180.387
 31
0.0
  0
LINE
  5
43C
330
1E
100
AcDbEntity
  8
0
100
AcDbLine
 10
79.979513157464
 20
180.433
 30
0.0
 11
82.62341315746402
 21
180.4289999999999
 31
0.0
  0
LINE
  5
43D
330
1E
100
AcDbEntity
  8
0
100
AcDbLine
 10
102.870713157464
 20
163.618
 30
0.0
 11
103.288713157464
 21
161.823
 31
0.0
  0
LINE
  5
43E
330
1E
100
AcDbEntity
  8
0
100
AcDbLine
 10
103.288713157464
 20
161.823
 30
0.0
 11
103.500713157464
 21
159.721
 31
0.0
  0
LINE
  5
43F
330
1E
100
AcDbEntity
  8
0
100
AcDbLine
 10
146.883713157464
 20
179.1239999999999
 30
0.0
 11
147.748713157464
 21
149.451
 31
0.0
  0
LINE
  5
440
330
1E
100
AcDbEntity
  8
0
100
AcDbLine
 10
127.8627131574639
 20
142.987
 30
0.0
 11
144.623713157464
 21
148.112
 31
0.0
  0
LINE
  5
441
330
1E
100
AcDbEntity
  8
0
100
AcDbLine
 10
145.368713157464
 20
145.108
 30
0.0
 11
145.898713157464
 21
143.086
 31
0.0
  0
LINE
  5
442
330
1E
100
AcDbEntity
  8
0
100
AcDbLine
 10
144.623713157464
 20
148.112
 30
0.0
 11
145.8047131574639
 21
148.473
 31
0.0
  0
LINE
  5
443
330
1E
100
AcDbEntity
  8
0
100
AcDbLine
 10
144.634713157464
 20
147.063
 30
0.0
 11
145.368713157464
 21
145.108
 31
0.0
  0
LINE
  5
444
330
1E
100
AcDbEntity
  8
0
100
AcDbLine
 10
144.1799070113349
 20
147.976520400924
 30
0.0
 11
144.634713157464
 21
147.063
 31
0.0
  0
LINE
  5
445
330
1E
100
AcDbEntity
  8
0
100
AcDbLine
 10
145.898713157464
 20
143.086
 30
0.0
 11
146.219713157464
 21
141.022
 31
0.0
  0
LINE
  5
446
330
1E
100
AcDbEntity
  8
0
100
AcDbLine
 10
146.219713157464
 20
141.022
 30
0.0
 11
146.27543045502
 21
139.925
 31
0.0
  0
LINE
  5
447
330
1E
100
AcDbEntity
  8
0
100
AcDbLine
 10
145.8047131574639
 20
148.473
 30
0.0
 11
146.666713157464
 21
148.737
 31
0.0
  0
LINE
  5
448
330
1E
100
AcDbEntity
  8
0
100
AcDbLine
 10
146.666713157464
 20
148.737
 30
0.0
 11
147.196713157464
 21
148.899
 31
0.0
  0
LINE
  5
449
330
1E
100
AcDbEntity
  8
0
100
AcDbLine
 10
147.196713157464
 20
148.899
 30
0.0
 11
147.394713157464
 21
148.959
 31
0.0
  0
LINE
  5
44A
330
1E
100
AcDbEntity
  8
0
100
AcDbLine
 10
147.7087131574639
 20
149.241
 30
0.0
 11
147.748713157464
 21
149.451
 31
0.0
  0
LINE
  5
44B
330
1E
100
AcDbEntity
  8
0
100
AcDbLine
 10
147.582713157464
 20
149.066
 30
0.0
 11
147.653713157464
 21
149.146
 31
0.0
  0
LINE
  5
44C
330
1E
100
AcDbEntity
  8
0
100
AcDbLine
 10
147.653713157464
 20
149.146
 30
0.0
 11
147.7087131574639
 21
149.241
 31
0.0
  0
LINE
  5
44D
330
1E
100
AcDbEntity
  8
0
100
AcDbLine
 10
147.394713157464
 20
148.959
 30
0.0
 11
147.582713157464
 21
149.066
 31
0.0
  0
LINE
  5
44E
330
1E
100
AcDbEntity
  8
0
100
AcDbLine
 10
147.396713157464
 20
148.96
 30
0.0
 11
147.582713157464
 21
149.066
 31
0.0
  0
LINE
  5
44F
330
1E
100
AcDbEntity
  8
0
100
AcDbLine
 10
145.548713157464
 20
180.421
 30
0.0
 11
146.110713157464
 21
180.392
 31
0.0
  0
LINE
  5
450
330
1E
100
AcDbEntity
  8
0
100
AcDbLine
 10
145.147713157464
 20
180.412
 30
0.0
 11
145.369713157464
 21
180.417
 31
0.0
  0
LINE
  5
451
330
1E
100
AcDbEntity
  8
0
100
AcDbLine
 10
145.369713157464
 20
180.417
 30
0.0
 11
145.503713157464
 21
180.42
 31
0.0
  0
LINE
  5
452
330
1E
100
AcDbEntity
  8
0
100
AcDbLine
 10
146.772713157464
 20
179.908
 30
0.0
 11
146.837713157464
 21
179.686
 31
0.0
  0
LINE
  5
453
330
1E
100
AcDbEntity
  8
0
100
AcDbLine
 10
146.837713157464
 20
179.686
 30
0.0
 11
146.883713157464
 21
179.1239999999999
 31
0.0
  0
LINE
  5
454
330
1E
100
AcDbEntity
  8
0
100
AcDbLine
 10
146.599713157464
 20
180.168
 30
0.0
 11
146.772713157464
 21
179.908
 31
0.0
  0
LINE
  5
455
330
1E
100
AcDbEntity
  8
0
100
AcDbLine
 10
146.334713157464
 20
180.333
 30
0.0
 11
146.599713157464
 21
180.168
 31
0.0
  0
LINE
  5
456
330
1E
100
AcDbEntity
  8
0
100
AcDbLine
 10
146.110713157464
 20
180.392
 30
0.0
 11
146.334713157464
 21
180.333
 31
0.0
  0
ENDSEC
  0
SECTION
  2
OBJECTS
  0
DICTIONARY
  5
C
330
0
100
AcDbDictionary
281
     1
  3
ACAD_GROUP
350
D
  3
ACAD_LAYOUT
350
19
  3
ACAD_MLINESTYLE
350
16
  3
ACAD_PLOTSETTINGS
350
18
  3
ACAD_PLOTSTYLENAME
350
E
  3
AcDbVariableDictionary
350
458
  0
DICTIONARY
  5
D
102
{ACAD_REACTORS
330
C
102
}
330
C
100
AcDbDictionary
281
     1
  0
DICTIONARY
  5
19
102
{ACAD_REACTORS
330
C
102
}
330
C
100
AcDbDictionary
281
     1
  3
Layout1
350
1D
  3
Model
350
21
  0
DICTIONARY
  5
16
102
{ACAD_REACTORS
330
C
102
}
330
C
100
AcDbDictionary
281
     1
  3
Standard
350
17
  0
DICTIONARY
  5
18
102
{ACAD_REACTORS
330
C
102
}
330
C
100
AcDbDictionary
281
     1
  0
ACDBDICTIONARYWDFLT
  5
E
102
{ACAD_REACTORS
330
C
102
}
330
C
100
AcDbDictionary
281
     1
  3
Normal
350
F
100
AcDbDictionaryWithDefault
340
F
  0
DICTIONARY
  5
458
102
{ACAD_REACTORS
330
C
102
}
330
C
100
AcDbDictionary
281
     1
  3
DIMASSOC
350
459
  0
LAYOUT
  5
1D
102
{ACAD_REACTORS
330
19
102
}
330
19
100
AcDbPlotSettings
  1

  2
C:\Programme\AutoCAD LT 2002 Deu\plotters\DWF ePlot (optimized for plotting).pc3
  4

  6

 40
0.0
 41
0.0
 42
0.0
 43
0.0
 44
0.0
 45
0.0
 46
0.0
 47
0.0
 48
0.0
 49
0.0
140
0.0
141
0.0
142
1.0
143
1.0
 70
   688
 72
     0
 73
     0
 74
     5
  7

 75
    16
147
1.0
148
0.0
149
0.0
100
AcDbLayout
  1
Layout1
 70
     1
 71
     1
 10
0.0
 20
0.0
 11
12.0
 21
9.0
 12
0.0
 22
0.0
 32
0.0
 14
1.000000000000000E+20
 24
1.000000000000000E+20
 34
1.000000000000000E+20
 15
-1.000000000000000E+20
 25
-1.000000000000000E+20
 35
-1.000000000000000E+20
146
0.0
 13
0.0
 23
0.0
 33
0.0
 16
1.0
 26
0.0
 36
0.0
 17
0.0
 27
1.0
 37
0.0
 76
     0
330
1A
  0
LAYOUT
  5
21
102
{ACAD_REACTORS
330
19
102
}
330
19
100
AcDbPlotSettings
  1

  2
C:\Programme\AutoCAD LT 2002 Deu\plotters\DWF ePlot (optimized for plotting).pc3
  4

  6

 40
0.0
 41
0.0
 42
0.0
 43
0.0
 44
0.0
 45
0.0
 46
0.0
 47
0.0
 48
0.0
 49
0.0
140
0.0
141
0.0
142
1.0
143
1.0
 70
  1712
 72
     0
 73
     0
 74
     0
  7

 75
     0
147
1.0
148
0.0
149
0.0
100
AcDbLayout
  1
Model
 70
     1
 71
     0
 10
0.0
 20
0.0
 11
12.0
 21
9.0
 12
0.0
 22
0.0
 32
0.0
 14
0.0
 24
0.0
 34
0.0
 15
0.0
 25
0.0
 35
0.0
146
0.0
 13
0.0
 23
0.0
 33
0.0
 16
1.0
 26
0.0
 36
0.0
 17
0.0
 27
1.0
 37
0.0
 76
     0
330
1E
  0
MLINESTYLE
  5
17
102
{ACAD_REACTORS
330
16
102
}
330
16
100
AcDbMlineStyle
  2
STANDARD
 70
     0
  3

 62
   256
 51
90.0
 52
90.0
 71
     2
 49
0.5
 62
   256
  6
BYLAYER
 49
-0.5
 62
   256
  6
BYLAYER
  0
ACDBPLACEHOLDER
  5
F
102
{ACAD_REACTORS
330
E
102
}
330
E
  0
DICTIONARYVAR
  5
459
102
{ACAD_REACTORS
330
458
102
}
330
458
100
DictionaryVariables
280
     0
  1
1
  0
ENDSEC
  0
EOF
