  0
SECTION
  2
HEADER
  9
$ACADVER
  1
AC1015
  9
$ACADMAINTVER
 70
    13
  9
$DWGCODEPAGE
  3
ANSI_1252
  9
$INSBASE
 10
0.0
 20
0.0
 30
0.0
  9
$EXTMIN
 10
-0.000000000000006
 20
0.0000000000000008
 30
0.0
  9
$EXTMAX
 10
70.0
 20
194.0
 30
0.0
  9
$LIMMIN
 10
0.0
 20
0.0
  9
$LIMMAX
 10
12.0
 20
9.0
  9
$ORTHOMODE
 70
     0
  9
$REGENMODE
 70
     1
  9
$FILLMODE
 70
     1
  9
$QTEXTMODE
 70
     0
  9
$MIRRTEXT
 70
     1
  9
$LTSCALE
 40
1.0
  9
$ATTMODE
 70
     1
  9
$TEXTSIZE
 40
0.2
  9
$TRACEWID
 40
0.05
  9
$TEXTSTYLE
  7
Standard
  9
$CLAYER
  8
0
  9
$CELTYPE
  6
Continuous
  9
$CECOLOR
 62
   256
  9
$CELTSCALE
 40
1.0
  9
$DISPSILH
 70
     0
  9
$DIMSCALE
 40
1.0
  9
$DIMASZ
 40
0.18
  9
$DIMEXO
 40
0.0625
  9
$DIMDLI
 40
0.38
  9
$DIMRND
 40
0.0
  9
$DIMDLE
 40
0.0
  9
$DIMEXE
 40
0.18
  9
$DIMTP
 40
0.0
  9
$DIMTM
 40
0.0
  9
$DIMTXT
 40
0.18
  9
$DIMCEN
 40
0.09
  9
$DIMTSZ
 40
0.0
  9
$DIMTOL
 70
     0
  9
$DIMLIM
 70
     0
  9
$DIMTIH
 70
     1
  9
$DIMTOH
 70
     1
  9
$DIMSE1
 70
     0
  9
$DIMSE2
 70
     0
  9
$DIMTAD
 70
     0
  9
$DIMZIN
 70
     0
  9
$DIMBLK
  1

  9
$DIMASO
 70
     1
  9
$DIMSHO
 70
     1
  9
$DIMPOST
  1

  9
$DIMAPOST
  1

  9
$DIMALT
 70
     0
  9
$DIMALTD
 70
     2
  9
$DIMALTF
 40
25.4
  9
$DIMLFAC
 40
1.0
  9
$DIMTOFL
 70
     0
  9
$DIMTVP
 40
0.0
  9
$DIMTIX
 70
     0
  9
$DIMSOXD
 70
     0
  9
$DIMSAH
 70
     0
  9
$DIMBLK1
  1

  9
$DIMBLK2
  1

  9
$DIMSTYLE
  2
Standard
  9
$DIMCLRD
 70
     0
  9
$DIMCLRE
 70
     0
  9
$DIMCLRT
 70
     0
  9
$DIMTFAC
 40
1.0
  9
$DIMGAP
 40
0.09
  9
$DIMJUST
 70
     0
  9
$DIMSD1
 70
     0
  9
$DIMSD2
 70
     0
  9
$DIMTOLJ
 70
     1
  9
$DIMTZIN
 70
     0
  9
$DIMALTZ
 70
     0
  9
$DIMALTTZ
 70
     0
  9
$DIMUPT
 70
     0
  9
$DIMDEC
 70
     4
  9
$DIMTDEC
 70
     4
  9
$DIMALTU
 70
     2
  9
$DIMALTTD
 70
     2
  9
$DIMTXSTY
  7
Standard
  9
$DIMAUNIT
 70
     0
  9
$DIMADEC
 70
     0
  9
$DIMALTRND
 40
0.0
  9
$DIMAZIN
 70
     0
  9
$DIMDSEP
 70
    46
  9
$DIMATFIT
 70
     3
  9
$DIMFRAC
 70
     0
  9
$DIMLDRBLK
  1

  9
$DIMLUNIT
 70
     2
  9
$DIMLWD
 70
    -2
  9
$DIMLWE
 70
    -2
  9
$DIMTMOVE
 70
     0
  9
$LUNITS
 70
     2
  9
$LUPREC
 70
     4
  9
$SKETCHINC
 40
0.1
  9
$FILLETRAD
 40
0.0
  9
$AUNITS
 70
     0
  9
$AUPREC
 70
     0
  9
$MENU
  1
.
  9
$ELEVATION
 40
0.0
  9
$PELEVATION
 40
0.0
  9
$THICKNESS
 40
0.0
  9
$LIMCHECK
 70
     0
  9
$CHAMFERA
 40
0.0
  9
$CHAMFERB
 40
0.0
  9
$CHAMFERC
 40
0.0
  9
$CHAMFERD
 40
0.0
  9
$SKPOLY
 70
     0
  9
$TDCREATE
 40
2454736.670846168
  9
$TDUCREATE
 40
2454736.587512836
  9
$TDUPDATE
 40
2454736.671411308
  9
$TDUUPDATE
 40
2454736.588077974
  9
$TDINDWG
 40
0.0005656829
  9
$TDUSRTIMER
 40
0.0005656829
  9
$USRTIMER
 70
     1
  9
$ANGBASE
 50
0.0
  9
$ANGDIR
 70
     0
  9
$PDMODE
 70
     0
  9
$PDSIZE
 40
0.0
  9
$PLINEWID
 40
0.0
  9
$SPLFRAME
 70
     0
  9
$SPLINETYPE
 70
     6
  9
$SPLINESEGS
 70
     8
  9
$HANDSEED
  5
1F3
  9
$SURFTAB1
 70
     6
  9
$SURFTAB2
 70
     6
  9
$SURFTYPE
 70
     6
  9
$SURFU
 70
     6
  9
$SURFV
 70
     6
  9
$UCSBASE
  2

  9
$UCSNAME
  2

  9
$UCSORG
 10
0.0
 20
0.0
 30
0.0
  9
$UCSXDIR
 10
1.0
 20
0.0
 30
0.0
  9
$UCSYDIR
 10
0.0
 20
1.0
 30
0.0
  9
$UCSORTHOREF
  2

  9
$UCSORTHOVIEW
 70
     1
  9
$UCSORGTOP
 10
0.0
 20
0.0
 30
0.0
  9
$UCSORGBOTTOM
 10
0.0
 20
0.0
 30
0.0
  9
$UCSORGLEFT
 10
0.0
 20
0.0
 30
0.0
  9
$UCSORGRIGHT
 10
0.0
 20
0.0
 30
0.0
  9
$UCSORGFRONT
 10
0.0
 20
0.0
 30
0.0
  9
$UCSORGBACK
 10
0.0
 20
0.0
 30
0.0
  9
$PUCSBASE
  2

  9
$PUCSNAME
  2

  9
$PUCSORG
 10
0.0
 20
0.0
 30
0.0
  9
$PUCSXDIR
 10
1.0
 20
0.0
 30
0.0
  9
$PUCSYDIR
 10
0.0
 20
1.0
 30
0.0
  9
$PUCSORTHOREF
  2

  9
$PUCSORTHOVIEW
 70
     0
  9
$PUCSORGTOP
 10
0.0
 20
0.0
 30
0.0
  9
$PUCSORGBOTTOM
 10
0.0
 20
0.0
 30
0.0
  9
$PUCSORGLEFT
 10
0.0
 20
0.0
 30
0.0
  9
$PUCSORGRIGHT
 10
0.0
 20
0.0
 30
0.0
  9
$PUCSORGFRONT
 10
0.0
 20
0.0
 30
0.0
  9
$PUCSORGBACK
 10
0.0
 20
0.0
 30
0.0
  9
$USERI1
 70
     0
  9
$USERI2
 70
     0
  9
$USERI3
 70
     0
  9
$USERI4
 70
     0
  9
$USERI5
 70
     0
  9
$USERR1
 40
0.0
  9
$USERR2
 40
0.0
  9
$USERR3
 40
0.0
  9
$USERR4
 40
0.0
  9
$USERR5
 40
0.0
  9
$WORLDVIEW
 70
     1
  9
$SHADEDGE
 70
     3
  9
$SHADEDIF
 70
    70
  9
$TILEMODE
 70
     1
  9
$MAXACTVP
 70
    64
  9
$PINSBASE
 10
0.0
 20
0.0
 30
0.0
  9
$PLIMCHECK
 70
     0
  9
$PEXTMIN
 10
1.000000000000000E+20
 20
1.000000000000000E+20
 30
1.000000000000000E+20
  9
$PEXTMAX
 10
-1.000000000000000E+20
 20
-1.000000000000000E+20
 30
-1.000000000000000E+20
  9
$PLIMMIN
 10
0.0
 20
0.0
  9
$PLIMMAX
 10
12.0
 20
9.0
  9
$UNITMODE
 70
     0
  9
$VISRETAIN
 70
     1
  9
$PLINEGEN
 70
     0
  9
$PSLTSCALE
 70
     1
  9
$TREEDEPTH
 70
  3020
  9
$CMLSTYLE
  2
Standard
  9
$CMLJUST
 70
     0
  9
$CMLSCALE
 40
1.0
  9
$PROXYGRAPHICS
 70
     1
  9
$MEASUREMENT
 70
     0
  9
$CELWEIGHT
370
    -1
  9
$ENDCAPS
280
     0
  9
$JOINSTYLE
280
     0
  9
$LWDISPLAY
290
     0
  9
$INSUNITS
 70
     0
  9
$HYPERLINKBASE
  1

  9
$STYLESHEET
  1

  9
$XEDIT
290
     1
  9
$CEPSNTYPE
380
     0
  9
$PSTYLEMODE
290
     1
  9
$FINGERPRINTGUID
  2
{45B8B0CB-15BD-482E-A7C9-998A13FE30CC}
  9
$VERSIONGUID
  2
{BAAC501F-44FF-47D5-9D3C-7A842C748D07}
  9
$EXTNAMES
290
     1
  9
$PSVPSCALE
 40
0.0
  9
$OLESTARTUP
290
     0
  0
ENDSEC
  0
SECTION
  2
CLASSES
  0
CLASS
  1
ACDBDICTIONARYWDFLT
  2
AcDbDictionaryWithDefault
  3
AutoCAD 2000
 90
        0
280
     0
281
     0
  0
CLASS
  1
ACDBPLACEHOLDER
  2
AcDbPlaceHolder
  3
AutoCAD 2000
 90
        0
280
     0
281
     0
  0
CLASS
  1
LAYOUT
  2
AcDbLayout
  3
AutoCAD 2000
 90
        0
280
     0
281
     0
  0
CLASS
  1
DICTIONARYVAR
  2
AcDbDictionaryVar
  3
AutoCAD 2000
 90
        0
280
     0
281
     0
  0
ENDSEC
  0
SECTION
  2
TABLES
  0
TABLE
  2
VPORT
  5
8
330
0
100
AcDbSymbolTable
 70
     2
  0
VPORT
  5
1F2
330
8
100
AcDbSymbolTableRecord
100
AcDbViewportTableRecord
  2
*Active
 70
     0
 10
0.0
 20
0.0
 11
1.0
 21
1.0
 12
34.99999999999999
 22
97.0
 13
0.0
 23
0.0
 14
1.0
 24
1.0
 15
0.0
 25
0.0
 16
0.0
 26
0.0
 36
1.0
 17
0.0
 27
0.0
 37
0.0
 40
195.4884910485933
 41
2.078104993597951
 42
50.0
 43
0.0
 44
0.0
 50
0.0
 51
0.0
 71
     0
 72
   100
 73
     1
 74
     3
 75
     0
 76
     0
 77
     0
 78
     0
281
     0
 65
     1
110
0.0
120
0.0
130
0.0
111
1.0
121
0.0
131
0.0
112
0.0
122
1.0
132
0.0
 79
     1
146
0.0
  0
ENDTAB
  0
TABLE
  2
LTYPE
  5
5
330
0
100
AcDbSymbolTable
 70
     1
  0
LTYPE
  5
13
330
5
100
AcDbSymbolTableRecord
100
AcDbLinetypeTableRecord
  2
ByBlock
 70
     0
  3

 72
    65
 73
     0
 40
0.0
  0
LTYPE
  5
14
330
5
100
AcDbSymbolTableRecord
100
AcDbLinetypeTableRecord
  2
ByLayer
 70
     0
  3

 72
    65
 73
     0
 40
0.0
  0
LTYPE
  5
15
330
5
100
AcDbSymbolTableRecord
100
AcDbLinetypeTableRecord
  2
Continuous
 70
     0
  3
Solid line
 72
    65
 73
     0
 40
0.0
  0
ENDTAB
  0
TABLE
  2
LAYER
  5
2
330
0
100
AcDbSymbolTable
 70
     1
  0
LAYER
  5
10
330
2
100
AcDbSymbolTableRecord
100
AcDbLayerTableRecord
  2
0
 70
     0
 62
     7
  6
Continuous
370
    -3
390
F
  0
ENDTAB
  0
TABLE
  2
STYLE
  5
3
330
0
100
AcDbSymbolTable
 70
     1
  0
STYLE
  5
11
330
3
100
AcDbSymbolTableRecord
100
AcDbTextStyleTableRecord
  2
Standard
 70
     0
 40
0.0
 41
1.0
 50
0.0
 71
     0
 42
0.2
  3
txt
  4

  0
ENDTAB
  0
TABLE
  2
VIEW
  5
6
330
0
100
AcDbSymbolTable
 70
     0
  0
ENDTAB
  0
TABLE
  2
UCS
  5
7
330
0
100
AcDbSymbolTable
 70
     0
  0
ENDTAB
  0
TABLE
  2
APPID
  5
9
330
0
100
AcDbSymbolTable
 70
     1
  0
APPID
  5
12
330
9
100
AcDbSymbolTableRecord
100
AcDbRegAppTableRecord
  2
ACAD
 70
     0
  0
ENDTAB
  0
TABLE
  2
DIMSTYLE
  5
A
330
0
100
AcDbSymbolTable
 70
     1
100
AcDbDimStyleTable
 71
     0
  0
DIMSTYLE
105
1EC
330
A
100
AcDbSymbolTableRecord
100
AcDbDimStyleTableRecord
  2
Standard
 70
     0
340
11
  0
ENDTAB
  0
TABLE
  2
BLOCK_RECORD
  5
1
330
0
100
AcDbSymbolTable
 70
     0
  0
BLOCK_RECORD
  5
1E
330
1
100
AcDbSymbolTableRecord
100
AcDbBlockTableRecord
  2
*Model_Space
340
21
  0
BLOCK_RECORD
  5
1A
330
1
100
AcDbSymbolTableRecord
100
AcDbBlockTableRecord
  2
*Paper_Space
340
1D
  0
ENDTAB
  0
ENDSEC
  0
SECTION
  2
BLOCKS
  0
BLOCK
  5
1F
330
1E
100
AcDbEntity
  8
0
100
AcDbBlockBegin
  2
*Model_Space
 70
     0
 10
0.0
 20
0.0
 30
0.0
  3
*Model_Space
  1

  0
ENDBLK
  5
20
330
1E
100
AcDbEntity
  8
0
100
AcDbBlockEnd
  0
BLOCK
  5
1B
330
1A
100
AcDbEntity
 67
     1
  8
0
100
AcDbBlockBegin
  2
*Paper_Space
 70
     0
 10
0.0
 20
0.0
 30
0.0
  3
*Paper_Space
  1

  0
ENDBLK
  5
1C
330
1A
100
AcDbEntity
 67
     1
  8
0
100
AcDbBlockEnd
  0
ENDSEC
  0
SECTION
  2
ENTITIES
  0
LINE
  5
22
330
1E
100
AcDbEntity
  8
0
100
AcDbLine
 10
-0.0000000000000058
 20
4.000000000000009
 30
0.0
 11
-0.0000000000000027
 21
54.5
 31
0.0
  0
LINE
  5
23
330
1E
100
AcDbEntity
  8
0
100
AcDbLine
 10
-0.0000000000000025
 20
57.9
 30
0.0
 11
-0.0000000000000024
 21
58.39999999999999
 31
0.0
  0
LINE
  5
24
330
1E
100
AcDbEntity
  8
0
100
AcDbLine
 10
-0.0000000000000025
 20
57.3
 30
0.0
 11
-0.0000000000000025
 21
57.9
 31
0.0
  0
LINE
  5
25
330
1E
100
AcDbEntity
  8
0
100
AcDbLine
 10
-0.0000000000000026
 20
56.4
 30
0.0
 11
-0.0000000000000025
 21
57.3
 31
0.0
  0
LINE
  5
26
330
1E
100
AcDbEntity
  8
0
100
AcDbLine
 10
-0.0000000000000026
 20
55.5
 30
0.0
 11
-0.0000000000000026
 21
56.4
 31
0.0
  0
LINE
  5
27
330
1E
100
AcDbEntity
  8
0
100
AcDbLine
 10
-0.0000000000000027
 20
54.5
 30
0.0
 11
-0.0000000000000026
 21
55.5
 31
0.0
  0
LINE
  5
28
330
1E
100
AcDbEntity
  8
0
100
AcDbLine
 10
-0.0000000000000058
 20
4.0
 30
0.0
 11
-0.0000000000000027
 21
54.5
 31
0.0
  0
LINE
  5
29
330
1E
100
AcDbEntity
  8
0
100
AcDbLine
 10
-0.0000000000000058
 20
3.0
 30
0.0
 11
-0.0000000000000058
 21
4.0
 31
0.0
  0
LINE
  5
2A
330
1E
100
AcDbEntity
  8
0
100
AcDbLine
 10
-0.0000000000000059
 20
2.2
 30
0.0
 11
-0.0000000000000058
 21
3.0
 31
0.0
  0
LINE
  5
2B
330
1E
100
AcDbEntity
  8
0
100
AcDbLine
 10
-0.0000000000000059
 20
1.5
 30
0.0
 11
-0.0000000000000059
 21
2.2
 31
0.0
  0
LINE
  5
2C
330
1E
100
AcDbEntity
  8
0
100
AcDbLine
 10
-0.000000000000006
 20
0.9000000000000021
 30
0.0
 11
-0.0000000000000059
 21
1.5
 31
0.0
  0
LINE
  5
2D
330
1E
100
AcDbEntity
  8
0
100
AcDbLine
 10
-0.000000000000006
 20
0.6000000000000022
 30
0.0
 11
-0.000000000000006
 21
0.9000000000000021
 31
0.0
  0
LINE
  5
2E
330
1E
100
AcDbEntity
  8
0
100
AcDbLine
 10
-0.000000000000006
 20
0.500000000000002
 30
0.0
 11
0.499999999999994
 21
0.0000000000000018
 31
0.0
  0
LINE
  5
2F
330
1E
100
AcDbEntity
  8
0
100
AcDbLine
 10
-0.000000000000006
 20
0.500000000000002
 30
0.0
 11
-0.000000000000006
 21
0.6000000000000022
 31
0.0
  0
LINE
  5
30
330
1E
100
AcDbEntity
  8
0
100
AcDbLine
 10
-0.000000000000006
 20
0.500000000000002
 30
0.0
 11
0.499999999999994
 21
0.0000000000000019
 31
0.0
  0
LINE
  5
31
330
1E
100
AcDbEntity
  8
0
100
AcDbLine
 10
0.499999999999994
 20
0.100000000000002
 30
0.0
 11
0.499999999999994
 21
0.500000000000002
 31
0.0
  0
LINE
  5
32
330
1E
100
AcDbEntity
  8
0
100
AcDbLine
 10
0.499999999999994
 20
0.100000000000002
 30
0.0
 11
0.499999999999994
 21
0.0000000000000018
 31
0.0
  0
LINE
  5
33
330
1E
100
AcDbEntity
  8
0
100
AcDbLine
 10
0.499999999999994
 20
1.199999999999999
 30
0.0
 11
0.499999999999994
 21
2.0
 31
0.0
  0
LINE
  5
34
330
1E
100
AcDbEntity
  8
0
100
AcDbLine
 10
0.499999999999994
 20
1.199999999999999
 30
0.0
 11
0.499999999999994
 21
0.500000000000002
 31
0.0
  0
LINE
  5
35
330
1E
100
AcDbEntity
  8
0
100
AcDbLine
 10
0.499999999999994
 20
4.000000000000009
 30
0.0
 11
0.499999999999997
 21
54.5
 31
0.0
  0
LINE
  5
36
330
1E
100
AcDbEntity
  8
0
100
AcDbLine
 10
0.499999999999997
 20
57.0
 30
0.0
 11
0.4999999999999981
 21
57.5
 31
0.0
  0
LINE
  5
37
330
1E
100
AcDbEntity
  8
0
100
AcDbLine
 10
0.499999999999997
 20
57.0
 30
0.0
 11
0.499999999999997
 21
56.2
 31
0.0
  0
LINE
  5
38
330
1E
100
AcDbEntity
  8
0
100
AcDbLine
 10
0.4999999999999981
 20
57.5
 30
0.0
 11
0.4999999999999981
 21
57.9
 31
0.0
  0
LINE
  5
39
330
1E
100
AcDbEntity
  8
0
100
AcDbLine
 10
0.499999999999997
 20
56.2
 30
0.0
 11
0.499999999999997
 21
57.0
 31
0.0
  0
LINE
  5
3A
330
1E
100
AcDbEntity
  8
0
100
AcDbLine
 10
0.499999999999997
 20
55.4
 30
0.0
 11
0.499999999999997
 21
56.2
 31
0.0
  0
LINE
  5
3B
330
1E
100
AcDbEntity
  8
0
100
AcDbLine
 10
0.499999999999997
 20
54.5
 30
0.0
 11
0.499999999999997
 21
55.4
 31
0.0
  0
LINE
  5
3C
330
1E
100
AcDbEntity
  8
0
100
AcDbLine
 10
0.499999999999994
 20
4.0
 30
0.0
 11
0.499999999999997
 21
54.5
 31
0.0
  0
LINE
  5
3D
330
1E
100
AcDbEntity
  8
0
100
AcDbLine
 10
0.499999999999994
 20
3.0
 30
0.0
 11
0.499999999999994
 21
4.0
 31
0.0
  0
LINE
  5
3E
330
1E
100
AcDbEntity
  8
0
100
AcDbLine
 10
0.499999999999994
 20
2.0
 30
0.0
 11
0.499999999999994
 21
3.0
 31
0.0
  0
LINE
  5
3F
330
1E
100
AcDbEntity
  8
0
100
AcDbLine
 10
0.499999999999994
 20
0.500000000000002
 30
0.0
 11
0.499999999999994
 21
1.199999999999999
 31
0.0
  0
LINE
  5
40
330
1E
100
AcDbEntity
  8
0
100
AcDbLine
 10
0.499999999999994
 20
0.0000000000000018
 30
0.0
 11
16.5
 21
0.0000000000000008
 31
0.0
  0
LINE
  5
41
330
1E
100
AcDbEntity
  8
0
100
AcDbLine
 10
0.499999999999994
 20
0.0000000000000018
 30
0.0
 11
0.499999999999994
 21
0.100000000000002
 31
0.0
  0
LINE
  5
42
330
1E
100
AcDbEntity
  8
0
100
AcDbLine
 10
0.499999999999994
 20
0.0000000000000018
 30
0.0
 11
16.5
 21
0.0000000000000008
 31
0.0
  0
LINE
  5
43
330
1E
100
AcDbEntity
  8
0
100
AcDbLine
 10
-0.0000000000000023
 20
60.8
 30
0.0
 11
-0.000000000000002
 21
64.7
 31
0.0
  0
LINE
  5
44
330
1E
100
AcDbEntity
  8
0
100
AcDbLine
 10
-0.0000000000000024
 20
58.39999999999999
 30
0.0
 11
-0.0000000000000023
 21
60.8
 31
0.0
  0
LINE
  5
45
330
1E
100
AcDbEntity
  8
0
100
AcDbLine
 10
0.4999999999999981
 20
60.3
 30
0.0
 11
0.4999999999999981
 21
64.29999999999999
 31
0.0
  0
LINE
  5
46
330
1E
100
AcDbEntity
  8
0
100
AcDbLine
 10
0.4999999999999981
 20
57.9
 30
0.0
 11
0.4999999999999981
 21
60.3
 31
0.0
  0
LINE
  5
47
330
1E
100
AcDbEntity
  8
0
100
AcDbLine
 10
0.4999999999999981
 20
57.9
 30
0.0
 11
0.4999999999999981
 21
57.5
 31
0.0
  0
LINE
  5
48
330
1E
100
AcDbEntity
  8
0
100
AcDbLine
 10
-0.000000000000002
 20
64.7
 30
0.0
 11
-0.0000000000000017
 21
69.8
 31
0.0
  0
LINE
  5
49
330
1E
100
AcDbEntity
  8
0
100
AcDbLine
 10
0.4999999999999981
 20
64.29999999999999
 30
0.0
 11
0.4999999999999981
 21
69.59999999999999
 31
0.0
  0
LINE
  5
4A
330
1E
100
AcDbEntity
  8
0
100
AcDbLine
 10
-0.0000000000000017
 20
69.8
 30
0.0
 11
-0.0000000000000014
 21
75.7
 31
0.0
  0
LINE
  5
4B
330
1E
100
AcDbEntity
  8
0
100
AcDbLine
 10
-0.0000000000000002
 20
94.19999999999999
 30
0.0
 11
0.0000000000000001
 21
99.29999999999999
 31
0.0
  0
LINE
  5
4C
330
1E
100
AcDbEntity
  8
0
100
AcDbLine
 10
-0.0000000000000006
 20
88.3
 30
0.0
 11
-0.0000000000000002
 21
94.19999999999999
 31
0.0
  0
LINE
  5
4D
330
1E
100
AcDbEntity
  8
0
100
AcDbLine
 10
-0.000000000000001
 20
82.0
 30
0.0
 11
-0.0000000000000006
 21
88.3
 31
0.0
  0
LINE
  5
4E
330
1E
100
AcDbEntity
  8
0
100
AcDbLine
 10
0.0000000000000001
 20
99.29999999999999
 30
0.0
 11
0.0000000000000003
 21
103.2
 31
0.0
  0
LINE
  5
4F
330
1E
100
AcDbEntity
  8
0
100
AcDbLine
 10
0.0000000000000003
 20
103.2
 30
0.0
 11
0.0000000000000005
 21
105.6
 31
0.0
  0
LINE
  5
50
330
1E
100
AcDbEntity
  8
0
100
AcDbLine
 10
0.0000000000000005
 20
106.4999999999999
 30
0.0
 11
0.500000000000001
 21
107.0
 31
0.0
  0
LINE
  5
51
330
1E
100
AcDbEntity
  8
0
100
AcDbLine
 10
0.0000000000000005
 20
105.6
 30
0.0
 11
0.0000000000000005
 21
106.4999999999999
 31
0.0
  0
LINE
  5
52
330
1E
100
AcDbEntity
  8
0
100
AcDbLine
 10
0.0000000000000005
 20
106.4999999999999
 30
0.0
 11
0.500000000000001
 21
107.0
 31
0.0
  0
LINE
  5
53
330
1E
100
AcDbEntity
  8
0
100
AcDbLine
 10
-0.0000000000000014
 20
75.7
 30
0.0
 11
-0.000000000000001
 21
82.0
 31
0.0
  0
LINE
  5
54
330
1E
100
AcDbEntity
  8
0
100
AcDbLine
 10
0.4999999999999981
 20
69.59999999999999
 30
0.0
 11
0.499999999999999
 21
75.59999999999999
 31
0.0
  0
LINE
  5
55
330
1E
100
AcDbEntity
  8
0
100
AcDbLine
 10
16.5
 20
0.500000000000001
 30
0.0
 11
16.5
 21
1.199999999999999
 31
0.0
  0
LINE
  5
56
330
1E
100
AcDbEntity
  8
0
100
AcDbLine
 10
16.5
 20
0.500000000000001
 30
0.0
 11
16.5
 21
0.100000000000001
 31
0.0
  0
LINE
  5
57
330
1E
100
AcDbEntity
  8
0
100
AcDbLine
 10
16.5
 20
0.100000000000001
 30
0.0
 11
16.5
 21
0.500000000000001
 31
0.0
  0
LINE
  5
58
330
1E
100
AcDbEntity
  8
0
100
AcDbLine
 10
16.5
 20
0.100000000000001
 30
0.0
 11
16.5
 21
0.0000000000000008
 31
0.0
  0
LINE
  5
59
330
1E
100
AcDbEntity
  8
0
100
AcDbLine
 10
16.5
 20
0.0000000000000008
 30
0.0
 11
17.0
 21
0.500000000000001
 31
0.0
  0
LINE
  5
5A
330
1E
100
AcDbEntity
  8
0
100
AcDbLine
 10
16.5
 20
0.0000000000000008
 30
0.0
 11
16.5
 21
0.100000000000001
 31
0.0
  0
LINE
  5
5B
330
1E
100
AcDbEntity
  8
0
100
AcDbLine
 10
16.5
 20
0.0000000000000008
 30
0.0
 11
17.0
 21
0.500000000000001
 31
0.0
  0
LINE
  5
5C
330
1E
100
AcDbEntity
  8
0
100
AcDbLine
 10
16.5
 20
1.199999999999999
 30
0.0
 11
16.5
 21
2.0
 31
0.0
  0
LINE
  5
5D
330
1E
100
AcDbEntity
  8
0
100
AcDbLine
 10
16.5
 20
1.199999999999999
 30
0.0
 11
16.5
 21
0.500000000000001
 31
0.0
  0
LINE
  5
5E
330
1E
100
AcDbEntity
  8
0
100
AcDbLine
 10
16.5
 20
3.0
 30
0.0
 11
16.5
 21
4.0
 31
0.0
  0
LINE
  5
5F
330
1E
100
AcDbEntity
  8
0
100
AcDbLine
 10
16.5
 20
3.0
 30
0.0
 11
16.5
 21
2.0
 31
0.0
  0
LINE
  5
60
330
1E
100
AcDbEntity
  8
0
100
AcDbLine
 10
16.5
 20
2.0
 30
0.0
 11
16.5
 21
3.0
 31
0.0
  0
LINE
  5
61
330
1E
100
AcDbEntity
  8
0
100
AcDbLine
 10
16.5
 20
2.0
 30
0.0
 11
16.5
 21
1.199999999999999
 31
0.0
  0
LINE
  5
62
330
1E
100
AcDbEntity
  8
0
100
AcDbLine
 10
16.5
 20
4.0
 30
0.0
 11
16.5
 21
54.5
 31
0.0
  0
LINE
  5
63
330
1E
100
AcDbEntity
  8
0
100
AcDbLine
 10
16.5
 20
57.0
 30
0.0
 11
16.5
 21
56.2
 31
0.0
  0
LINE
  5
64
330
1E
100
AcDbEntity
  8
0
100
AcDbLine
 10
16.5
 20
56.2
 30
0.0
 11
16.5
 21
57.0
 31
0.0
  0
LINE
  5
65
330
1E
100
AcDbEntity
  8
0
100
AcDbLine
 10
16.5
 20
56.2
 30
0.0
 11
16.5
 21
55.4
 31
0.0
  0
LINE
  5
66
330
1E
100
AcDbEntity
  8
0
100
AcDbLine
 10
16.5
 20
55.4
 30
0.0
 11
16.5
 21
56.2
 31
0.0
  0
LINE
  5
67
330
1E
100
AcDbEntity
  8
0
100
AcDbLine
 10
16.5
 20
55.4
 30
0.0
 11
16.5
 21
54.5
 31
0.0
  0
LINE
  5
68
330
1E
100
AcDbEntity
  8
0
100
AcDbLine
 10
16.5
 20
54.5
 30
0.0
 11
16.5
 21
55.4
 31
0.0
  0
LINE
  5
69
330
1E
100
AcDbEntity
  8
0
100
AcDbLine
 10
17.0
 20
4.0
 30
0.0
 11
17.0
 21
54.5
 31
0.0
  0
LINE
  5
6A
330
1E
100
AcDbEntity
  8
0
100
AcDbLine
 10
16.5
 20
4.0
 30
0.0
 11
16.5
 21
54.5
 31
0.0
  0
LINE
  5
6B
330
1E
100
AcDbEntity
  8
0
100
AcDbLine
 10
16.5
 20
4.0
 30
0.0
 11
16.5
 21
3.0
 31
0.0
  0
LINE
  5
6D
330
1E
100
AcDbEntity
  8
0
100
AcDbLine
 10
17.0
 20
4.0
 30
0.0
 11
17.0
 21
54.5
 31
0.0
  0
LINE
  5
6E
330
1E
100
AcDbEntity
  8
0
100
AcDbLine
 10
17.0
 20
4.0
 30
0.0
 11
17.0
 21
3.0
 31
0.0
  0
LINE
  5
6F
330
1E
100
AcDbEntity
  8
0
100
AcDbLine
 10
17.0
 20
3.0
 30
0.0
 11
17.0
 21
4.0
 31
0.0
  0
LINE
  5
70
330
1E
100
AcDbEntity
  8
0
100
AcDbLine
 10
17.0
 20
3.0
 30
0.0
 11
17.0
 21
2.2
 31
0.0
  0
LINE
  5
71
330
1E
100
AcDbEntity
  8
0
100
AcDbLine
 10
17.0
 20
2.2
 30
0.0
 11
17.0
 21
3.0
 31
0.0
  0
LINE
  5
72
330
1E
100
AcDbEntity
  8
0
100
AcDbLine
 10
17.0
 20
2.2
 30
0.0
 11
17.0
 21
1.5
 31
0.0
  0
LINE
  5
73
330
1E
100
AcDbEntity
  8
0
100
AcDbLine
 10
17.0
 20
1.5
 30
0.0
 11
17.0
 21
2.2
 31
0.0
  0
LINE
  5
74
330
1E
100
AcDbEntity
  8
0
100
AcDbLine
 10
17.0
 20
1.5
 30
0.0
 11
17.0
 21
0.900000000000001
 31
0.0
  0
LINE
  5
75
330
1E
100
AcDbEntity
  8
0
100
AcDbLine
 10
17.0
 20
0.900000000000001
 30
0.0
 11
17.0
 21
1.5
 31
0.0
  0
LINE
  5
76
330
1E
100
AcDbEntity
  8
0
100
AcDbLine
 10
17.0
 20
0.900000000000001
 30
0.0
 11
17.0
 21
0.600000000000001
 31
0.0
  0
LINE
  5
77
330
1E
100
AcDbEntity
  8
0
100
AcDbLine
 10
17.0
 20
0.600000000000001
 30
0.0
 11
17.0
 21
0.900000000000001
 31
0.0
  0
LINE
  5
78
330
1E
100
AcDbEntity
  8
0
100
AcDbLine
 10
17.0
 20
0.600000000000001
 30
0.0
 11
17.0
 21
0.500000000000001
 31
0.0
  0
LINE
  5
7A
330
1E
100
AcDbEntity
  8
0
100
AcDbLine
 10
17.0
 20
56.4
 30
0.0
 11
17.0
 21
55.5
 31
0.0
  0
LINE
  5
7B
330
1E
100
AcDbEntity
  8
0
100
AcDbLine
 10
17.0
 20
56.4
 30
0.0
 11
17.0
 21
57.0
 31
0.0
  0
LINE
  5
A1
330
1E
100
AcDbEntity
  8
0
100
AcDbLine
 10
27.9154
 20
57.0
 30
0.0
 11
40.0
 21
57.0
 31
0.0
  0
LINE
  5
A4
330
1E
100
AcDbEntity
  8
0
100
AcDbLine
 10
17.0
 20
57.0
 30
0.0
 11
27.9154
 21
57.0
 31
0.0
  0
LINE
  5
AD
330
1E
100
AcDbEntity
  8
0
100
AcDbLine
 10
40.0
 20
58.0
 30
0.0
 11
57.0
 21
58.0
 31
0.0
  0
LINE
  5
B3
330
1E
100
AcDbEntity
  8
0
100
AcDbLine
 10
17.0
 20
55.5
 30
0.0
 11
17.0
 21
56.4
 31
0.0
  0
LINE
  5
B4
330
1E
100
AcDbEntity
  8
0
100
AcDbLine
 10
17.0
 20
55.5
 30
0.0
 11
17.0
 21
54.5
 31
0.0
  0
LINE
  5
B5
330
1E
100
AcDbEntity
  8
0
100
AcDbLine
 10
17.0
 20
54.5
 30
0.0
 11
17.0
 21
55.5
 31
0.0
  0
LINE
  5
B6
330
1E
100
AcDbEntity
  8
0
100
AcDbLine
 10
17.0
 20
0.500000000000001
 30
0.0
 11
17.0
 21
0.600000000000001
 31
0.0
  0
LINE
  5
B7
330
1E
100
AcDbEntity
  8
0
100
AcDbLine
 10
40.0
 20
64.29999999999999
 30
0.0
 11
40.0
 21
60.3
 31
0.0
  0
LINE
  5
B8
330
1E
100
AcDbEntity
  8
0
100
AcDbLine
 10
40.0
 20
60.3
 30
0.0
 11
40.0
 21
57.9
 31
0.0
  0
LINE
  5
B9
330
1E
100
AcDbEntity
  8
0
100
AcDbLine
 10
40.0
 20
57.9
 30
0.0
 11
40.0
 21
57.0
 31
0.0
  0
LINE
  5
BA
330
1E
100
AcDbEntity
  8
0
100
AcDbLine
 10
0.499999999999999
 20
82.0
 30
0.0
 11
0.499999999999999
 21
88.40000000000001
 31
0.0
  0
LINE
  5
BB
330
1E
100
AcDbEntity
  8
0
100
AcDbLine
 10
40.0
 20
69.59999999999999
 30
0.0
 11
40.0
 21
64.29999999999999
 31
0.0
  0
LINE
  5
BC
330
1E
100
AcDbEntity
  8
0
100
AcDbLine
 10
57.0
 20
56.3529
 30
0.0
 11
57.0
 21
52.2941
 31
0.0
  0
LINE
  5
BD
330
1E
100
AcDbEntity
  8
0
100
AcDbLine
 10
57.0
 20
52.2941
 30
0.0
 11
57.0
 21
56.3529
 31
0.0
  0
LINE
  5
BE
330
1E
100
AcDbEntity
  8
0
100
AcDbLine
 10
57.0
 20
52.2941
 30
0.0
 11
57.0
 21
49.2941
 31
0.0
  0
LINE
  5
BF
330
1E
100
AcDbEntity
  8
0
100
AcDbLine
 10
57.0
 20
49.2941
 30
0.0
 11
57.0
 21
52.2941
 31
0.0
  0
LINE
  5
C0
330
1E
100
AcDbEntity
  8
0
100
AcDbLine
 10
57.0
 20
49.2941
 30
0.0
 11
57.0
 21
47.35289999999999
 31
0.0
  0
LINE
  5
C1
330
1E
100
AcDbEntity
  8
0
100
AcDbLine
 10
57.0
 20
67.9118
 30
0.0
 11
57.0
 21
75.05880000000001
 31
0.0
  0
LINE
  5
C2
330
1E
100
AcDbEntity
  8
0
100
AcDbLine
 10
57.0
 20
67.9118
 30
0.0
 11
57.0
 21
56.3529
 31
0.0
  0
LINE
  5
C3
330
1E
100
AcDbEntity
  8
0
100
AcDbLine
 10
57.0
 20
56.3529
 30
0.0
 11
57.0
 21
67.9118
 31
0.0
  0
LINE
  5
C4
330
1E
100
AcDbEntity
  8
0
100
AcDbLine
 10
57.0
 20
47.35289999999999
 30
0.0
 11
57.0
 21
49.2941
 31
0.0
  0
LINE
  5
C5
330
1E
100
AcDbEntity
  8
0
100
AcDbLine
 10
57.0
 20
47.35289999999999
 30
0.0
 11
57.0
 21
46.6471
 31
0.0
  0
LINE
  5
C6
330
1E
100
AcDbEntity
  8
0
100
AcDbLine
 10
57.0
 20
46.6471
 30
0.0
 11
57.0
 21
47.35289999999999
 31
0.0
  0
LINE
  5
C7
330
1E
100
AcDbEntity
  8
0
100
AcDbLine
 10
57.0
 20
46.6471
 30
0.0
 11
57.5
 21
45.41179999999999
 31
0.0
  0
LINE
  5
C8
330
1E
100
AcDbEntity
  8
0
100
AcDbLine
 10
57.0
 20
65.09999999999999
 30
0.0
 11
57.0
 21
56.3529
 31
0.0
  0
LINE
  5
C9
330
1E
100
AcDbEntity
  8
0
100
AcDbLine
 10
57.0
 20
75.05880000000001
 30
0.0
 11
57.0
 21
83.0
 31
0.0
  0
LINE
  5
CA
330
1E
100
AcDbEntity
  8
0
100
AcDbLine
 10
57.0
 20
75.05880000000001
 30
0.0
 11
57.0
 21
67.9118
 31
0.0
  0
LINE
  5
CB
330
1E
100
AcDbEntity
  8
0
100
AcDbLine
 10
57.0
 20
70.09999999999999
 30
0.0
 11
57.0
 21
65.09999999999999
 31
0.0
  0
LINE
  5
CC
330
1E
100
AcDbEntity
  8
0
100
AcDbLine
 10
60.0
 20
44.0
 30
0.0
 11
70.0
 21
44.0
 31
0.0
  0
LINE
  5
CD
330
1E
100
AcDbEntity
  8
0
100
AcDbLine
 10
70.0
 20
44.0
 30
0.0
 11
70.0
 21
44.7941
 31
0.0
  0
LINE
  5
CE
330
1E
100
AcDbEntity
  8
0
100
AcDbLine
 10
57.5
 20
45.41179999999999
 30
0.0
 11
58.6
 21
44.4412
 31
0.0
  0
LINE
  5
CF
330
1E
100
AcDbEntity
  8
0
100
AcDbLine
 10
58.6
 20
44.4412
 30
0.0
 11
60.0
 21
44.0
 31
0.0
  0
LINE
  5
D0
330
1E
100
AcDbEntity
  8
0
100
AcDbLine
 10
70.0
 20
44.7941
 30
0.0
 11
70.0
 21
44.0
 31
0.0
  0
LINE
  5
D1
330
1E
100
AcDbEntity
  8
0
100
AcDbLine
 10
70.0
 20
44.7941
 30
0.0
 11
70.0
 21
46.7353
 31
0.0
  0
LINE
  5
D2
330
1E
100
AcDbEntity
  8
0
100
AcDbLine
 10
70.0
 20
59.6176
 30
0.0
 11
70.0
 21
54.05879999999999
 31
0.0
  0
LINE
  5
D3
330
1E
100
AcDbEntity
  8
0
100
AcDbLine
 10
70.0
 20
59.6176
 30
0.0
 11
70.0
 21
66.0588
 31
0.0
  0
LINE
  5
D4
330
1E
100
AcDbEntity
  8
0
100
AcDbLine
 10
70.0
 20
54.05879999999999
 30
0.0
 11
70.0
 21
49.8235
 31
0.0
  0
LINE
  5
D5
330
1E
100
AcDbEntity
  8
0
100
AcDbLine
 10
70.0
 20
54.05879999999999
 30
0.0
 11
70.0
 21
59.6176
 31
0.0
  0
LINE
  5
D6
330
1E
100
AcDbEntity
  8
0
100
AcDbLine
 10
70.0
 20
46.7353
 30
0.0
 11
70.0
 21
44.7941
 31
0.0
  0
LINE
  5
D7
330
1E
100
AcDbEntity
  8
0
100
AcDbLine
 10
70.0
 20
46.7353
 30
0.0
 11
70.0
 21
49.8235
 31
0.0
  0
LINE
  5
D8
330
1E
100
AcDbEntity
  8
0
100
AcDbLine
 10
70.0
 20
49.8235
 30
0.0
 11
70.0
 21
46.7353
 31
0.0
  0
LINE
  5
D9
330
1E
100
AcDbEntity
  8
0
100
AcDbLine
 10
70.0
 20
49.8235
 30
0.0
 11
70.0
 21
54.05879999999999
 31
0.0
  0
LINE
  5
DA
330
1E
100
AcDbEntity
  8
0
100
AcDbLine
 10
70.0
 20
81.6765
 30
0.0
 11
70.0
 21
73.3824
 31
0.0
  0
LINE
  5
DB
330
1E
100
AcDbEntity
  8
0
100
AcDbLine
 10
70.0
 20
81.6765
 30
0.0
 11
70.0
 21
90.32349999999999
 31
0.0
  0
LINE
  5
DC
330
1E
100
AcDbEntity
  8
0
100
AcDbLine
 10
70.0
 20
73.3824
 30
0.0
 11
70.0
 21
81.6765
 31
0.0
  0
LINE
  5
DD
330
1E
100
AcDbEntity
  8
0
100
AcDbLine
 10
70.0
 20
66.0588
 30
0.0
 11
70.0
 21
73.3824
 31
0.0
  0
LINE
  5
DE
330
1E
100
AcDbEntity
  8
0
100
AcDbLine
 10
70.0
 20
66.0588
 30
0.0
 11
70.0
 21
59.6176
 31
0.0
  0
LINE
  5
DF
330
1E
100
AcDbEntity
  8
0
100
AcDbLine
 10
57.0
 20
75.8
 30
0.0
 11
57.0
 21
70.09999999999999
 31
0.0
  0
LINE
  5
E0
330
1E
100
AcDbEntity
  8
0
100
AcDbLine
 10
57.0
 20
82.0
 30
0.0
 11
57.0
 21
75.8
 31
0.0
  0
LINE
  5
E1
330
1E
100
AcDbEntity
  8
0
100
AcDbLine
 10
40.0
 20
75.59999999999999
 30
0.0
 11
40.0
 21
69.59999999999999
 31
0.0
  0
LINE
  5
E2
330
1E
100
AcDbEntity
  8
0
100
AcDbLine
 10
0.5
 20
94.40000000000001
 30
0.0
 11
0.5
 21
99.7
 31
0.0
  0
LINE
  5
E3
330
1E
100
AcDbEntity
  8
0
100
AcDbLine
 10
0.499999999999999
 20
88.40000000000001
 30
0.0
 11
0.5
 21
94.40000000000001
 31
0.0
  0
LINE
  5
E4
330
1E
100
AcDbEntity
  8
0
100
AcDbLine
 10
0.5
 20
99.7
 30
0.0
 11
0.5
 21
103.7
 31
0.0
  0
LINE
  5
E5
330
1E
100
AcDbEntity
  8
0
100
AcDbLine
 10
0.5
 20
103.7
 30
0.0
 11
0.5
 21
106.0999999999999
 31
0.0
  0
LINE
  5
E6
330
1E
100
AcDbEntity
  8
0
100
AcDbLine
 10
33.6003673053078
 20
104.775091826327
 30
0.0
 11
36.5
 21
105.4999999999999
 31
0.0
  0
LINE
  5
E7
330
1E
100
AcDbEntity
  8
0
100
AcDbLine
 10
57.0
 20
83.0
 30
0.0
 11
57.0
 21
75.05880000000001
 31
0.0
  0
LINE
  5
E8
330
1E
100
AcDbEntity
  8
0
100
AcDbLine
 10
57.0
 20
83.0
 30
0.0
 11
57.0
 21
91.38240000000001
 31
0.0
  0
LINE
  5
E9
330
1E
100
AcDbEntity
  8
0
100
AcDbLine
 10
57.0
 20
88.2
 30
0.0
 11
57.0
 21
82.0
 31
0.0
  0
LINE
  5
EA
330
1E
100
AcDbEntity
  8
0
100
AcDbLine
 10
36.5
 20
105.4999999999999
 30
0.0
 11
40.0
 21
106.0
 31
0.0
  0
LINE
  5
EB
330
1E
100
AcDbEntity
  8
0
100
AcDbLine
 10
35.0805
 20
99.6821
 30
0.0
 11
36.60289999999999
 21
94.3565
 31
0.0
  0
LINE
  5
EC
330
1E
100
AcDbEntity
  8
0
100
AcDbLine
 10
57.0
 20
91.38240000000001
 30
0.0
 11
57.0
 21
83.0
 31
0.0
  0
LINE
  5
ED
330
1E
100
AcDbEntity
  8
0
100
AcDbLine
 10
57.0
 20
100.2939999999999
 30
0.0
 11
57.0
 21
109.559
 31
0.0
  0
LINE
  5
EE
330
1E
100
AcDbEntity
  8
0
100
AcDbLine
 10
57.0
 20
98.9
 30
0.0
 11
57.0
 21
93.9
 31
0.0
  0
LINE
  5
EF
330
1E
100
AcDbEntity
  8
0
100
AcDbLine
 10
57.0
 20
93.9
 30
0.0
 11
57.0
 21
88.2
 31
0.0
  0
LINE
  5
F0
330
1E
100
AcDbEntity
  8
0
100
AcDbLine
 10
70.0
 20
99.6765
 30
0.0
 11
70.0
 21
90.32349999999999
 31
0.0
  0
LINE
  5
F1
330
1E
100
AcDbEntity
  8
0
100
AcDbLine
 10
70.0
 20
99.6765
 30
0.0
 11
70.0
 21
109.206
 31
0.0
  0
LINE
  5
F2
330
1E
100
AcDbEntity
  8
0
100
AcDbLine
 10
70.0
 20
90.32349999999999
 30
0.0
 11
70.0
 21
81.6765
 31
0.0
  0
LINE
  5
F3
330
1E
100
AcDbEntity
  8
0
100
AcDbLine
 10
70.0
 20
90.32349999999999
 30
0.0
 11
70.0
 21
99.6765
 31
0.0
  0
LINE
  5
F4
330
1E
100
AcDbEntity
  8
0
100
AcDbLine
 10
57.0
 20
102.8
 30
0.0
 11
57.0
 21
98.9
 31
0.0
  0
LINE
  5
F5
330
1E
100
AcDbEntity
  8
0
100
AcDbLine
 10
57.0
 20
105.0999999999999
 30
0.0
 11
57.0
 21
102.8
 31
0.0
  0
LINE
  5
F6
330
1E
100
AcDbEntity
  8
0
100
AcDbLine
 10
40.0
 20
106.0
 30
0.0
 11
57.0
 21
106.0
 31
0.0
  0
LINE
  5
F7
330
1E
100
AcDbEntity
  8
0
100
AcDbLine
 10
57.0
 20
106.0
 30
0.0
 11
57.0
 21
105.0999999999999
 31
0.0
  0
LINE
  5
F8
330
1E
100
AcDbEntity
  8
0
100
AcDbLine
 10
36.60289999999999
 20
94.3565
 30
0.0
 11
38.17969999999999
 21
88.5419
 31
0.0
  0
LINE
  5
F9
330
1E
100
AcDbEntity
  8
0
100
AcDbLine
 10
38.17969999999999
 20
88.5419
 30
0.0
 11
40.0
 21
82.0
 31
0.0
  0
LINE
  5
FA
330
1E
100
AcDbEntity
  8
0
100
AcDbLine
 10
33.8843
 20
103.7579999999999
 30
0.0
 11
35.0805
 21
99.6821
 31
0.0
  0
LINE
  5
FB
330
1E
100
AcDbEntity
  8
0
100
AcDbLine
 10
0.500000000000002
 20
107.0
 30
0.0
 11
33.0
 21
107.0
 31
0.0
  0
LINE
  5
FC
330
1E
100
AcDbEntity
  8
0
100
AcDbLine
 10
33.2319
 20
106.095
 30
0.0
 11
33.8843
 21
103.7579999999999
 31
0.0
  0
LINE
  5
FD
330
1E
100
AcDbEntity
  8
0
100
AcDbLine
 10
0.500000000000001
 20
107.0
 30
0.0
 11
33.0
 21
107.0
 31
0.0
  0
LINE
  5
FE
330
1E
100
AcDbEntity
  8
0
100
AcDbLine
 10
13.5769
 20
140.0
 30
0.0
 11
27.4231
 21
140.0
 31
0.0
  0
LINE
  5
100
330
1E
100
AcDbEntity
  8
0
100
AcDbLine
 10
13.0
 20
140.3839999999999
 30
0.0
 11
13.5769
 21
140.0
 31
0.0
  0
LINE
  5
101
330
1E
100
AcDbEntity
  8
0
100
AcDbLine
 10
13.0
 20
140.3839999999999
 30
0.0
 11
13.0
 21
140.96
 31
0.0
  0
LINE
  5
102
330
1E
100
AcDbEntity
  8
0
100
AcDbLine
 10
28.0
 20
141.0
 30
0.0
 11
37.42309999999999
 21
141.0
 31
0.0
  0
LINE
  5
103
330
1E
100
AcDbEntity
  8
0
100
AcDbLine
 10
13.0
 20
140.96
 30
0.0
 11
13.0
 21
140.3839999999999
 31
0.0
  0
LINE
  5
104
330
1E
100
AcDbEntity
  8
0
100
AcDbLine
 10
13.0
 20
140.96
 30
0.0
 11
13.0
 21
142.496
 31
0.0
  0
LINE
  5
106
330
1E
100
AcDbEntity
  8
0
100
AcDbLine
 10
28.0
 20
140.96
 30
0.0
 11
28.0
 21
142.496
 31
0.0
  0
LINE
  5
107
330
1E
100
AcDbEntity
  8
0
100
AcDbLine
 10
28.0
 20
140.96
 30
0.0
 11
28.0
 21
140.3839999999999
 31
0.0
  0
LINE
  5
108
330
1E
100
AcDbEntity
  8
0
100
AcDbLine
 10
27.4231
 20
140.0
 30
0.0
 11
28.0
 21
140.3839999999999
 31
0.0
  0
LINE
  5
109
330
1E
100
AcDbEntity
  8
0
100
AcDbLine
 10
57.0
 20
109.559
 30
0.0
 11
57.0
 21
119.0
 31
0.0
  0
LINE
  5
10A
330
1E
100
AcDbEntity
  8
0
100
AcDbLine
 10
57.0
 20
109.559
 30
0.0
 11
57.0
 21
100.2939999999999
 31
0.0
  0
LINE
  5
10B
330
1E
100
AcDbEntity
  8
0
100
AcDbLine
 10
57.0
 20
119.0
 30
0.0
 11
57.0
 21
128.441
 31
0.0
  0
LINE
  5
10C
330
1E
100
AcDbEntity
  8
0
100
AcDbLine
 10
57.0
 20
119.0
 30
0.0
 11
57.0
 21
109.559
 31
0.0
  0
LINE
  5
10D
330
1E
100
AcDbEntity
  8
0
100
AcDbLine
 10
57.0
 20
141.0
 30
0.0
 11
57.0
 21
137.706
 31
0.0
  0
LINE
  5
10E
330
1E
100
AcDbEntity
  8
0
100
AcDbLine
 10
57.0
 20
137.706
 30
0.0
 11
57.0
 21
141.0
 31
0.0
  0
LINE
  5
10F
330
1E
100
AcDbEntity
  8
0
100
AcDbLine
 10
57.0
 20
137.706
 30
0.0
 11
57.0
 21
128.441
 31
0.0
  0
LINE
  5
110
330
1E
100
AcDbEntity
  8
0
100
AcDbLine
 10
57.0
 20
128.441
 30
0.0
 11
57.0
 21
137.706
 31
0.0
  0
LINE
  5
111
330
1E
100
AcDbEntity
  8
0
100
AcDbLine
 10
57.0
 20
128.441
 30
0.0
 11
57.0
 21
119.0
 31
0.0
  0
LINE
  5
112
330
1E
100
AcDbEntity
  8
0
100
AcDbLine
 10
37.42309999999999
 20
141.0
 30
0.0
 11
38.0
 21
141.36
 31
0.0
  0
LINE
  5
113
330
1E
100
AcDbEntity
  8
0
100
AcDbLine
 10
28.0
 20
140.3839999999999
 30
0.0
 11
28.0
 21
140.96
 31
0.0
  0
LINE
  5
114
330
1E
100
AcDbEntity
  8
0
100
AcDbLine
 10
38.0
 20
141.9
 30
0.0
 11
38.0
 21
143.3399999999999
 31
0.0
  0
LINE
  5
115
330
1E
100
AcDbEntity
  8
0
100
AcDbLine
 10
38.0
 20
141.9
 30
0.0
 11
38.0
 21
141.36
 31
0.0
  0
LINE
  5
116
330
1E
100
AcDbEntity
  8
0
100
AcDbLine
 10
38.0
 20
141.36
 30
0.0
 11
38.0
 21
141.9
 31
0.0
  0
LINE
  5
119
330
1E
100
AcDbEntity
  8
0
100
AcDbLine
 10
13.0
 20
142.496
 30
0.0
 11
13.0
 21
140.96
 31
0.0
  0
LINE
  5
11A
330
1E
100
AcDbEntity
  8
0
100
AcDbLine
 10
13.0
 20
142.496
 30
0.0
 11
13.0
 21
144.992
 31
0.0
  0
LINE
  5
11C
330
1E
100
AcDbEntity
  8
0
100
AcDbLine
 10
28.0
 20
142.496
 30
0.0
 11
28.0
 21
144.992
 31
0.0
  0
LINE
  5
11D
330
1E
100
AcDbEntity
  8
0
100
AcDbLine
 10
28.0
 20
142.496
 30
0.0
 11
28.0
 21
140.96
 31
0.0
  0
LINE
  5
120
330
1E
100
AcDbEntity
  8
0
100
AcDbLine
 10
38.0
 20
143.0
 30
0.0
 11
40.0
 21
143.0
 31
0.0
  0
LINE
  5
121
330
1E
100
AcDbEntity
  8
0
100
AcDbLine
 10
38.0
 20
143.3399999999999
 30
0.0
 11
38.0
 21
145.68
 31
0.0
  0
LINE
  5
122
330
1E
100
AcDbEntity
  8
0
100
AcDbLine
 10
38.0
 20
143.3399999999999
 30
0.0
 11
38.0
 21
141.9
 31
0.0
  0
LINE
  5
126
330
1E
100
AcDbEntity
  8
0
100
AcDbLine
 10
13.0
 20
144.992
 30
0.0
 11
13.0
 21
142.496
 31
0.0
  0
LINE
  5
127
330
1E
100
AcDbEntity
  8
0
100
AcDbLine
 10
13.0
 20
144.992
 30
0.0
 11
13.0
 21
148.256
 31
0.0
  0
LINE
  5
12A
330
1E
100
AcDbEntity
  8
0
100
AcDbLine
 10
28.0
 20
144.992
 30
0.0
 11
28.0
 21
148.256
 31
0.0
  0
LINE
  5
12B
330
1E
100
AcDbEntity
  8
0
100
AcDbLine
 10
28.0
 20
144.992
 30
0.0
 11
28.0
 21
142.496
 31
0.0
  0
LINE
  5
12C
330
1E
100
AcDbEntity
  8
0
100
AcDbLine
 10
40.0
 20
144.716
 30
0.0
 11
40.0
 21
143.4679999999999
 31
0.0
  0
LINE
  5
12D
330
1E
100
AcDbEntity
  8
0
100
AcDbLine
 10
40.0
 20
144.716
 30
0.0
 11
40.0
 21
145.68
 31
0.0
  0
LINE
  5
12E
330
1E
100
AcDbEntity
  8
0
100
AcDbLine
 10
40.0
 20
143.4679999999999
 30
0.0
 11
40.0
 21
143.0
 31
0.0
  0
LINE
  5
12F
330
1E
100
AcDbEntity
  8
0
100
AcDbLine
 10
40.0
 20
143.0
 30
0.0
 11
40.0
 21
141.9
 31
0.0
  0
LINE
  5
130
330
1E
100
AcDbEntity
  8
0
100
AcDbLine
 10
40.0
 20
143.3399999999999
 30
0.0
 11
40.0
 21
145.68
 31
0.0
  0
LINE
  5
131
330
1E
100
AcDbEntity
  8
0
100
AcDbLine
 10
40.0
 20
143.3399999999999
 30
0.0
 11
40.0
 21
141.9
 31
0.0
  0
LINE
  5
132
330
1E
100
AcDbEntity
  8
0
100
AcDbLine
 10
40.0
 20
141.9
 30
0.0
 11
40.0
 21
143.3399999999999
 31
0.0
  0
LINE
  5
133
330
1E
100
AcDbEntity
  8
0
100
AcDbLine
 10
40.0
 20
141.9
 30
0.0
 11
40.0
 21
141.36
 31
0.0
  0
LINE
  5
134
330
1E
100
AcDbEntity
  8
0
100
AcDbLine
 10
40.0
 20
141.9
 30
0.0
 11
40.0
 21
143.0
 31
0.0
  0
LINE
  5
135
330
1E
100
AcDbEntity
  8
0
100
AcDbLine
 10
40.0
 20
141.36
 30
0.0
 11
40.0
 21
141.9
 31
0.0
  0
LINE
  5
136
330
1E
100
AcDbEntity
  8
0
100
AcDbLine
 10
40.0
 20
141.36
 30
0.0
 11
40.6
 21
141.0
 31
0.0
  0
LINE
  5
137
330
1E
100
AcDbEntity
  8
0
100
AcDbLine
 10
38.0
 20
145.68
 30
0.0
 11
38.0
 21
148.74
 31
0.0
  0
LINE
  5
138
330
1E
100
AcDbEntity
  8
0
100
AcDbLine
 10
38.0
 20
145.68
 30
0.0
 11
38.0
 21
143.3399999999999
 31
0.0
  0
LINE
  5
13B
330
1E
100
AcDbEntity
  8
0
100
AcDbLine
 10
13.0
 20
151.9679999999999
 30
0.0
 11
13.0
 21
148.256
 31
0.0
  0
LINE
  5
13C
330
1E
100
AcDbEntity
  8
0
100
AcDbLine
 10
13.0
 20
151.9679999999999
 30
0.0
 11
13.0
 21
156.0
 31
0.0
  0
LINE
  5
13D
330
1E
100
AcDbEntity
  8
0
100
AcDbLine
 10
13.0
 20
148.256
 30
0.0
 11
13.0
 21
144.992
 31
0.0
  0
LINE
  5
13E
330
1E
100
AcDbEntity
  8
0
100
AcDbLine
 10
13.0
 20
148.256
 30
0.0
 11
13.0
 21
151.9679999999999
 31
0.0
  0
LINE
  5
13F
330
1E
100
AcDbEntity
  8
0
100
AcDbLine
 10
38.0
 20
148.74
 30
0.0
 11
38.0
 21
152.2199999999999
 31
0.0
  0
LINE
  5
140
330
1E
100
AcDbEntity
  8
0
100
AcDbLine
 10
38.0
 20
148.74
 30
0.0
 11
38.0
 21
145.68
 31
0.0
  0
LINE
  5
142
330
1E
100
AcDbEntity
  8
0
100
AcDbLine
 10
28.0
 20
151.9679999999999
 30
0.0
 11
28.0
 21
156.0
 31
0.0
  0
LINE
  5
143
330
1E
100
AcDbEntity
  8
0
100
AcDbLine
 10
28.0
 20
151.9679999999999
 30
0.0
 11
28.0
 21
148.256
 31
0.0
  0
LINE
  5
144
330
1E
100
AcDbEntity
  8
0
100
AcDbLine
 10
28.0
 20
148.256
 30
0.0
 11
28.0
 21
151.9679999999999
 31
0.0
  0
LINE
  5
145
330
1E
100
AcDbEntity
  8
0
100
AcDbLine
 10
28.0
 20
148.256
 30
0.0
 11
28.0
 21
144.992
 31
0.0
  0
LINE
  5
149
330
1E
100
AcDbEntity
  8
0
100
AcDbLine
 10
57.0
 20
146.618
 30
0.0
 11
57.0
 21
155.0
 31
0.0
  0
LINE
  5
14A
330
1E
100
AcDbEntity
  8
0
100
AcDbLine
 10
40.0
 20
149.552
 30
0.0
 11
40.0
 21
148.74
 31
0.0
  0
LINE
  5
14B
330
1E
100
AcDbEntity
  8
0
100
AcDbLine
 10
40.0
 20
148.74
 30
0.0
 11
40.0
 21
152.2199999999999
 31
0.0
  0
LINE
  5
14C
330
1E
100
AcDbEntity
  8
0
100
AcDbLine
 10
40.0
 20
145.68
 30
0.0
 11
40.0
 21
148.74
 31
0.0
  0
LINE
  5
14D
330
1E
100
AcDbEntity
  8
0
100
AcDbLine
 10
40.0
 20
145.68
 30
0.0
 11
40.0
 21
143.3399999999999
 31
0.0
  0
LINE
  5
14E
330
1E
100
AcDbEntity
  8
0
100
AcDbLine
 10
38.0
 20
152.2199999999999
 30
0.0
 11
38.0
 21
156.0
 31
0.0
  0
LINE
  5
14F
330
1E
100
AcDbEntity
  8
0
100
AcDbLine
 10
38.0
 20
152.2199999999999
 30
0.0
 11
38.0
 21
148.74
 31
0.0
  0
LINE
  5
150
330
1E
100
AcDbEntity
  8
0
100
AcDbLine
 10
13.0
 20
156.0
 30
0.0
 11
13.0
 21
151.9679999999999
 31
0.0
  0
LINE
  5
151
330
1E
100
AcDbEntity
  8
0
100
AcDbLine
 10
13.0
 20
156.0
 30
0.0
 11
13.0
 21
160.032
 31
0.0
  0
LINE
  5
152
330
1E
100
AcDbEntity
  8
0
100
AcDbLine
 10
38.0
 20
156.0
 30
0.0
 11
38.0
 21
152.2199999999999
 31
0.0
  0
LINE
  5
153
330
1E
100
AcDbEntity
  8
0
100
AcDbLine
 10
38.0
 20
156.0
 30
0.0
 11
38.0
 21
159.78
 31
0.0
  0
LINE
  5
154
330
1E
100
AcDbEntity
  8
0
100
AcDbLine
 10
28.0
 20
156.0
 30
0.0
 11
28.0
 21
151.9679999999999
 31
0.0
  0
LINE
  5
155
330
1E
100
AcDbEntity
  8
0
100
AcDbLine
 10
28.0
 20
156.0
 30
0.0
 11
28.0
 21
160.032
 31
0.0
  0
LINE
  5
156
330
1E
100
AcDbEntity
  8
0
100
AcDbLine
 10
13.0
 20
160.032
 30
0.0
 11
13.0
 21
163.7439999999999
 31
0.0
  0
LINE
  5
158
330
1E
100
AcDbEntity
  8
0
100
AcDbLine
 10
38.0
 20
159.78
 30
0.0
 11
38.0
 21
163.26
 31
0.0
  0
LINE
  5
159
330
1E
100
AcDbEntity
  8
0
100
AcDbLine
 10
38.0
 20
159.78
 30
0.0
 11
38.0
 21
156.0
 31
0.0
  0
LINE
  5
15A
330
1E
100
AcDbEntity
  8
0
100
AcDbLine
 10
38.0
 20
163.26
 30
0.0
 11
38.0
 21
166.3199999999999
 31
0.0
  0
LINE
  5
15B
330
1E
100
AcDbEntity
  8
0
100
AcDbLine
 10
38.0
 20
163.26
 30
0.0
 11
38.0
 21
159.78
 31
0.0
  0
LINE
  5
15C
330
1E
100
AcDbEntity
  8
0
100
AcDbLine
 10
28.0
 20
160.032
 30
0.0
 11
28.0
 21
163.7439999999999
 31
0.0
  0
LINE
  5
15D
330
1E
100
AcDbEntity
  8
0
100
AcDbLine
 10
28.0
 20
160.032
 30
0.0
 11
28.0
 21
156.0
 31
0.0
  0
LINE
  5
15F
330
1E
100
AcDbEntity
  8
0
100
AcDbLine
 10
40.0
 20
159.328
 30
0.0
 11
40.0
 21
156.0
 31
0.0
  0
LINE
  5
160
330
1E
100
AcDbEntity
  8
0
100
AcDbLine
 10
40.0
 20
162.4479999999999
 30
0.0
 11
40.0
 21
159.328
 31
0.0
  0
LINE
  5
161
330
1E
100
AcDbEntity
  8
0
100
AcDbLine
 10
40.0
 20
152.672
 30
0.0
 11
40.0
 21
149.552
 31
0.0
  0
LINE
  5
162
330
1E
100
AcDbEntity
  8
0
100
AcDbLine
 10
40.0
 20
159.78
 30
0.0
 11
40.0
 21
163.26
 31
0.0
  0
LINE
  5
163
330
1E
100
AcDbEntity
  8
0
100
AcDbLine
 10
40.0
 20
159.78
 30
0.0
 11
40.0
 21
156.0
 31
0.0
  0
LINE
  5
164
330
1E
100
AcDbEntity
  8
0
100
AcDbLine
 10
13.0
 20
163.7439999999999
 30
0.0
 11
13.0
 21
160.032
 31
0.0
  0
LINE
  5
165
330
1E
100
AcDbEntity
  8
0
100
AcDbLine
 10
13.0
 20
163.7439999999999
 30
0.0
 11
13.0
 21
167.0079999999999
 31
0.0
  0
LINE
  5
167
330
1E
100
AcDbEntity
  8
0
100
AcDbLine
 10
28.0
 20
163.7439999999999
 30
0.0
 11
28.0
 21
167.0079999999999
 31
0.0
  0
LINE
  5
168
330
1E
100
AcDbEntity
  8
0
100
AcDbLine
 10
28.0
 20
163.7439999999999
 30
0.0
 11
28.0
 21
160.032
 31
0.0
  0
LINE
  5
16B
330
1E
100
AcDbEntity
  8
0
100
AcDbLine
 10
38.0
 20
166.3199999999999
 30
0.0
 11
38.0
 21
168.66
 31
0.0
  0
LINE
  5
16C
330
1E
100
AcDbEntity
  8
0
100
AcDbLine
 10
38.0
 20
166.3199999999999
 30
0.0
 11
38.0
 21
163.26
 31
0.0
  0
LINE
  5
16F
330
1E
100
AcDbEntity
  8
0
100
AcDbLine
 10
28.0
 20
167.0079999999999
 30
0.0
 11
28.0
 21
169.504
 31
0.0
  0
LINE
  5
170
330
1E
100
AcDbEntity
  8
0
100
AcDbLine
 10
28.0
 20
167.0079999999999
 30
0.0
 11
28.0
 21
163.7439999999999
 31
0.0
  0
LINE
  5
171
330
1E
100
AcDbEntity
  8
0
100
AcDbLine
 10
13.0
 20
167.0079999999999
 30
0.0
 11
13.0
 21
163.7439999999999
 31
0.0
  0
LINE
  5
172
330
1E
100
AcDbEntity
  8
0
100
AcDbLine
 10
13.0
 20
167.0079999999999
 30
0.0
 11
13.0
 21
169.504
 31
0.0
  0
LINE
  5
175
330
1E
100
AcDbEntity
  8
0
100
AcDbLine
 10
40.0
 20
165.204
 30
0.0
 11
40.0
 21
162.4479999999999
 31
0.0
  0
LINE
  5
178
330
1E
100
AcDbEntity
  8
0
100
AcDbLine
 10
38.0
 20
168.66
 30
0.0
 11
38.0
 21
170.1
 31
0.0
  0
LINE
  5
179
330
1E
100
AcDbEntity
  8
0
100
AcDbLine
 10
38.0
 20
168.66
 30
0.0
 11
38.0
 21
166.3199999999999
 31
0.0
  0
LINE
  5
17C
330
1E
100
AcDbEntity
  8
0
100
AcDbLine
 10
40.0
 20
167.284
 30
0.0
 11
40.0
 21
165.204
 31
0.0
  0
LINE
  5
17D
330
1E
100
AcDbEntity
  8
0
100
AcDbLine
 10
40.0
 20
168.532
 30
0.0
 11
40.0
 21
167.284
 31
0.0
  0
LINE
  5
17E
330
1E
100
AcDbEntity
  8
0
100
AcDbLine
 10
40.0
 20
163.26
 30
0.0
 11
40.0
 21
166.3199999999999
 31
0.0
  0
LINE
  5
17F
330
1E
100
AcDbEntity
  8
0
100
AcDbLine
 10
40.0
 20
163.26
 30
0.0
 11
40.0
 21
159.78
 31
0.0
  0
LINE
  5
180
330
1E
100
AcDbEntity
  8
0
100
AcDbLine
 10
40.0
 20
166.3199999999999
 30
0.0
 11
40.0
 21
168.66
 31
0.0
  0
LINE
  5
181
330
1E
100
AcDbEntity
  8
0
100
AcDbLine
 10
40.0
 20
166.3199999999999
 30
0.0
 11
40.0
 21
163.26
 31
0.0
  0
LINE
  5
182
330
1E
100
AcDbEntity
  8
0
100
AcDbLine
 10
13.0
 20
169.504
 30
0.0
 11
13.0
 21
167.0079999999999
 31
0.0
  0
LINE
  5
183
330
1E
100
AcDbEntity
  8
0
100
AcDbLine
 10
13.0
 20
169.504
 30
0.0
 11
13.0
 21
171.0399999999999
 31
0.0
  0
LINE
  5
187
330
1E
100
AcDbEntity
  8
0
100
AcDbLine
 10
38.0
 20
170.6399999999999
 30
0.0
 11
38.0
 21
170.1
 31
0.0
  0
LINE
  5
188
330
1E
100
AcDbEntity
  8
0
100
AcDbLine
 10
38.0
 20
170.1
 30
0.0
 11
38.0
 21
170.6399999999999
 31
0.0
  0
LINE
  5
189
330
1E
100
AcDbEntity
  8
0
100
AcDbLine
 10
38.0
 20
170.1
 30
0.0
 11
38.0
 21
168.66
 31
0.0
  0
LINE
  5
18A
330
1E
100
AcDbEntity
  8
0
100
AcDbLine
 10
28.0
 20
170.46
 30
0.0
 11
28.0
 21
171.0
 31
0.0
  0
LINE
  5
18B
330
1E
100
AcDbEntity
  8
0
100
AcDbLine
 10
28.0
 20
169.504
 30
0.0
 11
28.0
 21
171.0399999999999
 31
0.0
  0
LINE
  5
18C
330
1E
100
AcDbEntity
  8
0
100
AcDbLine
 10
28.0
 20
169.504
 30
0.0
 11
28.0
 21
167.0079999999999
 31
0.0
  0
LINE
  5
18F
330
1E
100
AcDbEntity
  8
0
100
AcDbLine
 10
38.0
 20
169.0
 30
0.0
 11
40.0
 21
169.0
 31
0.0
  0
LINE
  5
190
330
1E
100
AcDbEntity
  8
0
100
AcDbLine
 10
40.0
 20
169.0
 30
0.0
 11
40.0
 21
170.1
 31
0.0
  0
LINE
  5
191
330
1E
100
AcDbEntity
  8
0
100
AcDbLine
 10
40.0
 20
169.0
 30
0.0
 11
40.0
 21
168.532
 31
0.0
  0
LINE
  5
192
330
1E
100
AcDbEntity
  8
0
100
AcDbLine
 10
40.0
 20
168.66
 30
0.0
 11
40.0
 21
170.1
 31
0.0
  0
LINE
  5
193
330
1E
100
AcDbEntity
  8
0
100
AcDbLine
 10
40.0
 20
168.66
 30
0.0
 11
40.0
 21
166.3199999999999
 31
0.0
  0
LINE
  5
194
330
1E
100
AcDbEntity
  8
0
100
AcDbLine
 10
40.0
 20
170.1
 30
0.0
 11
40.0
 21
170.6399999999999
 31
0.0
  0
LINE
  5
195
330
1E
100
AcDbEntity
  8
0
100
AcDbLine
 10
40.0
 20
170.1
 30
0.0
 11
40.0
 21
168.66
 31
0.0
  0
LINE
  5
196
330
1E
100
AcDbEntity
  8
0
100
AcDbLine
 10
40.0
 20
170.1
 30
0.0
 11
40.0
 21
169.0
 31
0.0
  0
LINE
  5
197
330
1E
100
AcDbEntity
  8
0
100
AcDbLine
 10
13.0
 20
171.0399999999999
 30
0.0
 11
13.0
 21
169.504
 31
0.0
  0
LINE
  5
198
330
1E
100
AcDbEntity
  8
0
100
AcDbLine
 10
13.0
 20
171.0399999999999
 30
0.0
 11
13.0
 21
171.6159999999999
 31
0.0
  0
LINE
  5
199
330
1E
100
AcDbEntity
  8
0
100
AcDbLine
 10
13.0
 20
171.6159999999999
 30
0.0
 11
13.0
 21
171.0399999999999
 31
0.0
  0
LINE
  5
19A
330
1E
100
AcDbEntity
  8
0
100
AcDbLine
 10
13.0
 20
171.6159999999999
 30
0.0
 11
13.5769
 21
172.0
 31
0.0
  0
LINE
  5
19C
330
1E
100
AcDbEntity
  8
0
100
AcDbLine
 10
28.0
 20
171.0
 30
0.0
 11
28.0
 21
170.46
 31
0.0
  0
LINE
  5
19D
330
1E
100
AcDbEntity
  8
0
100
AcDbLine
 10
28.0
 20
171.0
 30
0.0
 11
37.42309999999999
 21
171.0
 31
0.0
  0
LINE
  5
19E
330
1E
100
AcDbEntity
  8
0
100
AcDbLine
 10
28.0
 20
171.6159999999999
 30
0.0
 11
28.0
 21
171.0399999999999
 31
0.0
  0
LINE
  5
1A0
330
1E
100
AcDbEntity
  8
0
100
AcDbLine
 10
37.42309999999999
 20
171.0
 30
0.0
 11
38.0
 21
170.6399999999999
 31
0.0
  0
LINE
  5
1A1
330
1E
100
AcDbEntity
  8
0
100
AcDbLine
 10
28.0
 20
171.0399999999999
 30
0.0
 11
28.0
 21
171.6159999999999
 31
0.0
  0
LINE
  5
1A2
330
1E
100
AcDbEntity
  8
0
100
AcDbLine
 10
27.4231
 20
172.0
 30
0.0
 11
28.0
 21
171.6159999999999
 31
0.0
  0
LINE
  5
1A3
330
1E
100
AcDbEntity
  8
0
100
AcDbLine
 10
13.5769
 20
172.0
 30
0.0
 11
27.4231
 21
172.0
 31
0.0
  0
LINE
  5
1A4
330
1E
100
AcDbEntity
  8
0
100
AcDbLine
 10
40.0
 20
170.6399999999999
 30
0.0
 11
40.6
 21
171.0
 31
0.0
  0
LINE
  5
1A5
330
1E
100
AcDbEntity
  8
0
100
AcDbLine
 10
40.0
 20
170.6399999999999
 30
0.0
 11
40.0
 21
170.1
 31
0.0
  0
LINE
  5
1A6
330
1E
100
AcDbEntity
  8
0
100
AcDbLine
 10
57.0
 20
155.0
 30
0.0
 11
57.0
 21
162.941
 31
0.0
  0
LINE
  5
1A7
330
1E
100
AcDbEntity
  8
0
100
AcDbLine
 10
57.0
 20
155.0
 30
0.0
 11
57.0
 21
146.618
 31
0.0
  0
LINE
  5
1A8
330
1E
100
AcDbEntity
  8
0
100
AcDbLine
 10
57.0
 20
162.941
 30
0.0
 11
57.0
 21
170.0879999999999
 31
0.0
  0
LINE
  5
1A9
330
1E
100
AcDbEntity
  8
0
100
AcDbLine
 10
57.0
 20
162.941
 30
0.0
 11
57.0
 21
155.0
 31
0.0
  0
LINE
  5
1AA
330
1E
100
AcDbEntity
  8
0
100
AcDbLine
 10
57.0
 20
159.8399999999999
 30
0.0
 11
57.0
 21
156.0
 31
0.0
  0
LINE
  5
1AB
330
1E
100
AcDbEntity
  8
0
100
AcDbLine
 10
57.0
 20
163.44
 30
0.0
 11
57.0
 21
159.8399999999999
 31
0.0
  0
LINE
  5
1AC
330
1E
100
AcDbEntity
  8
0
100
AcDbLine
 10
57.0
 20
170.0879999999999
 30
0.0
 11
57.0
 21
176.3529999999999
 31
0.0
  0
LINE
  5
1AD
330
1E
100
AcDbEntity
  8
0
100
AcDbLine
 10
57.0
 20
170.0879999999999
 30
0.0
 11
57.0
 21
162.941
 31
0.0
  0
LINE
  5
1AE
330
1E
100
AcDbEntity
  8
0
100
AcDbLine
 10
57.0
 20
166.62
 30
0.0
 11
57.0
 21
163.44
 31
0.0
  0
LINE
  5
1AF
330
1E
100
AcDbEntity
  8
0
100
AcDbLine
 10
57.0
 20
169.02
 30
0.0
 11
57.0
 21
166.62
 31
0.0
  0
LINE
  5
1B0
330
1E
100
AcDbEntity
  8
0
100
AcDbLine
 10
57.0
 20
170.46
 30
0.0
 11
57.0
 21
169.02
 31
0.0
  0
LINE
  5
1B1
330
1E
100
AcDbEntity
  8
0
100
AcDbLine
 10
40.6
 20
171.0
 30
0.0
 11
57.0
 21
171.0
 31
0.0
  0
LINE
  5
1B2
330
1E
100
AcDbEntity
  8
0
100
AcDbLine
 10
57.0
 20
176.3529999999999
 30
0.0
 11
57.0
 21
181.647
 31
0.0
  0
LINE
  5
1B3
330
1E
100
AcDbEntity
  8
0
100
AcDbLine
 10
57.0
 20
176.3529999999999
 30
0.0
 11
57.0
 21
170.0879999999999
 31
0.0
  0
LINE
  5
1B4
330
1E
100
AcDbEntity
  8
0
100
AcDbLine
 10
57.0
 20
181.647
 30
0.0
 11
57.0
 21
185.7059999999999
 31
0.0
  0
LINE
  5
1B5
330
1E
100
AcDbEntity
  8
0
100
AcDbLine
 10
57.0
 20
181.647
 30
0.0
 11
57.0
 21
176.3529999999999
 31
0.0
  0
LINE
  5
1B6
330
1E
100
AcDbEntity
  8
0
100
AcDbLine
 10
57.0
 20
171.0
 30
0.0
 11
57.0
 21
170.46
 31
0.0
  0
LINE
  5
1B7
330
1E
100
AcDbEntity
  8
0
100
AcDbLine
 10
40.0
 20
156.0
 30
0.0
 11
40.0
 21
152.2199999999999
 31
0.0
  0
LINE
  5
1B8
330
1E
100
AcDbEntity
  8
0
100
AcDbLine
 10
40.0
 20
156.0
 30
0.0
 11
40.0
 21
159.78
 31
0.0
  0
LINE
  5
1B9
330
1E
100
AcDbEntity
  8
0
100
AcDbLine
 10
40.0
 20
156.0
 30
0.0
 11
40.0
 21
152.672
 31
0.0
  0
LINE
  5
1BA
330
1E
100
AcDbEntity
  8
0
100
AcDbLine
 10
40.0
 20
152.2199999999999
 30
0.0
 11
40.0
 21
156.0
 31
0.0
  0
LINE
  5
1BB
330
1E
100
AcDbEntity
  8
0
100
AcDbLine
 10
40.0
 20
152.2199999999999
 30
0.0
 11
40.0
 21
148.74
 31
0.0
  0
LINE
  5
1BC
330
1E
100
AcDbEntity
  8
0
100
AcDbLine
 10
57.0
 20
156.0
 30
0.0
 11
57.0
 21
152.16
 31
0.0
  0
LINE
  5
1BD
330
1E
100
AcDbEntity
  8
0
100
AcDbLine
 10
57.0
 20
152.16
 30
0.0
 11
57.0
 21
148.5599999999999
 31
0.0
  0
LINE
  5
1BE
330
1E
100
AcDbEntity
  8
0
100
AcDbLine
 10
57.0
 20
148.5599999999999
 30
0.0
 11
57.0
 21
145.38
 31
0.0
  0
LINE
  5
1BF
330
1E
100
AcDbEntity
  8
0
100
AcDbLine
 10
57.0
 20
145.38
 30
0.0
 11
57.0
 21
142.98
 31
0.0
  0
LINE
  5
1C0
330
1E
100
AcDbEntity
  8
0
100
AcDbLine
 10
57.0
 20
142.98
 30
0.0
 11
57.0
 21
141.5399999999999
 31
0.0
  0
LINE
  5
1C1
330
1E
100
AcDbEntity
  8
0
100
AcDbLine
 10
40.6
 20
141.0
 30
0.0
 11
57.0
 21
141.0
 31
0.0
  0
LINE
  5
1C2
330
1E
100
AcDbEntity
  8
0
100
AcDbLine
 10
57.0
 20
185.7059999999999
 30
0.0
 11
57.0
 21
188.7059999999999
 31
0.0
  0
LINE
  5
1C3
330
1E
100
AcDbEntity
  8
0
100
AcDbLine
 10
57.0
 20
188.7059999999999
 30
0.0
 11
57.0
 21
190.647
 31
0.0
  0
LINE
  5
1C4
330
1E
100
AcDbEntity
  8
0
100
AcDbLine
 10
57.0
 20
188.7059999999999
 30
0.0
 11
57.0
 21
185.7059999999999
 31
0.0
  0
LINE
  5
1C5
330
1E
100
AcDbEntity
  8
0
100
AcDbLine
 10
57.0
 20
190.647
 30
0.0
 11
57.0
 21
191.3529999999999
 31
0.0
  0
LINE
  5
1C6
330
1E
100
AcDbEntity
  8
0
100
AcDbLine
 10
57.0
 20
190.647
 30
0.0
 11
57.0
 21
188.7059999999999
 31
0.0
  0
LINE
  5
1C7
330
1E
100
AcDbEntity
  8
0
100
AcDbLine
 10
57.0
 20
191.3529999999999
 30
0.0
 11
57.5
 21
192.588
 31
0.0
  0
LINE
  5
1C8
330
1E
100
AcDbEntity
  8
0
100
AcDbLine
 10
57.0
 20
191.3529999999999
 30
0.0
 11
57.0
 21
190.647
 31
0.0
  0
LINE
  5
1C9
330
1E
100
AcDbEntity
  8
0
100
AcDbLine
 10
57.5
 20
192.588
 30
0.0
 11
58.6
 21
193.559
 31
0.0
  0
LINE
  5
1CA
330
1E
100
AcDbEntity
  8
0
100
AcDbLine
 10
70.0
 20
109.206
 30
0.0
 11
70.0
 21
99.6765
 31
0.0
  0
LINE
  5
1CB
330
1E
100
AcDbEntity
  8
0
100
AcDbLine
 10
70.0
 20
109.206
 30
0.0
 11
70.0
 21
119.0
 31
0.0
  0
LINE
  5
1CC
330
1E
100
AcDbEntity
  8
0
100
AcDbLine
 10
70.0
 20
119.0
 30
0.0
 11
70.0
 21
128.7939999999999
 31
0.0
  0
LINE
  5
1CD
330
1E
100
AcDbEntity
  8
0
100
AcDbLine
 10
70.0
 20
119.0
 30
0.0
 11
70.0
 21
109.206
 31
0.0
  0
LINE
  5
1CE
330
1E
100
AcDbEntity
  8
0
100
AcDbLine
 10
70.0
 20
171.9409999999999
 30
0.0
 11
70.0
 21
164.618
 31
0.0
  0
LINE
  5
1CF
330
1E
100
AcDbEntity
  8
0
100
AcDbLine
 10
70.0
 20
171.9409999999999
 30
0.0
 11
70.0
 21
178.382
 31
0.0
  0
LINE
  5
1D0
330
1E
100
AcDbEntity
  8
0
100
AcDbLine
 10
70.0
 20
164.618
 30
0.0
 11
70.0
 21
156.3239999999999
 31
0.0
  0
LINE
  5
1D1
330
1E
100
AcDbEntity
  8
0
100
AcDbLine
 10
70.0
 20
164.618
 30
0.0
 11
70.0
 21
171.9409999999999
 31
0.0
  0
LINE
  5
1D2
330
1E
100
AcDbEntity
  8
0
100
AcDbLine
 10
70.0
 20
156.3239999999999
 30
0.0
 11
70.0
 21
147.676
 31
0.0
  0
LINE
  5
1D3
330
1E
100
AcDbEntity
  8
0
100
AcDbLine
 10
70.0
 20
156.3239999999999
 30
0.0
 11
70.0
 21
164.618
 31
0.0
  0
LINE
  5
1D4
330
1E
100
AcDbEntity
  8
0
100
AcDbLine
 10
70.0
 20
147.676
 30
0.0
 11
70.0
 21
138.3239999999999
 31
0.0
  0
LINE
  5
1D5
330
1E
100
AcDbEntity
  8
0
100
AcDbLine
 10
70.0
 20
147.676
 30
0.0
 11
70.0
 21
156.3239999999999
 31
0.0
  0
LINE
  5
1D6
330
1E
100
AcDbEntity
  8
0
100
AcDbLine
 10
70.0
 20
138.3239999999999
 30
0.0
 11
70.0
 21
128.7939999999999
 31
0.0
  0
LINE
  5
1D7
330
1E
100
AcDbEntity
  8
0
100
AcDbLine
 10
70.0
 20
138.3239999999999
 30
0.0
 11
70.0
 21
147.676
 31
0.0
  0
LINE
  5
1D8
330
1E
100
AcDbEntity
  8
0
100
AcDbLine
 10
70.0
 20
128.7939999999999
 30
0.0
 11
70.0
 21
119.0
 31
0.0
  0
LINE
  5
1D9
330
1E
100
AcDbEntity
  8
0
100
AcDbLine
 10
70.0
 20
128.7939999999999
 30
0.0
 11
70.0
 21
138.3239999999999
 31
0.0
  0
LINE
  5
1DA
330
1E
100
AcDbEntity
  8
0
100
AcDbLine
 10
70.0
 20
191.265
 30
0.0
 11
70.0
 21
188.1759999999999
 31
0.0
  0
LINE
  5
1DB
330
1E
100
AcDbEntity
  8
0
100
AcDbLine
 10
70.0
 20
191.265
 30
0.0
 11
70.0
 21
193.2059999999999
 31
0.0
  0
LINE
  5
1DC
330
1E
100
AcDbEntity
  8
0
100
AcDbLine
 10
70.0
 20
193.2059999999999
 30
0.0
 11
70.0
 21
191.265
 31
0.0
  0
LINE
  5
1DD
330
1E
100
AcDbEntity
  8
0
100
AcDbLine
 10
70.0
 20
193.2059999999999
 30
0.0
 11
70.0
 21
194.0
 31
0.0
  0
LINE
  5
1DE
330
1E
100
AcDbEntity
  8
0
100
AcDbLine
 10
70.0
 20
194.0
 30
0.0
 11
70.0
 21
193.2059999999999
 31
0.0
  0
LINE
  5
1DF
330
1E
100
AcDbEntity
  8
0
100
AcDbLine
 10
70.0
 20
188.1759999999999
 30
0.0
 11
70.0
 21
183.9409999999999
 31
0.0
  0
LINE
  5
1E0
330
1E
100
AcDbEntity
  8
0
100
AcDbLine
 10
70.0
 20
188.1759999999999
 30
0.0
 11
70.0
 21
191.265
 31
0.0
  0
LINE
  5
1E1
330
1E
100
AcDbEntity
  8
0
100
AcDbLine
 10
70.0
 20
183.9409999999999
 30
0.0
 11
70.0
 21
178.382
 31
0.0
  0
LINE
  5
1E2
330
1E
100
AcDbEntity
  8
0
100
AcDbLine
 10
70.0
 20
183.9409999999999
 30
0.0
 11
70.0
 21
188.1759999999999
 31
0.0
  0
LINE
  5
1E3
330
1E
100
AcDbEntity
  8
0
100
AcDbLine
 10
70.0
 20
178.382
 30
0.0
 11
70.0
 21
171.9409999999999
 31
0.0
  0
LINE
  5
1E4
330
1E
100
AcDbEntity
  8
0
100
AcDbLine
 10
70.0
 20
178.382
 30
0.0
 11
70.0
 21
183.9409999999999
 31
0.0
  0
LINE
  5
1E5
330
1E
100
AcDbEntity
  8
0
100
AcDbLine
 10
58.6
 20
193.559
 30
0.0
 11
60.0
 21
194.0
 31
0.0
  0
LINE
  5
1E6
330
1E
100
AcDbEntity
  8
0
100
AcDbLine
 10
60.0
 20
194.0
 30
0.0
 11
70.0
 21
194.0
 31
0.0
  0
LINE
  5
1E7
330
1E
100
AcDbEntity
  8
0
100
AcDbLine
 10
57.0
 20
141.5399999999999
 30
0.0
 11
57.0
 21
141.0
 31
0.0
  0
LINE
  5
1E8
330
1E
100
AcDbEntity
  8
0
100
AcDbLine
 10
33.0
 20
107.0
 30
0.0
 11
33.2319
 21
106.095
 31
0.0
  0
LINE
  5
1E9
330
1E
100
AcDbEntity
  8
0
100
AcDbLine
 10
0.5
 20
106.0999999999999
 30
0.0
 11
0.500000000000001
 21
107.0
 31
0.0
  0
LINE
  5
1EA
330
1E
100
AcDbEntity
  8
0
100
AcDbLine
 10
40.0
 20
82.0
 30
0.0
 11
40.0
 21
75.59999999999999
 31
0.0
  0
LINE
  5
1EB
330
1E
100
AcDbEntity
  8
0
100
AcDbLine
 10
0.499999999999999
 20
75.59999999999999
 30
0.0
 11
0.499999999999999
 21
82.0
 31
0.0
  0
ENDSEC
  0
SECTION
  2
OBJECTS
  0
DICTIONARY
  5
C
330
0
100
AcDbDictionary
281
     1
  3
ACAD_GROUP
350
D
  3
ACAD_LAYOUT
350
19
  3
ACAD_MLINESTYLE
350
16
  3
ACAD_PLOTSETTINGS
350
18
  3
ACAD_PLOTSTYLENAME
350
E
  3
AcDbVariableDictionary
350
1F0
  0
DICTIONARY
  5
D
102
{ACAD_REACTORS
330
C
102
}
330
C
100
AcDbDictionary
281
     1
  0
DICTIONARY
  5
19
102
{ACAD_REACTORS
330
C
102
}
330
C
100
AcDbDictionary
281
     1
  3
Layout1
350
1D
  3
Model
350
21
  0
DICTIONARY
  5
16
102
{ACAD_REACTORS
330
C
102
}
330
C
100
AcDbDictionary
281
     1
  3
Standard
350
17
  0
DICTIONARY
  5
18
102
{ACAD_REACTORS
330
C
102
}
330
C
100
AcDbDictionary
281
     1
  0
ACDBDICTIONARYWDFLT
  5
E
102
{ACAD_REACTORS
330
C
102
}
330
C
100
AcDbDictionary
281
     1
  3
Normal
350
F
100
AcDbDictionaryWithDefault
340
F
  0
DICTIONARY
  5
1F0
102
{ACAD_REACTORS
330
C
102
}
330
C
100
AcDbDictionary
281
     1
  3
DIMASSOC
350
1F1
  0
LAYOUT
  5
1D
102
{ACAD_REACTORS
330
19
102
}
330
19
100
AcDbPlotSettings
  1

  2
hp deskjet 980c series
  4

  6

 40
0.0
 41
0.0
 42
0.0
 43
0.0
 44
0.0
 45
0.0
 46
0.0
 47
0.0
 48
0.0
 49
0.0
140
0.0
141
0.0
142
1.0
143
1.0
 70
   688
 72
     0
 73
     0
 74
     5
  7

 75
    16
147
1.0
148
0.0
149
0.0
100
AcDbLayout
  1
Layout1
 70
     1
 71
     1
 10
0.0
 20
0.0
 11
12.0
 21
9.0
 12
0.0
 22
0.0
 32
0.0
 14
1.000000000000000E+20
 24
1.000000000000000E+20
 34
1.000000000000000E+20
 15
-1.000000000000000E+20
 25
-1.000000000000000E+20
 35
-1.000000000000000E+20
146
0.0
 13
0.0
 23
0.0
 33
0.0
 16
1.0
 26
0.0
 36
0.0
 17
0.0
 27
1.0
 37
0.0
 76
     0
330
1A
  0
LAYOUT
  5
21
102
{ACAD_REACTORS
330
19
102
}
330
19
100
AcDbPlotSettings
  1

  2
hp deskjet 980c series
  4

  6

 40
0.0
 41
0.0
 42
0.0
 43
0.0
 44
0.0
 45
0.0
 46
0.0
 47
0.0
 48
0.0
 49
0.0
140
0.0
141
0.0
142
1.0
143
1.0
 70
  1712
 72
     0
 73
     0
 74
     0
  7

 75
     0
147
1.0
148
0.0
149
0.0
100
AcDbLayout
  1
Model
 70
     1
 71
     0
 10
0.0
 20
0.0
 11
12.0
 21
9.0
 12
0.0
 22
0.0
 32
0.0
 14
0.0
 24
0.0
 34
0.0
 15
0.0
 25
0.0
 35
0.0
146
0.0
 13
0.0
 23
0.0
 33
0.0
 16
1.0
 26
0.0
 36
0.0
 17
0.0
 27
1.0
 37
0.0
 76
     0
330
1E
  0
MLINESTYLE
  5
17
102
{ACAD_REACTORS
330
16
102
}
330
16
100
AcDbMlineStyle
  2
STANDARD
 70
     0
  3

 62
   256
 51
90.0
 52
90.0
 71
     2
 49
0.5
 62
   256
  6
BYLAYER
 49
-0.5
 62
   256
  6
BYLAYER
  0
ACDBPLACEHOLDER
  5
F
102
{ACAD_REACTORS
330
E
102
}
330
E
  0
DICTIONARYVAR
  5
1F1
102
{ACAD_REACTORS
330
1F0
102
}
330
1F0
100
DictionaryVariables
280
     0
  1
1
  0
ENDSEC
  0
EOF
