  0
SECTION
  2
HEADER
  9
$ACADVER
  1
AC1015
  9
$ACADMAINTVER
 70
    13
  9
$DWGCODEPAGE
  3
ANSI_1252
  9
$INSBASE
 10
0.0
 20
0.0
 30
0.0
  9
$EXTMIN
 10
0.0
 20
0.174000000000006
 30
0.0
  9
$EXTMAX
 10
220.0
 20
186.826
 30
0.0
  9
$LIMMIN
 10
0.0
 20
0.0
  9
$LIMMAX
 10
12.0
 20
9.0
  9
$ORTHOMODE
 70
     0
  9
$REGENMODE
 70
     1
  9
$FILLMODE
 70
     1
  9
$QTEXTMODE
 70
     0
  9
$MIRRTEXT
 70
     1
  9
$LTSCALE
 40
1.0
  9
$ATTMODE
 70
     1
  9
$TEXTSIZE
 40
0.2
  9
$TRACEWID
 40
0.05
  9
$TEXTSTYLE
  7
Standard
  9
$CLAYER
  8
0
  9
$CELTYPE
  6
Continuous
  9
$CECOLOR
 62
   256
  9
$CELTSCALE
 40
1.0
  9
$DISPSILH
 70
     0
  9
$DIMSCALE
 40
1.0
  9
$DIMASZ
 40
0.18
  9
$DIMEXO
 40
0.0625
  9
$DIMDLI
 40
0.38
  9
$DIMRND
 40
0.0
  9
$DIMDLE
 40
0.0
  9
$DIMEXE
 40
0.18
  9
$DIMTP
 40
0.0
  9
$DIMTM
 40
0.0
  9
$DIMTXT
 40
0.18
  9
$DIMCEN
 40
0.09
  9
$DIMTSZ
 40
0.0
  9
$DIMTOL
 70
     0
  9
$DIMLIM
 70
     0
  9
$DIMTIH
 70
     1
  9
$DIMTOH
 70
     1
  9
$DIMSE1
 70
     0
  9
$DIMSE2
 70
     0
  9
$DIMTAD
 70
     0
  9
$DIMZIN
 70
     0
  9
$DIMBLK
  1

  9
$DIMASO
 70
     1
  9
$DIMSHO
 70
     1
  9
$DIMPOST
  1

  9
$DIMAPOST
  1

  9
$DIMALT
 70
     0
  9
$DIMALTD
 70
     2
  9
$DIMALTF
 40
25.4
  9
$DIMLFAC
 40
1.0
  9
$DIMTOFL
 70
     0
  9
$DIMTVP
 40
0.0
  9
$DIMTIX
 70
     0
  9
$DIMSOXD
 70
     0
  9
$DIMSAH
 70
     0
  9
$DIMBLK1
  1

  9
$DIMBLK2
  1

  9
$DIMSTYLE
  2
Standard
  9
$DIMCLRD
 70
     0
  9
$DIMCLRE
 70
     0
  9
$DIMCLRT
 70
     0
  9
$DIMTFAC
 40
1.0
  9
$DIMGAP
 40
0.09
  9
$DIMJUST
 70
     0
  9
$DIMSD1
 70
     0
  9
$DIMSD2
 70
     0
  9
$DIMTOLJ
 70
     1
  9
$DIMTZIN
 70
     0
  9
$DIMALTZ
 70
     0
  9
$DIMALTTZ
 70
     0
  9
$DIMUPT
 70
     0
  9
$DIMDEC
 70
     4
  9
$DIMTDEC
 70
     4
  9
$DIMALTU
 70
     2
  9
$DIMALTTD
 70
     2
  9
$DIMTXSTY
  7
Standard
  9
$DIMAUNIT
 70
     0
  9
$DIMADEC
 70
     0
  9
$DIMALTRND
 40
0.0
  9
$DIMAZIN
 70
     0
  9
$DIMDSEP
 70
    46
  9
$DIMATFIT
 70
     3
  9
$DIMFRAC
 70
     0
  9
$DIMLDRBLK
  1

  9
$DIMLUNIT
 70
     2
  9
$DIMLWD
 70
    -2
  9
$DIMLWE
 70
    -2
  9
$DIMTMOVE
 70
     0
  9
$LUNITS
 70
     2
  9
$LUPREC
 70
     4
  9
$SKETCHINC
 40
0.1
  9
$FILLETRAD
 40
0.0
  9
$AUNITS
 70
     0
  9
$AUPREC
 70
     0
  9
$MENU
  1
.
  9
$ELEVATION
 40
0.0
  9
$PELEVATION
 40
0.0
  9
$THICKNESS
 40
0.0
  9
$LIMCHECK
 70
     0
  9
$CHAMFERA
 40
0.0
  9
$CHAMFERB
 40
0.0
  9
$CHAMFERC
 40
0.0
  9
$CHAMFERD
 40
0.0
  9
$SKPOLY
 70
     0
  9
$TDCREATE
 40
2454831.873077974
  9
$TDUCREATE
 40
2454831.831411307
  9
$TDUPDATE
 40
2454831.882123113
  9
$TDUUPDATE
 40
2454831.840456446
  9
$TDINDWG
 40
0.0090453241
  9
$TDUSRTIMER
 40
0.0090453241
  9
$USRTIMER
 70
     1
  9
$ANGBASE
 50
0.0
  9
$ANGDIR
 70
     0
  9
$PDMODE
 70
     0
  9
$PDSIZE
 40
0.0
  9
$PLINEWID
 40
0.0
  9
$SPLFRAME
 70
     0
  9
$SPLINETYPE
 70
     6
  9
$SPLINESEGS
 70
     8
  9
$HANDSEED
  5
2BC
  9
$SURFTAB1
 70
     6
  9
$SURFTAB2
 70
     6
  9
$SURFTYPE
 70
     6
  9
$SURFU
 70
     6
  9
$SURFV
 70
     6
  9
$UCSBASE
  2

  9
$UCSNAME
  2

  9
$UCSORG
 10
0.0
 20
0.0
 30
0.0
  9
$UCSXDIR
 10
1.0
 20
0.0
 30
0.0
  9
$UCSYDIR
 10
0.0
 20
1.0
 30
0.0
  9
$UCSORTHOREF
  2

  9
$UCSORTHOVIEW
 70
     1
  9
$UCSORGTOP
 10
0.0
 20
0.0
 30
0.0
  9
$UCSORGBOTTOM
 10
0.0
 20
0.0
 30
0.0
  9
$UCSORGLEFT
 10
0.0
 20
0.0
 30
0.0
  9
$UCSORGRIGHT
 10
0.0
 20
0.0
 30
0.0
  9
$UCSORGFRONT
 10
0.0
 20
0.0
 30
0.0
  9
$UCSORGBACK
 10
0.0
 20
0.0
 30
0.0
  9
$PUCSBASE
  2

  9
$PUCSNAME
  2

  9
$PUCSORG
 10
0.0
 20
0.0
 30
0.0
  9
$PUCSXDIR
 10
1.0
 20
0.0
 30
0.0
  9
$PUCSYDIR
 10
0.0
 20
1.0
 30
0.0
  9
$PUCSORTHOREF
  2

  9
$PUCSORTHOVIEW
 70
     0
  9
$PUCSORGTOP
 10
0.0
 20
0.0
 30
0.0
  9
$PUCSORGBOTTOM
 10
0.0
 20
0.0
 30
0.0
  9
$PUCSORGLEFT
 10
0.0
 20
0.0
 30
0.0
  9
$PUCSORGRIGHT
 10
0.0
 20
0.0
 30
0.0
  9
$PUCSORGFRONT
 10
0.0
 20
0.0
 30
0.0
  9
$PUCSORGBACK
 10
0.0
 20
0.0
 30
0.0
  9
$USERI1
 70
     0
  9
$USERI2
 70
     0
  9
$USERI3
 70
     0
  9
$USERI4
 70
     0
  9
$USERI5
 70
     0
  9
$USERR1
 40
0.0
  9
$USERR2
 40
0.0
  9
$USERR3
 40
0.0
  9
$USERR4
 40
0.0
  9
$USERR5
 40
0.0
  9
$WORLDVIEW
 70
     1
  9
$SHADEDGE
 70
     3
  9
$SHADEDIF
 70
    70
  9
$TILEMODE
 70
     1
  9
$MAXACTVP
 70
    64
  9
$PINSBASE
 10
0.0
 20
0.0
 30
0.0
  9
$PLIMCHECK
 70
     0
  9
$PEXTMIN
 10
1.000000000000000E+20
 20
1.000000000000000E+20
 30
1.000000000000000E+20
  9
$PEXTMAX
 10
-1.000000000000000E+20
 20
-1.000000000000000E+20
 30
-1.000000000000000E+20
  9
$PLIMMIN
 10
0.0
 20
0.0
  9
$PLIMMAX
 10
12.0
 20
9.0
  9
$UNITMODE
 70
     0
  9
$VISRETAIN
 70
     1
  9
$PLINEGEN
 70
     0
  9
$PSLTSCALE
 70
     1
  9
$TREEDEPTH
 70
  3020
  9
$CMLSTYLE
  2
Standard
  9
$CMLJUST
 70
     0
  9
$CMLSCALE
 40
1.0
  9
$PROXYGRAPHICS
 70
     1
  9
$MEASUREMENT
 70
     0
  9
$CELWEIGHT
370
    -1
  9
$ENDCAPS
280
     0
  9
$JOINSTYLE
280
     0
  9
$LWDISPLAY
290
     0
  9
$INSUNITS
 70
     0
  9
$HYPERLINKBASE
  1

  9
$STYLESHEET
  1

  9
$XEDIT
290
     1
  9
$CEPSNTYPE
380
     0
  9
$PSTYLEMODE
290
     1
  9
$FINGERPRINTGUID
  2
{A02AD5D7-28D0-42E7-87BD-E717AB9E99A8}
  9
$VERSIONGUID
  2
{7005E778-AA19-4B20-A31F-1399D9D255AC}
  9
$EXTNAMES
290
     1
  9
$PSVPSCALE
 40
0.0
  9
$OLESTARTUP
290
     0
  0
ENDSEC
  0
SECTION
  2
CLASSES
  0
CLASS
  1
ACDBDICTIONARYWDFLT
  2
AcDbDictionaryWithDefault
  3
AutoCAD 2000
 90
        0
280
     0
281
     0
  0
CLASS
  1
ACDBPLACEHOLDER
  2
AcDbPlaceHolder
  3
AutoCAD 2000
 90
        0
280
     0
281
     0
  0
CLASS
  1
LAYOUT
  2
AcDbLayout
  3
AutoCAD 2000
 90
        0
280
     0
281
     0
  0
CLASS
  1
DICTIONARYVAR
  2
AcDbDictionaryVar
  3
AutoCAD 2000
 90
        0
280
     0
281
     0
  0
ENDSEC
  0
SECTION
  2
TABLES
  0
TABLE
  2
VPORT
  5
8
330
0
100
AcDbSymbolTable
 70
     2
  0
VPORT
  5
2BB
330
8
100
AcDbSymbolTableRecord
100
AcDbViewportTableRecord
  2
*Active
 70
     0
 10
0.0
 20
0.0
 11
1.0
 21
1.0
 12
110.0
 22
93.49999999999999
 13
0.0
 23
0.0
 14
1.0
 24
1.0
 15
0.0
 25
0.0
 16
0.0
 26
0.0
 36
1.0
 17
0.0
 27
0.0
 37
0.0
 40
188.0841125319692
 41
2.078104993597951
 42
50.0
 43
0.0
 44
0.0
 50
0.0
 51
0.0
 71
     0
 72
   100
 73
     1
 74
     3
 75
     0
 76
     0
 77
     0
 78
     0
281
     0
 65
     1
110
0.0
120
0.0
130
0.0
111
1.0
121
0.0
131
0.0
112
0.0
122
1.0
132
0.0
 79
     1
146
0.0
  0
ENDTAB
  0
TABLE
  2
LTYPE
  5
5
330
0
100
AcDbSymbolTable
 70
     1
  0
LTYPE
  5
13
330
5
100
AcDbSymbolTableRecord
100
AcDbLinetypeTableRecord
  2
ByBlock
 70
     0
  3

 72
    65
 73
     0
 40
0.0
  0
LTYPE
  5
14
330
5
100
AcDbSymbolTableRecord
100
AcDbLinetypeTableRecord
  2
ByLayer
 70
     0
  3

 72
    65
 73
     0
 40
0.0
  0
LTYPE
  5
15
330
5
100
AcDbSymbolTableRecord
100
AcDbLinetypeTableRecord
  2
Continuous
 70
     0
  3
Solid line
 72
    65
 73
     0
 40
0.0
  0
ENDTAB
  0
TABLE
  2
LAYER
  5
2
330
0
100
AcDbSymbolTable
 70
     1
  0
LAYER
  5
10
330
2
100
AcDbSymbolTableRecord
100
AcDbLayerTableRecord
  2
0
 70
     0
 62
     7
  6
Continuous
370
    -3
390
F
  0
ENDTAB
  0
TABLE
  2
STYLE
  5
3
330
0
100
AcDbSymbolTable
 70
     1
  0
STYLE
  5
11
330
3
100
AcDbSymbolTableRecord
100
AcDbTextStyleTableRecord
  2
Standard
 70
     0
 40
0.0
 41
1.0
 50
0.0
 71
     0
 42
0.2
  3
txt
  4

  0
ENDTAB
  0
TABLE
  2
VIEW
  5
6
330
0
100
AcDbSymbolTable
 70
     0
  0
ENDTAB
  0
TABLE
  2
UCS
  5
7
330
0
100
AcDbSymbolTable
 70
     0
  0
ENDTAB
  0
TABLE
  2
APPID
  5
9
330
0
100
AcDbSymbolTable
 70
     1
  0
APPID
  5
12
330
9
100
AcDbSymbolTableRecord
100
AcDbRegAppTableRecord
  2
ACAD
 70
     0
  0
ENDTAB
  0
TABLE
  2
DIMSTYLE
  5
A
330
0
100
AcDbSymbolTable
 70
     1
100
AcDbDimStyleTable
 71
     0
  0
DIMSTYLE
105
2B0
330
A
100
AcDbSymbolTableRecord
100
AcDbDimStyleTableRecord
  2
Standard
 70
     0
340
11
  0
ENDTAB
  0
TABLE
  2
BLOCK_RECORD
  5
1
330
0
100
AcDbSymbolTable
 70
     0
  0
BLOCK_RECORD
  5
1E
330
1
100
AcDbSymbolTableRecord
100
AcDbBlockTableRecord
  2
*Model_Space
340
21
  0
BLOCK_RECORD
  5
1A
330
1
100
AcDbSymbolTableRecord
100
AcDbBlockTableRecord
  2
*Paper_Space
340
1D
  0
ENDTAB
  0
ENDSEC
  0
SECTION
  2
BLOCKS
  0
BLOCK
  5
1F
330
1E
100
AcDbEntity
  8
0
100
AcDbBlockBegin
  2
*Model_Space
 70
     0
 10
0.0
 20
0.0
 30
0.0
  3
*Model_Space
  1

  0
ENDBLK
  5
20
330
1E
100
AcDbEntity
  8
0
100
AcDbBlockEnd
  0
BLOCK
  5
1B
330
1A
100
AcDbEntity
 67
     1
  8
0
100
AcDbBlockBegin
  2
*Paper_Space
 70
     0
 10
0.0
 20
0.0
 30
0.0
  3
*Paper_Space
  1

  0
ENDBLK
  5
1C
330
1A
100
AcDbEntity
 67
     1
  8
0
100
AcDbBlockEnd
  0
ENDSEC
  0
SECTION
  2
ENTITIES
  0
LINE
  5
22
330
1E
100
AcDbEntity
  8
0
100
AcDbLine
 10
1.3
 20
84.82600000000001
 30
0.0
 11
4.7
 21
76.426
 31
0.0
  0
LINE
  5
23
330
1E
100
AcDbEntity
  8
0
100
AcDbLine
 10
4.7
 20
76.426
 30
0.0
 11
10.3
 21
69.12600000000001
 31
0.0
  0
LINE
  5
24
330
1E
100
AcDbEntity
  8
0
100
AcDbLine
 10
0.0
 20
93.82600000000001
 30
0.0
 11
1.3
 21
102.826
 31
0.0
  0
LINE
  5
25
330
1E
100
AcDbEntity
  8
0
100
AcDbLine
 10
0.0
 20
93.82600000000001
 30
0.0
 11
1.3
 21
84.82600000000001
 31
0.0
  0
LINE
  5
26
330
1E
100
AcDbEntity
  8
0
100
AcDbLine
 10
1.3
 20
102.826
 30
0.0
 11
4.7
 21
111.226
 31
0.0
  0
LINE
  5
27
330
1E
100
AcDbEntity
  8
0
100
AcDbLine
 10
15.0
 20
78.32600000000001
 30
0.0
 11
15.0
 21
109.326
 31
0.0
  0
LINE
  5
2C
330
1E
100
AcDbEntity
  8
0
100
AcDbLine
 10
15.4
 20
110.426
 30
0.0
 11
16.5
 21
110.826
 31
0.0
  0
LINE
  5
2D
330
1E
100
AcDbEntity
  8
0
100
AcDbLine
 10
15.0
 20
109.326
 30
0.0
 11
15.4
 21
110.426
 31
0.0
  0
LINE
  5
2E
330
1E
100
AcDbEntity
  8
0
100
AcDbLine
 10
15.0
 20
109.326
 30
0.0
 11
15.0
 21
78.32600000000001
 31
0.0
  0
LINE
  5
2F
330
1E
100
AcDbEntity
  8
0
100
AcDbLine
 10
10.3
 20
69.12600000000001
 30
0.0
 11
17.6
 21
63.526
 31
0.0
  0
LINE
  5
30
330
1E
100
AcDbEntity
  8
0
100
AcDbLine
 10
4.7
 20
111.226
 30
0.0
 11
10.3
 21
118.526
 31
0.0
  0
LINE
  5
31
330
1E
100
AcDbEntity
  8
0
100
AcDbLine
 10
10.3
 20
118.526
 30
0.0
 11
17.6
 21
124.126
 31
0.0
  0
LINE
  5
35
330
1E
100
AcDbEntity
  8
0
100
AcDbLine
 10
16.5
 20
110.826
 30
0.0
 11
21.5131
 21
111.5588
 31
0.0
  0
LINE
  5
38
330
1E
100
AcDbEntity
  8
0
100
AcDbLine
 10
21.5131
 20
76.0932
 30
0.0
 11
26.5131
 21
75.2251
 31
0.0
  0
LINE
  5
39
330
1E
100
AcDbEntity
  8
0
100
AcDbLine
 10
21.5131
 20
111.5588
 30
0.0
 11
26.5131
 21
112.4268999999999
 31
0.0
  0
LINE
  5
3B
330
1E
100
AcDbEntity
  8
0
100
AcDbLine
 10
26.5131
 20
75.2251
 30
0.0
 11
31.5
 21
74.50399999999999
 31
0.0
  0
LINE
  5
3E
330
1E
100
AcDbEntity
  8
0
100
AcDbLine
 10
17.6
 20
63.526
 30
0.0
 11
26.0
 21
60.126
 31
0.0
  0
LINE
  5
3F
330
1E
100
AcDbEntity
  8
0
100
AcDbLine
 10
26.0
 20
60.126
 30
0.0
 11
35.0
 21
58.826
 31
0.0
  0
LINE
  5
41
330
1E
100
AcDbEntity
  8
0
100
AcDbLine
 10
31.5
 20
74.50399999999999
 30
0.0
 11
36.5
 21
73.8169
 31
0.0
  0
LINE
  5
42
330
1E
100
AcDbEntity
  8
0
100
AcDbLine
 10
110.0279999999999
 20
4.4358
 30
0.0
 11
111.7909999999999
 21
5.785200000000009
 31
0.0
  0
LINE
  5
43
330
1E
100
AcDbEntity
  8
0
100
AcDbLine
 10
111.7909999999999
 20
5.785200000000009
 30
0.0
 11
113.629
 21
6.984600000000019
 31
0.0
  0
LINE
  5
44
330
1E
100
AcDbEntity
  8
0
100
AcDbLine
 10
113.629
 20
6.984600000000019
 30
0.0
 11
115.43
 21
8.184000000000009
 31
0.0
  0
LINE
  5
45
330
1E
100
AcDbEntity
  8
0
100
AcDbLine
 10
115.43
 20
8.184000000000009
 30
0.0
 11
116.5179999999999
 21
9.233499999999999
 31
0.0
  0
LINE
  5
46
330
1E
100
AcDbEntity
  8
0
100
AcDbLine
 10
116.5179999999999
 20
9.233499999999999
 30
0.0
 11
117.231
 21
9.9457
 31
0.0
  0
LINE
  5
47
330
1E
100
AcDbEntity
  8
0
100
AcDbLine
 10
117.5
 20
10.174
 30
0.0
 11
117.5
 21
60.174
 31
0.0
  0
LINE
  5
48
330
1E
100
AcDbEntity
  8
0
100
AcDbLine
 10
117.231
 20
9.9457
 30
0.0
 11
117.5
 21
10.174
 31
0.0
  0
LINE
  5
49
330
1E
100
AcDbEntity
  8
0
100
AcDbLine
 10
108.077
 20
2.44920000000001
 30
0.0
 11
110.0279999999999
 21
4.4358
 31
0.0
  0
LINE
  5
4A
330
1E
100
AcDbEntity
  8
0
100
AcDbLine
 10
106.2769999999999
 20
1.324700000000009
 30
0.0
 11
108.077
 21
2.44920000000001
 31
0.0
  0
LINE
  5
4B
330
1E
100
AcDbEntity
  8
0
100
AcDbLine
 10
104.776
 20
0.6501000000000021
 30
0.0
 11
106.2769999999999
 21
1.324700000000009
 31
0.0
  0
LINE
  5
4C
330
1E
100
AcDbEntity
  8
0
100
AcDbLine
 10
103.5379999999999
 20
0.2752000000000119
 30
0.0
 11
104.776
 21
0.6501000000000021
 31
0.0
  0
LINE
  5
4D
330
1E
100
AcDbEntity
  8
0
100
AcDbLine
 10
102.8629999999999
 20
0.2002999999999981
 30
0.0
 11
103.5379999999999
 21
0.2752000000000119
 31
0.0
  0
LINE
  5
4E
330
1E
100
AcDbEntity
  8
0
100
AcDbLine
 10
102.4999999999999
 20
0.174000000000006
 30
0.0
 11
102.4999999999999
 21
60.174
 31
0.0
  0
LINE
  5
4F
330
1E
100
AcDbEntity
  8
0
100
AcDbLine
 10
102.4999999999999
 20
0.174000000000006
 30
0.0
 11
102.8629999999999
 21
0.2002999999999981
 31
0.0
  0
LINE
  5
50
330
1E
100
AcDbEntity
  8
0
100
AcDbLine
 10
194.0
 20
60.126
 30
0.0
 11
202.4
 21
63.526
 31
0.0
  0
LINE
  5
51
330
1E
100
AcDbEntity
  8
0
100
AcDbLine
 10
185.0
 20
58.826
 30
0.0
 11
194.0
 21
60.126
 31
0.0
  0
LINE
  5
52
330
1E
100
AcDbEntity
  8
0
100
AcDbLine
 10
176.0
 20
60.126
 30
0.0
 11
185.0
 21
58.826
 31
0.0
  0
LINE
  5
54
330
1E
100
AcDbEntity
  8
0
100
AcDbLine
 10
41.5
 20
73.19110000000001
 30
0.0
 11
46.5
 21
72.65219999999999
 31
0.0
  0
LINE
  5
56
330
1E
100
AcDbEntity
  8
0
100
AcDbLine
 10
51.4739
 20
72.17369999999999
 30
0.0
 11
56.4957
 21
71.7565
 31
0.0
  0
LINE
  5
58
330
1E
100
AcDbEntity
  8
0
100
AcDbLine
 10
46.5131
 20
72.65219999999999
 30
0.0
 11
51.4739
 21
72.17369999999999
 31
0.0
  0
LINE
  5
5A
330
1E
100
AcDbEntity
  8
0
100
AcDbLine
 10
36.5
 20
73.8169
 30
0.0
 11
41.5
 21
73.19110000000001
 31
0.0
  0
LINE
  5
5B
330
1E
100
AcDbEntity
  8
0
100
AcDbLine
 10
104.7
 20
60.174
 30
0.0
 11
106.2999999999999
 21
60.174
 31
0.0
  0
LINE
  5
5C
330
1E
100
AcDbEntity
  8
0
100
AcDbLine
 10
103.4999999999999
 20
60.174
 30
0.0
 11
104.7
 21
60.174
 31
0.0
  0
LINE
  5
5D
330
1E
100
AcDbEntity
  8
0
100
AcDbLine
 10
102.8
 20
60.174
 30
0.0
 11
103.4999999999999
 21
60.174
 31
0.0
  0
LINE
  5
5E
330
1E
100
AcDbEntity
  8
0
100
AcDbLine
 10
102.4999999999999
 20
60.174
 30
0.0
 11
102.8
 21
60.174
 31
0.0
  0
LINE
  5
5F
330
1E
100
AcDbEntity
  8
0
100
AcDbLine
 10
102.4999999999999
 20
60.174
 30
0.0
 11
102.4999999999999
 21
0.174000000000006
 31
0.0
  0
LINE
  5
60
330
1E
100
AcDbEntity
  8
0
100
AcDbLine
 10
112.7
 20
60.174
 30
0.0
 11
115.2
 21
60.174
 31
0.0
  0
LINE
  5
61
330
1E
100
AcDbEntity
  8
0
100
AcDbLine
 10
110.0
 20
60.174
 30
0.0
 11
111.8999999999999
 21
60.174
 31
0.0
  0
LINE
  5
62
330
1E
100
AcDbEntity
  8
0
100
AcDbLine
 10
110.0
 20
60.174
 30
0.0
 11
112.7
 21
60.174
 31
0.0
  0
LINE
  5
63
330
1E
100
AcDbEntity
  8
0
100
AcDbLine
 10
111.8999999999999
 20
60.174
 30
0.0
 11
113.7
 21
60.174
 31
0.0
  0
LINE
  5
64
330
1E
100
AcDbEntity
  8
0
100
AcDbLine
 10
115.2
 20
60.174
 30
0.0
 11
117.4
 21
60.174
 31
0.0
  0
LINE
  5
65
330
1E
100
AcDbEntity
  8
0
100
AcDbLine
 10
113.7
 20
60.174
 30
0.0
 11
115.3
 21
60.174
 31
0.0
  0
LINE
  5
66
330
1E
100
AcDbEntity
  8
0
100
AcDbLine
 10
115.3
 20
60.174
 30
0.0
 11
116.5
 21
60.174
 31
0.0
  0
LINE
  5
67
330
1E
100
AcDbEntity
  8
0
100
AcDbLine
 10
117.4
 20
60.174
 30
0.0
 11
119.1
 21
60.174
 31
0.0
  0
LINE
  5
68
330
1E
100
AcDbEntity
  8
0
100
AcDbLine
 10
116.5
 20
60.174
 30
0.0
 11
117.2
 21
60.174
 31
0.0
  0
LINE
  5
69
330
1E
100
AcDbEntity
  8
0
100
AcDbLine
 10
117.2
 20
60.174
 30
0.0
 11
117.5
 21
60.174
 31
0.0
  0
LINE
  5
6A
330
1E
100
AcDbEntity
  8
0
100
AcDbLine
 10
119.1
 20
60.174
 30
0.0
 11
120.1
 21
60.174
 31
0.0
  0
LINE
  5
6B
330
1E
100
AcDbEntity
  8
0
100
AcDbLine
 10
120.1
 20
60.174
 30
0.0
 11
120.5
 21
60.174
 31
0.0
  0
LINE
  5
6C
330
1E
100
AcDbEntity
  8
0
100
AcDbLine
 10
120.5
 20
60.174
 30
0.0
 11
121.4641103793359
 21
89.09731138007309
 31
0.0
  0
LINE
  5
6D
330
1E
100
AcDbEntity
  8
0
100
AcDbLine
 10
117.5
 20
60.174
 30
0.0
 11
117.5
 21
10.174
 31
0.0
  0
LINE
  5
6E
330
1E
100
AcDbEntity
  8
0
100
AcDbLine
 10
117.5
 20
60.174
 30
0.0
 11
119.1
 21
60.174
 31
0.0
  0
LINE
  5
6F
330
1E
100
AcDbEntity
  8
0
100
AcDbLine
 10
108.0999999999999
 20
60.174
 30
0.0
 11
110.0
 21
60.174
 31
0.0
  0
LINE
  5
70
330
1E
100
AcDbEntity
  8
0
100
AcDbLine
 10
106.2999999999999
 20
60.174
 30
0.0
 11
108.0999999999999
 21
60.174
 31
0.0
  0
LINE
  5
71
330
1E
100
AcDbEntity
  8
0
100
AcDbLine
 10
107.2999999999999
 20
60.174
 30
0.0
 11
110.0
 21
60.174
 31
0.0
  0
LINE
  5
72
330
1E
100
AcDbEntity
  8
0
100
AcDbLine
 10
104.8
 20
60.174
 30
0.0
 11
107.2999999999999
 21
60.174
 31
0.0
  0
LINE
  5
73
330
1E
100
AcDbEntity
  8
0
100
AcDbLine
 10
102.6
 20
60.174
 30
0.0
 11
104.8
 21
60.174
 31
0.0
  0
LINE
  5
74
330
1E
100
AcDbEntity
  8
0
100
AcDbLine
 10
100.9
 20
60.174
 30
0.0
 11
102.6
 21
60.174
 31
0.0
  0
LINE
  5
75
330
1E
100
AcDbEntity
  8
0
100
AcDbLine
 10
100.9
 20
60.174
 30
0.0
 11
102.4999999999999
 21
60.174
 31
0.0
  0
LINE
  5
76
330
1E
100
AcDbEntity
  8
0
100
AcDbLine
 10
99.90000000000001
 20
60.174
 30
0.0
 11
100.9
 21
60.174
 31
0.0
  0
LINE
  5
77
330
1E
100
AcDbEntity
  8
0
100
AcDbLine
 10
99.50000000000001
 20
60.174
 30
0.0
 11
99.90000000000001
 21
60.174
 31
0.0
  0
LINE
  5
78
330
1E
100
AcDbEntity
  8
0
100
AcDbLine
 10
160.3
 20
69.12600000000001
 30
0.0
 11
167.5999999999999
 21
63.526
 31
0.0
  0
LINE
  5
79
330
1E
100
AcDbEntity
  8
0
100
AcDbLine
 10
209.6999999999999
 20
69.12600000000001
 30
0.0
 11
215.3
 21
76.426
 31
0.0
  0
LINE
  5
7A
330
1E
100
AcDbEntity
  8
0
100
AcDbLine
 10
202.4
 20
63.526
 30
0.0
 11
209.6999999999999
 21
69.12600000000001
 31
0.0
  0
LINE
  5
7B
330
1E
100
AcDbEntity
  8
0
100
AcDbLine
 10
167.5999999999999
 20
63.526
 30
0.0
 11
176.0
 21
60.126
 31
0.0
  0
LINE
  5
7C
330
1E
100
AcDbEntity
  8
0
100
AcDbLine
 10
86.5
 20
70.131
 30
0.0
 11
91.5
 21
69.9845
 31
0.0
  0
LINE
  5
7D
330
1E
100
AcDbEntity
  8
0
100
AcDbLine
 10
123.5029999999999
 20
69.93259999999999
 30
0.0
 11
128.4999999999999
 21
69.9845
 31
0.0
  0
LINE
  5
7E
330
1E
100
AcDbEntity
  8
0
100
AcDbLine
 10
120.8238586480899
 20
69.8897594427038
 30
0.0
 11
123.5029999999999
 21
69.93259999999999
 31
0.0
  0
LINE
  5
7F
330
1E
100
AcDbEntity
  8
0
100
AcDbLine
 10
143.5
 20
70.51560000000001
 30
0.0
 11
128.4999999999999
 21
69.9845
 31
0.0
  0
LINE
  5
81
330
1E
100
AcDbEntity
  8
0
100
AcDbLine
 10
96.4968
 20
69.93259999999999
 30
0.0
 11
99.17614140145049
 21
69.8897579564846
 31
0.0
  0
LINE
  5
82
330
1E
100
AcDbEntity
  8
0
100
AcDbLine
 10
91.5
 20
69.9845
 30
0.0
 11
96.4968
 21
69.93259999999999
 31
0.0
  0
LINE
  5
87
330
1E
100
AcDbEntity
  8
0
100
AcDbLine
 10
143.5
 20
70.51560000000001
 30
0.0
 11
148.5
 21
70.78459999999999
 31
0.0
  0
LINE
  5
8D
330
1E
100
AcDbEntity
  8
0
100
AcDbLine
 10
81.5
 20
70.2917
 30
0.0
 11
86.5
 21
70.131
 31
0.0
  0
LINE
  5
8E
330
1E
100
AcDbEntity
  8
0
100
AcDbLine
 10
76.5
 20
70.51560000000001
 30
0.0
 11
81.5
 21
70.2917
 31
0.0
  0
LINE
  5
91
330
1E
100
AcDbEntity
  8
0
100
AcDbLine
 10
148.5
 20
70.78459999999999
 30
0.0
 11
153.5149999999999
 21
71.06399999999999
 31
0.0
  0
LINE
  5
92
330
1E
100
AcDbEntity
  8
0
100
AcDbLine
 10
153.5149999999999
 20
71.06399999999999
 30
0.0
 11
158.4999999999999
 21
71.39140000000001
 31
0.0
  0
LINE
  5
95
330
1E
100
AcDbEntity
  8
0
100
AcDbLine
 10
158.4999999999999
 20
71.39140000000001
 30
0.0
 11
163.517
 21
71.7565
 31
0.0
  0
LINE
  5
97
330
1E
100
AcDbEntity
  8
0
100
AcDbLine
 10
71.5
 20
70.78459999999999
 30
0.0
 11
76.5
 21
70.51560000000001
 31
0.0
  0
LINE
  5
98
330
1E
100
AcDbEntity
  8
0
100
AcDbLine
 10
64.8371298405468
 20
71.17288473804101
 30
0.0
 11
71.5
 21
70.78459999999999
 31
0.0
  0
LINE
  5
9B
330
1E
100
AcDbEntity
  8
0
100
AcDbLine
 10
163.504
 20
71.7565
 30
0.0
 11
168.5259999999999
 21
72.17369999999999
 31
0.0
  0
LINE
  5
9C
330
1E
100
AcDbEntity
  8
0
100
AcDbLine
 10
158.55887232503
 20
71.3956842905857
 30
0.0
 11
160.3
 21
69.12600000000001
 31
0.0
  0
LINE
  5
A0
330
1E
100
AcDbEntity
  8
0
100
AcDbLine
 10
168.5259999999999
 20
72.17369999999999
 30
0.0
 11
173.4869999999999
 21
72.65219999999999
 31
0.0
  0
LINE
  5
A1
330
1E
100
AcDbEntity
  8
0
100
AcDbLine
 10
173.5
 20
72.65219999999999
 30
0.0
 11
178.5
 21
73.19110000000001
 31
0.0
  0
LINE
  5
A4
330
1E
100
AcDbEntity
  8
0
100
AcDbLine
 10
178.5
 20
73.19110000000001
 30
0.0
 11
183.4999999999999
 21
73.8169
 31
0.0
  0
LINE
  5
A7
330
1E
100
AcDbEntity
  8
0
100
AcDbLine
 10
183.4999999999999
 20
73.8169
 30
0.0
 11
188.4999999999999
 21
74.50399999999999
 31
0.0
  0
LINE
  5
A8
330
1E
100
AcDbEntity
  8
0
100
AcDbLine
 10
188.4999999999999
 20
74.50399999999999
 30
0.0
 11
193.487
 21
75.2251
 31
0.0
  0
LINE
  5
AA
330
1E
100
AcDbEntity
  8
0
100
AcDbLine
 10
92.0
 20
80.0082
 30
0.0
 11
92.0
 21
83.9886
 31
0.0
  0
LINE
  5
AB
330
1E
100
AcDbEntity
  8
0
100
AcDbLine
 10
92.0
 20
83.9886
 30
0.0
 11
92.0
 21
80.0082
 31
0.0
  0
LINE
  5
AC
330
1E
100
AcDbEntity
  8
0
100
AcDbLine
 10
92.0
 20
83.9886
 30
0.0
 11
92.0
 21
87.35700000000001
 31
0.0
  0
LINE
  5
AF
330
1E
100
AcDbEntity
  8
0
100
AcDbLine
 10
128.0
 20
80.0082
 30
0.0
 11
128.0
 21
83.9886
 31
0.0
  0
LINE
  5
B2
330
1E
100
AcDbEntity
  8
0
100
AcDbLine
 10
128.0
 20
83.9886
 30
0.0
 11
128.0
 21
80.0082
 31
0.0
  0
LINE
  5
B3
330
1E
100
AcDbEntity
  8
0
100
AcDbLine
 10
128.0
 20
83.9886
 30
0.0
 11
128.0
 21
87.35700000000001
 31
0.0
  0
LINE
  5
BA
330
1E
100
AcDbEntity
  8
0
100
AcDbLine
 10
193.487
 20
75.2251
 30
0.0
 11
198.4869999999999
 21
76.0932
 31
0.0
  0
LINE
  5
BB
330
1E
100
AcDbEntity
  8
0
100
AcDbLine
 10
215.3
 20
76.426
 30
0.0
 11
218.6999999999999
 21
84.82600000000001
 31
0.0
  0
LINE
  5
BC
330
1E
100
AcDbEntity
  8
0
100
AcDbLine
 10
205.0
 20
78.32600000000001
 30
0.0
 11
205.0
 21
109.326
 31
0.0
  0
LINE
  5
C0
330
1E
100
AcDbEntity
  8
0
100
AcDbLine
 10
61.5
 20
71.39140000000001
 30
0.0
 11
64.8371298405468
 21
71.17288473804101
 31
0.0
  0
LINE
  5
C1
330
1E
100
AcDbEntity
  8
0
100
AcDbLine
 10
61.5
 20
71.39140000000001
 30
0.0
 11
64.8371298405468
 21
71.17288473804101
 31
0.0
  0
LINE
  5
C2
330
1E
100
AcDbEntity
  8
0
100
AcDbLine
 10
56.4826
 20
71.7565
 30
0.0
 11
61.5
 21
71.39140000000001
 31
0.0
  0
LINE
  5
C3
330
1E
100
AcDbEntity
  8
0
100
AcDbLine
 10
59.7
 20
69.12600000000001
 30
0.0
 11
61.441127426808
 21
71.395683967089
 31
0.0
  0
LINE
  5
C4
330
1E
100
AcDbEntity
  8
0
100
AcDbLine
 10
59.7
 20
69.12600000000001
 30
0.0
 11
61.441127426808
 21
71.395683967089
 31
0.0
  0
LINE
  5
C5
330
1E
100
AcDbEntity
  8
0
100
AcDbLine
 10
52.4
 20
63.526
 30
0.0
 11
59.7
 21
69.12600000000001
 31
0.0
  0
LINE
  5
C6
330
1E
100
AcDbEntity
  8
0
100
AcDbLine
 10
44.0
 20
60.126
 30
0.0
 11
52.4
 21
63.526
 31
0.0
  0
LINE
  5
C7
330
1E
100
AcDbEntity
  8
0
100
AcDbLine
 10
35.0
 20
58.826
 30
0.0
 11
44.0
 21
60.126
 31
0.0
  0
LINE
  5
C8
330
1E
100
AcDbEntity
  8
0
100
AcDbLine
 10
92.0
 20
87.35700000000001
 30
0.0
 11
92.0
 21
83.9886
 31
0.0
  0
LINE
  5
C9
330
1E
100
AcDbEntity
  8
0
100
AcDbLine
 10
92.0
 20
87.35700000000001
 30
0.0
 11
92.0
 21
90.34069999999999
 31
0.0
  0
LINE
  5
CC
330
1E
100
AcDbEntity
  8
0
100
AcDbLine
 10
110.0
 20
86.0121
 30
0.0
 11
113.276
 21
86.2025
 31
0.0
  0
LINE
  5
CE
330
1E
100
AcDbEntity
  8
0
100
AcDbLine
 10
113.276
 20
86.2025
 30
0.0
 11
116.2919999999999
 21
86.7101
 31
0.0
  0
LINE
  5
CF
330
1E
100
AcDbEntity
  8
0
100
AcDbLine
 10
116.2919999999999
 20
86.7101
 30
0.0
 11
118.944
 21
87.53489999999999
 31
0.0
  0
LINE
  5
D2
330
1E
100
AcDbEntity
  8
0
100
AcDbLine
 10
128.0
 20
87.35700000000001
 30
0.0
 11
128.0
 21
83.9886
 31
0.0
  0
LINE
  5
D3
330
1E
100
AcDbEntity
  8
0
100
AcDbLine
 10
128.0
 20
87.35700000000001
 30
0.0
 11
128.0
 21
90.34069999999999
 31
0.0
  0
LINE
  5
D4
330
1E
100
AcDbEntity
  8
0
100
AcDbLine
 10
118.944
 20
87.53489999999999
 30
0.0
 11
120.972
 21
88.61360000000001
 31
0.0
  0
LINE
  5
D5
330
1E
100
AcDbEntity
  8
0
100
AcDbLine
 10
106.7239999999999
 20
86.2025
 30
0.0
 11
110.0
 21
86.0121
 31
0.0
  0
LINE
  5
D7
330
1E
100
AcDbEntity
  8
0
100
AcDbLine
 10
103.708
 20
86.7101
 30
0.0
 11
106.7239999999999
 21
86.2025
 31
0.0
  0
LINE
  5
D9
330
1E
100
AcDbEntity
  8
0
100
AcDbLine
 10
120.972
 20
88.61360000000001
 30
0.0
 11
122.2199999999999
 21
89.8403
 31
0.0
  0
LINE
  5
DA
330
1E
100
AcDbEntity
  8
0
100
AcDbLine
 10
101.0559999999999
 20
87.53489999999999
 30
0.0
 11
103.708
 21
86.7101
 31
0.0
  0
LINE
  5
DC
330
1E
100
AcDbEntity
  8
0
100
AcDbLine
 10
99.02799999999999
 20
88.61360000000001
 30
0.0
 11
101.0559999999999
 21
87.53489999999999
 31
0.0
  0
LINE
  5
DE
330
1E
100
AcDbEntity
  8
0
100
AcDbLine
 10
92.0
 20
90.34069999999999
 30
0.0
 11
92.0
 21
87.35700000000001
 31
0.0
  0
LINE
  5
DF
330
1E
100
AcDbEntity
  8
0
100
AcDbLine
 10
92.0
 20
90.34069999999999
 30
0.0
 11
92.0
 21
92.7354
 31
0.0
  0
LINE
  5
E0
330
1E
100
AcDbEntity
  8
0
100
AcDbLine
 10
92.70000000000001
 20
90.1406
 30
0.0
 11
93.49999999999999
 21
90.0299
 31
0.0
  0
LINE
  5
E1
330
1E
100
AcDbEntity
  8
0
100
AcDbLine
 10
93.49999999999999
 20
90.0299
 30
0.0
 11
97.91830082777192
 21
89.7043595950098
 31
0.0
  0
LINE
  5
E3
330
1E
100
AcDbEntity
  8
0
100
AcDbLine
 10
92.4
 20
90.4071
 30
0.0
 11
92.70000000000001
 21
90.1406
 31
0.0
  0
LINE
  5
E7
330
1E
100
AcDbEntity
  8
0
100
AcDbLine
 10
97.78
 20
89.8403
 30
0.0
 11
99.02799999999999
 21
88.61360000000001
 31
0.0
  0
LINE
  5
E9
330
1E
100
AcDbEntity
  8
0
100
AcDbLine
 10
97.468
 20
90.3673
 30
0.0
 11
97.78
 21
89.8403
 31
0.0
  0
LINE
  5
EA
330
1E
100
AcDbEntity
  8
0
100
AcDbLine
 10
97.31200000000001
 20
91.17279999999999
 30
0.0
 11
97.78
 21
92.50530000000001
 31
0.0
  0
LINE
  5
EC
330
1E
100
AcDbEntity
  8
0
100
AcDbLine
 10
97.31200000000001
 20
91.17279999999999
 30
0.0
 11
97.78
 21
89.8403
 31
0.0
  0
LINE
  5
ED
330
1E
100
AcDbEntity
  8
0
100
AcDbLine
 10
92.0
 20
91.44429999999999
 30
0.0
 11
92.4
 21
90.4071
 31
0.0
  0
LINE
  5
EE
330
1E
100
AcDbEntity
  8
0
100
AcDbLine
 10
92.0
 20
91.44429999999999
 30
0.0
 11
92.0
 21
103.5387999999999
 31
0.0
  0
LINE
  5
EF
330
1E
100
AcDbEntity
  8
0
100
AcDbLine
 10
92.0
 20
92.7354
 30
0.0
 11
92.0
 21
90.34069999999999
 31
0.0
  0
LINE
  5
F0
330
1E
100
AcDbEntity
  8
0
100
AcDbLine
 10
92.0
 20
92.7354
 30
0.0
 11
92.0
 21
94.9439
 31
0.0
  0
LINE
  5
F1
330
1E
100
AcDbEntity
  8
0
100
AcDbLine
 10
92.0
 20
94.9439
 30
0.0
 11
92.0
 21
92.7354
 31
0.0
  0
LINE
  5
F2
330
1E
100
AcDbEntity
  8
0
100
AcDbLine
 10
92.0
 20
94.9439
 30
0.0
 11
92.0
 21
98.92690000000001
 31
0.0
  0
LINE
  5
F3
330
1E
100
AcDbEntity
  8
0
100
AcDbLine
 10
97.0
 20
93.42758000000001
 30
0.0
 11
97.0
 21
91.7209
 31
0.0
  0
LINE
  5
F4
330
1E
100
AcDbEntity
  8
0
100
AcDbLine
 10
97.78
 20
92.50530000000001
 30
0.0
 11
99.02799999999999
 21
93.73200000000002
 31
0.0
  0
LINE
  5
F6
330
1E
100
AcDbEntity
  8
0
100
AcDbLine
 10
101.0559999999999
 20
94.81059999999999
 30
0.0
 11
103.708
 21
95.63549999999999
 31
0.0
  0
LINE
  5
F8
330
1E
100
AcDbEntity
  8
0
100
AcDbLine
 10
99.02799999999999
 20
93.73200000000002
 30
0.0
 11
101.0559999999999
 21
94.81059999999999
 31
0.0
  0
LINE
  5
FB
330
1E
100
AcDbEntity
  8
0
100
AcDbLine
 10
100.796
 20
95.4645
 30
0.0
 11
103.5519999999999
 21
96.31050000000001
 31
0.0
  0
LINE
  5
FE
330
1E
100
AcDbEntity
  8
0
100
AcDbLine
 10
98.716
 20
94.34359999999999
 30
0.0
 11
100.796
 21
95.4645
 31
0.0
  0
LINE
  5
100
330
1E
100
AcDbEntity
  8
0
100
AcDbLine
 10
97.468
 20
93.07450000000001
 30
0.0
 11
98.716
 21
94.34359999999999
 31
0.0
  0
LINE
  5
102
330
1E
100
AcDbEntity
  8
0
100
AcDbLine
 10
97.0
 20
91.7209
 30
0.0
 11
97.0
 21
93.42758000000001
 31
0.0
  0
LINE
  5
103
330
1E
100
AcDbEntity
  8
0
100
AcDbLine
 10
97.0
 20
91.7209
 30
0.0
 11
97.468
 21
93.07450000000001
 31
0.0
  0
LINE
  5
105
330
1E
100
AcDbEntity
  8
0
100
AcDbLine
 10
97.0
 20
91.7209
 30
0.0
 11
97.468
 21
90.3673
 31
0.0
  0
LINE
  5
113
330
1E
100
AcDbEntity
  8
0
100
AcDbLine
 10
118.944
 20
94.81059999999999
 30
0.0
 11
120.972
 21
93.73200000000002
 31
0.0
  0
LINE
  5
115
330
1E
100
AcDbEntity
  8
0
100
AcDbLine
 10
106.7239999999999
 20
96.14310000000001
 30
0.0
 11
110.0
 21
96.3335
 31
0.0
  0
LINE
  5
117
330
1E
100
AcDbEntity
  8
0
100
AcDbLine
 10
103.708
 20
95.63549999999999
 30
0.0
 11
106.7239999999999
 21
96.14310000000001
 31
0.0
  0
LINE
  5
11A
330
1E
100
AcDbEntity
  8
0
100
AcDbLine
 10
106.672
 20
96.8181
 30
0.0
 11
110.0
 21
97.0085
 31
0.0
  0
LINE
  5
11D
330
1E
100
AcDbEntity
  8
0
100
AcDbLine
 10
103.5519999999999
 20
96.31050000000001
 30
0.0
 11
106.672
 21
96.8181
 31
0.0
  0
LINE
  5
120
330
1E
100
AcDbEntity
  8
0
100
AcDbLine
 10
110.0
 20
96.3335
 30
0.0
 11
113.276
 21
96.14310000000001
 31
0.0
  0
LINE
  5
123
330
1E
100
AcDbEntity
  8
0
100
AcDbLine
 10
113.276
 20
96.14310000000001
 30
0.0
 11
116.2919999999999
 21
95.63549999999999
 31
0.0
  0
LINE
  5
125
330
1E
100
AcDbEntity
  8
0
100
AcDbLine
 10
116.2919999999999
 20
95.63549999999999
 30
0.0
 11
118.944
 21
94.81059999999999
 31
0.0
  0
LINE
  5
126
330
1E
100
AcDbEntity
  8
0
100
AcDbLine
 10
92.0
 20
98.92690000000001
 30
0.0
 11
92.0
 21
94.9439
 31
0.0
  0
LINE
  5
127
330
1E
100
AcDbEntity
  8
0
100
AcDbLine
 10
92.0
 20
98.92690000000001
 30
0.0
 11
92.0
 21
102.2059999999999
 31
0.0
  0
LINE
  5
129
330
1E
100
AcDbEntity
  8
0
100
AcDbLine
 10
92.0
 20
103.5387999999999
 30
0.0
 11
92.0
 21
91.44429999999999
 31
0.0
  0
LINE
  5
12A
330
1E
100
AcDbEntity
  8
0
100
AcDbLine
 10
92.0
 20
103.5387999999999
 30
0.0
 11
92.0
 21
109.0694
 31
0.0
  0
LINE
  5
12B
330
1E
100
AcDbEntity
  8
0
100
AcDbLine
 10
92.0
 20
105.9231999999999
 30
0.0
 11
92.0
 21
105.5274999999999
 31
0.0
  0
LINE
  5
12C
330
1E
100
AcDbEntity
  8
0
100
AcDbLine
 10
92.0
 20
105.5274999999999
 30
0.0
 11
92.0
 21
104.5449
 31
0.0
  0
LINE
  5
12D
330
1E
100
AcDbEntity
  8
0
100
AcDbLine
 10
92.0
 20
105.5274999999999
 30
0.0
 11
92.0
 21
105.9231999999999
 31
0.0
  0
LINE
  5
12E
330
1E
100
AcDbEntity
  8
0
100
AcDbLine
 10
92.4
 20
102.5681
 30
0.0
 11
92.70000000000001
 21
102.9443
 31
0.0
  0
LINE
  5
130
330
1E
100
AcDbEntity
  8
0
100
AcDbLine
 10
92.0
 20
104.5449
 30
0.0
 11
92.0
 21
102.2059999999999
 31
0.0
  0
LINE
  5
131
330
1E
100
AcDbEntity
  8
0
100
AcDbLine
 10
92.0
 20
104.5449
 30
0.0
 11
92.0
 21
105.5274999999999
 31
0.0
  0
LINE
  5
132
330
1E
100
AcDbEntity
  8
0
100
AcDbLine
 10
92.0
 20
102.2059999999999
 30
0.0
 11
92.0
 21
98.92690000000001
 31
0.0
  0
LINE
  5
133
330
1E
100
AcDbEntity
  8
0
100
AcDbLine
 10
92.0
 20
102.2059999999999
 30
0.0
 11
92.0
 21
104.5449
 31
0.0
  0
LINE
  5
134
330
1E
100
AcDbEntity
  8
0
100
AcDbLine
 10
98.50000000000001
 20
103.1268
 30
0.0
 11
104.4999999999999
 21
103.1268
 31
0.0
  0
LINE
  5
135
330
1E
100
AcDbEntity
  8
0
100
AcDbLine
 10
93.49999999999999
 20
103.0854
 30
0.0
 11
98.50000000000001
 21
103.1268
 31
0.0
  0
LINE
  5
136
330
1E
100
AcDbEntity
  8
0
100
AcDbLine
 10
92.70000000000001
 20
102.9443
 30
0.0
 11
93.49999999999999
 21
103.0854
 31
0.0
  0
LINE
  5
139
330
1E
100
AcDbEntity
  8
0
100
AcDbLine
 10
92.0
 20
109.0694
 30
0.0
 11
92.0
 21
103.5387999999999
 31
0.0
  0
LINE
  5
13A
330
1E
100
AcDbEntity
  8
0
100
AcDbLine
 10
92.0
 20
109.0694
 30
0.0
 11
92.0
 21
116.3278999999999
 31
0.0
  0
LINE
  5
13C
330
1E
100
AcDbEntity
  8
0
100
AcDbLine
 10
110.0
 20
103.1150999999999
 30
0.0
 11
115.5
 21
103.1268
 31
0.0
  0
LINE
  5
13D
330
1E
100
AcDbEntity
  8
0
100
AcDbLine
 10
104.4999999999999
 20
103.1268
 30
0.0
 11
110.0
 21
103.1150999999999
 31
0.0
  0
LINE
  5
141
330
1E
100
AcDbEntity
  8
0
100
AcDbLine
 10
115.5
 20
103.1268
 30
0.0
 11
121.5
 21
103.1268
 31
0.0
  0
LINE
  5
144
330
1E
100
AcDbEntity
  8
0
100
AcDbLine
 10
110.0
 20
97.0085
 30
0.0
 11
113.3279999999999
 21
96.8181
 31
0.0
  0
LINE
  5
148
330
1E
100
AcDbEntity
  8
0
100
AcDbLine
 10
113.3279999999999
 20
96.8181
 30
0.0
 11
116.4479999999999
 21
96.31050000000001
 31
0.0
  0
LINE
  5
14B
330
1E
100
AcDbEntity
  8
0
100
AcDbLine
 10
116.4479999999999
 20
96.31050000000001
 30
0.0
 11
119.2039999999999
 21
95.4645
 31
0.0
  0
LINE
  5
14C
330
1E
100
AcDbEntity
  8
0
100
AcDbLine
 10
119.2039999999999
 20
95.4645
 30
0.0
 11
121.2839999999999
 21
94.34359999999999
 31
0.0
  0
LINE
  5
14E
330
1E
100
AcDbEntity
  8
0
100
AcDbLine
 10
122.0816991722279
 20
89.7043595950098
 30
0.0
 11
126.5
 21
90.0299
 31
0.0
  0
LINE
  5
14F
330
1E
100
AcDbEntity
  8
0
100
AcDbLine
 10
122.2199999999999
 20
89.8403
 30
0.0
 11
122.6879999999999
 21
91.17279999999999
 31
0.0
  0
LINE
  5
150
330
1E
100
AcDbEntity
  8
0
100
AcDbLine
 10
122.2199999999999
 20
89.8403
 30
0.0
 11
122.532
 21
90.3673
 31
0.0
  0
LINE
  5
151
330
1E
100
AcDbEntity
  8
0
100
AcDbLine
 10
126.5
 20
90.0299
 30
0.0
 11
127.2999999999999
 21
90.1406
 31
0.0
  0
LINE
  5
152
330
1E
100
AcDbEntity
  8
0
100
AcDbLine
 10
127.2999999999999
 20
90.1406
 30
0.0
 11
127.6
 21
90.4071
 31
0.0
  0
LINE
  5
155
330
1E
100
AcDbEntity
  8
0
100
AcDbLine
 10
127.6
 20
90.4071
 30
0.0
 11
128.0
 21
91.44429999999999
 31
0.0
  0
LINE
  5
158
330
1E
100
AcDbEntity
  8
0
100
AcDbLine
 10
128.0
 20
90.34069999999999
 30
0.0
 11
128.0
 21
87.35700000000001
 31
0.0
  0
LINE
  5
159
330
1E
100
AcDbEntity
  8
0
100
AcDbLine
 10
128.0
 20
90.34069999999999
 30
0.0
 11
128.0
 21
91.44429999999999
 31
0.0
  0
LINE
  5
15A
330
1E
100
AcDbEntity
  8
0
100
AcDbLine
 10
122.532
 20
90.3673
 30
0.0
 11
123.0
 21
91.7209
 31
0.0
  0
LINE
  5
15B
330
1E
100
AcDbEntity
  8
0
100
AcDbLine
 10
128.0
 20
91.44429999999999
 30
0.0
 11
128.0
 21
90.34069999999999
 31
0.0
  0
LINE
  5
15C
330
1E
100
AcDbEntity
  8
0
100
AcDbLine
 10
128.0
 20
91.44429999999999
 30
0.0
 11
128.0
 21
103.5387999999999
 31
0.0
  0
LINE
  5
15D
330
1E
100
AcDbEntity
  8
0
100
AcDbLine
 10
123.0
 20
91.7209
 30
0.0
 11
123.0
 21
93.42758000000001
 31
0.0
  0
LINE
  5
15F
330
1E
100
AcDbEntity
  8
0
100
AcDbLine
 10
122.2199999999999
 20
92.50530000000001
 30
0.0
 11
122.6879999999999
 21
91.17279999999999
 31
0.0
  0
LINE
  5
161
330
1E
100
AcDbEntity
  8
0
100
AcDbLine
 10
120.972
 20
93.73200000000002
 30
0.0
 11
122.2199999999999
 21
92.50530000000001
 31
0.0
  0
LINE
  5
163
330
1E
100
AcDbEntity
  8
0
100
AcDbLine
 10
121.5
 20
103.1268
 30
0.0
 11
126.5
 21
103.0854
 31
0.0
  0
LINE
  5
165
330
1E
100
AcDbEntity
  8
0
100
AcDbLine
 10
121.2839999999999
 20
94.34359999999999
 30
0.0
 11
122.532
 21
93.07450000000001
 31
0.0
  0
LINE
  5
168
330
1E
100
AcDbEntity
  8
0
100
AcDbLine
 10
127.2999999999999
 20
102.9443
 30
0.0
 11
127.6
 21
102.5681
 31
0.0
  0
LINE
  5
169
330
1E
100
AcDbEntity
  8
0
100
AcDbLine
 10
126.5
 20
103.0854
 30
0.0
 11
127.2999999999999
 21
102.9443
 31
0.0
  0
LINE
  5
16B
330
1E
100
AcDbEntity
  8
0
100
AcDbLine
 10
128.0
 20
103.5387999999999
 30
0.0
 11
128.0
 21
91.44429999999999
 31
0.0
  0
LINE
  5
16C
330
1E
100
AcDbEntity
  8
0
100
AcDbLine
 10
128.0
 20
103.5387999999999
 30
0.0
 11
128.0
 21
109.0694
 31
0.0
  0
LINE
  5
16D
330
1E
100
AcDbEntity
  8
0
100
AcDbLine
 10
128.0
 20
109.0694
 30
0.0
 11
128.0
 21
103.5387999999999
 31
0.0
  0
LINE
  5
16E
330
1E
100
AcDbEntity
  8
0
100
AcDbLine
 10
128.0
 20
109.0694
 30
0.0
 11
128.0
 21
116.3278999999999
 31
0.0
  0
LINE
  5
170
330
1E
100
AcDbEntity
  8
0
100
AcDbLine
 10
123.0
 20
93.42758000000001
 30
0.0
 11
123.0
 21
91.7209
 31
0.0
  0
LINE
  5
171
330
1E
100
AcDbEntity
  8
0
100
AcDbLine
 10
122.532
 20
93.07450000000001
 30
0.0
 11
123.0
 21
91.7209
 31
0.0
  0
LINE
  5
172
330
1E
100
AcDbEntity
  8
0
100
AcDbLine
 10
98.53588962066419
 20
89.09731138007309
 30
0.0
 11
99.50000000000001
 21
60.174
 31
0.0
  0
LINE
  5
173
330
1E
100
AcDbEntity
  8
0
100
AcDbLine
 10
218.6999999999999
 20
84.82600000000001
 30
0.0
 11
220.0
 21
93.82600000000001
 31
0.0
  0
LINE
  5
174
330
1E
100
AcDbEntity
  8
0
100
AcDbLine
 10
218.6999999999999
 20
102.826
 30
0.0
 11
220.0
 21
93.82600000000001
 31
0.0
  0
LINE
  5
175
330
1E
100
AcDbEntity
  8
0
100
AcDbLine
 10
205.0
 20
109.326
 30
0.0
 11
205.0
 21
78.32600000000001
 31
0.0
  0
LINE
  5
17E
330
1E
100
AcDbEntity
  8
0
100
AcDbLine
 10
203.5
 20
110.826
 30
0.0
 11
204.5999999999999
 21
110.426
 31
0.0
  0
LINE
  5
17F
330
1E
100
AcDbEntity
  8
0
100
AcDbLine
 10
204.5999999999999
 20
110.426
 30
0.0
 11
205.0
 21
109.326
 31
0.0
  0
LINE
  5
182
330
1E
100
AcDbEntity
  8
0
100
AcDbLine
 10
188.4999999999999
 20
113.148
 30
0.0
 11
193.487
 21
112.4268999999999
 31
0.0
  0
LINE
  5
183
330
1E
100
AcDbEntity
  8
0
100
AcDbLine
 10
193.487
 20
112.4268999999999
 30
0.0
 11
198.4869999999999
 21
111.5588
 31
0.0
  0
LINE
  5
184
330
1E
100
AcDbEntity
  8
0
100
AcDbLine
 10
198.4869999999999
 20
111.5588
 30
0.0
 11
203.5
 21
110.826
 31
0.0
  0
LINE
  5
185
330
1E
100
AcDbEntity
  8
0
100
AcDbLine
 10
215.3
 20
111.226
 30
0.0
 11
218.6999999999999
 21
102.826
 31
0.0
  0
LINE
  5
188
330
1E
100
AcDbEntity
  8
0
100
AcDbLine
 10
26.5131
 20
112.4268999999999
 30
0.0
 11
31.5
 21
113.148
 31
0.0
  0
LINE
  5
18A
330
1E
100
AcDbEntity
  8
0
100
AcDbLine
 10
36.5000000000001
 20
113.8350999999999
 30
0.0
 11
41.5
 21
114.4608999999999
 31
0.0
  0
LINE
  5
18C
330
1E
100
AcDbEntity
  8
0
100
AcDbLine
 10
36.5
 20
113.8350999999999
 30
0.0
 11
41.5
 21
114.4608999999999
 31
0.0
  0
LINE
  5
18D
330
1E
100
AcDbEntity
  8
0
100
AcDbLine
 10
17.6
 20
124.126
 30
0.0
 11
26.0
 21
127.526
 31
0.0
  0
LINE
  5
18E
330
1E
100
AcDbEntity
  8
0
100
AcDbLine
 10
26.0
 20
127.526
 30
0.0
 11
35.0
 21
128.8259999999999
 31
0.0
  0
LINE
  5
18F
330
1E
100
AcDbEntity
  8
0
100
AcDbLine
 10
46.5131
 20
114.9997999999999
 30
0.0
 11
51.4739
 21
115.4783
 31
0.0
  0
LINE
  5
191
330
1E
100
AcDbEntity
  8
0
100
AcDbLine
 10
44.0
 20
127.526
 30
0.0
 11
52.4
 21
124.126
 31
0.0
  0
LINE
  5
192
330
1E
100
AcDbEntity
  8
0
100
AcDbLine
 10
35.0
 20
128.8259999999999
 30
0.0
 11
44.0
 21
127.526
 31
0.0
  0
LINE
  5
193
330
1E
100
AcDbEntity
  8
0
100
AcDbLine
 10
41.5
 20
114.4608999999999
 30
0.0
 11
46.5
 21
114.9997999999999
 31
0.0
  0
LINE
  5
198
330
1E
100
AcDbEntity
  8
0
100
AcDbLine
 10
173.5
 20
114.9997999999999
 30
0.0
 11
178.5
 21
114.4608999999999
 31
0.0
  0
LINE
  5
19A
330
1E
100
AcDbEntity
  8
0
100
AcDbLine
 10
178.5
 20
114.4608999999999
 30
0.0
 11
183.4999999999999
 21
113.8350999999999
 31
0.0
  0
LINE
  5
19B
330
1E
100
AcDbEntity
  8
0
100
AcDbLine
 10
183.4999999999999
 20
113.8350999999999
 30
0.0
 11
188.4999999999999
 21
113.148
 31
0.0
  0
LINE
  5
19C
330
1E
100
AcDbEntity
  8
0
100
AcDbLine
 10
51.4739
 20
115.4783
 30
0.0
 11
56.4957
 21
115.8954999999999
 31
0.0
  0
LINE
  5
19E
330
1E
100
AcDbEntity
  8
0
100
AcDbLine
 10
56.4826
 20
115.8954999999999
 30
0.0
 11
61.5
 21
116.2606
 31
0.0
  0
LINE
  5
1A1
330
1E
100
AcDbEntity
  8
0
100
AcDbLine
 10
163.504
 20
115.8954999999999
 30
0.0
 11
168.5259999999999
 21
115.4783
 31
0.0
  0
LINE
  5
1A2
330
1E
100
AcDbEntity
  8
0
100
AcDbLine
 10
168.5259999999999
 20
115.4783
 30
0.0
 11
173.4869999999999
 21
114.9997999999999
 31
0.0
  0
LINE
  5
1A4
330
1E
100
AcDbEntity
  8
0
100
AcDbLine
 10
64.8371298405468
 20
116.4791152619589
 30
0.0
 11
71.5
 21
116.8673999999999
 31
0.0
  0
LINE
  5
1A6
330
1E
100
AcDbEntity
  8
0
100
AcDbLine
 10
71.5
 20
116.8673999999999
 30
0.0
 11
76.5
 21
117.1364
 31
0.0
  0
LINE
  5
1A7
330
1E
100
AcDbEntity
  8
0
100
AcDbLine
 10
76.5
 20
117.1364
 30
0.0
 11
81.5
 21
117.3602999999999
 31
0.0
  0
LINE
  5
1AA
330
1E
100
AcDbEntity
  8
0
100
AcDbLine
 10
81.5
 20
117.3602999999999
 30
0.0
 11
86.5
 21
117.521
 31
0.0
  0
LINE
  5
1AB
330
1E
100
AcDbEntity
  8
0
100
AcDbLine
 10
128.0
 20
116.3278999999999
 30
0.0
 11
128.0
 21
109.0694
 31
0.0
  0
LINE
  5
1AC
330
1E
100
AcDbEntity
  8
0
100
AcDbLine
 10
128.0
 20
116.3278999999999
 30
0.0
 11
128.0
 21
121.1233
 31
0.0
  0
LINE
  5
1AD
330
1E
100
AcDbEntity
  8
0
100
AcDbLine
 10
92.0
 20
116.3278999999999
 30
0.0
 11
92.0
 21
109.0694
 31
0.0
  0
LINE
  5
1AE
330
1E
100
AcDbEntity
  8
0
100
AcDbLine
 10
92.0
 20
116.3278999999999
 30
0.0
 11
92.0
 21
121.1233
 31
0.0
  0
LINE
  5
1B0
330
1E
100
AcDbEntity
  8
0
100
AcDbLine
 10
155.204545454545
 20
116.4763863636359
 30
0.0
 11
158.4999999999999
 21
116.2606
 31
0.0
  0
LINE
  5
1B8
330
1E
100
AcDbEntity
  8
0
100
AcDbLine
 10
148.5
 20
116.8673999999999
 30
0.0
 11
155.204545454545
 21
116.4763863636359
 31
0.0
  0
LINE
  5
1B9
330
1E
100
AcDbEntity
  8
0
100
AcDbLine
 10
155.204545454545
 20
116.4763863636359
 30
0.0
 11
158.4999999999999
 21
116.2606
 31
0.0
  0
LINE
  5
1BA
330
1E
100
AcDbEntity
  8
0
100
AcDbLine
 10
158.4999999999999
 20
116.2606
 30
0.0
 11
163.517
 21
115.8954999999999
 31
0.0
  0
LINE
  5
1BC
330
1E
100
AcDbEntity
  8
0
100
AcDbLine
 10
158.55887232503
 20
116.256315709414
 30
0.0
 11
160.3
 21
118.526
 31
0.0
  0
LINE
  5
1BE
330
1E
100
AcDbEntity
  8
0
100
AcDbLine
 10
143.5
 20
117.1364
 30
0.0
 11
148.5
 21
116.8673999999999
 31
0.0
  0
LINE
  5
1C0
330
1E
100
AcDbEntity
  8
0
100
AcDbLine
 10
138.5
 20
117.3602999999999
 30
0.0
 11
143.5
 21
117.1364
 31
0.0
  0
LINE
  5
1C1
330
1E
100
AcDbEntity
  8
0
100
AcDbLine
 10
128.0
 20
117.67269311587
 30
0.0
 11
128.4999999999999
 21
117.6675
 31
0.0
  0
LINE
  5
1C2
330
1E
100
AcDbEntity
  8
0
100
AcDbLine
 10
128.4999999999999
 20
117.6675
 30
0.0
 11
133.4999999999999
 21
117.521
 31
0.0
  0
LINE
  5
1C3
330
1E
100
AcDbEntity
  8
0
100
AcDbLine
 10
128.4999999999999
 20
117.6675
 30
0.0
 11
128.4999999999999
 21
130.2259999999999
 31
0.0
  0
LINE
  5
1C4
330
1E
100
AcDbEntity
  8
0
100
AcDbLine
 10
133.4999999999999
 20
117.521
 30
0.0
 11
138.5
 21
117.3602999999999
 31
0.0
  0
LINE
  5
1C5
330
1E
100
AcDbEntity
  8
0
100
AcDbLine
 10
209.6999999999999
 20
118.526
 30
0.0
 11
215.3
 21
111.226
 31
0.0
  0
LINE
  5
1C6
330
1E
100
AcDbEntity
  8
0
100
AcDbLine
 10
160.3
 20
118.526
 30
0.0
 11
167.5999999999999
 21
124.126
 31
0.0
  0
LINE
  5
1C7
330
1E
100
AcDbEntity
  8
0
100
AcDbLine
 10
91.5
 20
117.6675
 30
0.0
 11
92.0
 21
117.672693323727
 31
0.0
  0
LINE
  5
1C8
330
1E
100
AcDbEntity
  8
0
100
AcDbLine
 10
91.5
 20
117.6675
 30
0.0
 11
91.5
 21
130.2259999999999
 31
0.0
  0
LINE
  5
1CA
330
1E
100
AcDbEntity
  8
0
100
AcDbLine
 10
86.5
 20
117.521
 30
0.0
 11
91.5
 21
117.6675
 31
0.0
  0
LINE
  5
1CD
330
1E
100
AcDbEntity
  8
0
100
AcDbLine
 10
61.5
 20
116.2606
 30
0.0
 11
64.83712984054671
 21
116.4791152619589
 31
0.0
  0
LINE
  5
1CE
330
1E
100
AcDbEntity
  8
0
100
AcDbLine
 10
61.5
 20
116.2606
 30
0.0
 11
64.8371298405468
 21
116.4791152619589
 31
0.0
  0
LINE
  5
1CF
330
1E
100
AcDbEntity
  8
0
100
AcDbLine
 10
92.0
 20
121.1233
 30
0.0
 11
92.0
 21
116.3278999999999
 31
0.0
  0
LINE
  5
1D0
330
1E
100
AcDbEntity
  8
0
100
AcDbLine
 10
92.0
 20
121.1233
 30
0.0
 11
92.0
 21
125.3584
 31
0.0
  0
LINE
  5
1D3
330
1E
100
AcDbEntity
  8
0
100
AcDbLine
 10
128.0
 20
121.1233
 30
0.0
 11
128.0
 21
116.3278999999999
 31
0.0
  0
LINE
  5
1D4
330
1E
100
AcDbEntity
  8
0
100
AcDbLine
 10
128.0
 20
121.1233
 30
0.0
 11
128.0
 21
125.3584
 31
0.0
  0
LINE
  5
1D7
330
1E
100
AcDbEntity
  8
0
100
AcDbLine
 10
92.0
 20
125.3584
 30
0.0
 11
92.0
 21
121.1233
 31
0.0
  0
LINE
  5
1D8
330
1E
100
AcDbEntity
  8
0
100
AcDbLine
 10
92.0
 20
125.3584
 30
0.0
 11
92.0
 21
128.2915999999999
 31
0.0
  0
LINE
  5
1D9
330
1E
100
AcDbEntity
  8
0
100
AcDbLine
 10
92.0
 20
128.2915999999999
 30
0.0
 11
92.0
 21
125.3584
 31
0.0
  0
LINE
  5
1DA
330
1E
100
AcDbEntity
  8
0
100
AcDbLine
 10
92.0
 20
128.2915999999999
 30
0.0
 11
92.0
 21
130.8122999999999
 31
0.0
  0
LINE
  5
1DB
330
1E
100
AcDbEntity
  8
0
100
AcDbLine
 10
92.0
 20
130.8122999999999
 30
0.0
 11
92.0
 21
128.2915999999999
 31
0.0
  0
LINE
  5
1DC
330
1E
100
AcDbEntity
  8
0
100
AcDbLine
 10
92.0
 20
130.8122999999999
 30
0.0
 11
92.0
 21
131.7861
 31
0.0
  0
LINE
  5
1DD
330
1E
100
AcDbEntity
  8
0
100
AcDbLine
 10
92.0
 20
131.7861
 30
0.0
 11
92.0
 21
130.8122999999999
 31
0.0
  0
LINE
  5
1DE
330
1E
100
AcDbEntity
  8
0
100
AcDbLine
 10
92.0
 20
131.7861
 30
0.0
 11
92.0
 21
132.3207999999999
 31
0.0
  0
LINE
  5
1DF
330
1E
100
AcDbEntity
  8
0
100
AcDbLine
 10
92.0
 20
132.3207999999999
 30
0.0
 11
92.4
 21
133.4208
 31
0.0
  0
LINE
  5
1E0
330
1E
100
AcDbEntity
  8
0
100
AcDbLine
 10
92.0
 20
132.3207999999999
 30
0.0
 11
92.0
 21
131.7861
 31
0.0
  0
LINE
  5
1E2
330
1E
100
AcDbEntity
  8
0
100
AcDbLine
 10
91.5
 20
130.2259999999999
 30
0.0
 11
91.5
 21
117.6675
 31
0.0
  0
LINE
  5
1E5
330
1E
100
AcDbEntity
  8
0
100
AcDbLine
 10
92.0
 20
138.252
 30
0.0
 11
92.0
 21
161.397
 31
0.0
  0
LINE
  5
1E6
330
1E
100
AcDbEntity
  8
0
100
AcDbLine
 10
92.0
 20
138.252
 30
0.0
 11
92.0
 21
172.52
 31
0.0
  0
LINE
  5
1E7
330
1E
100
AcDbEntity
  8
0
100
AcDbLine
 10
92.0
 20
161.397
 30
0.0
 11
92.0
 21
172.52
 31
0.0
  0
LINE
  5
1E8
330
1E
100
AcDbEntity
  8
0
100
AcDbLine
 10
92.0
 20
161.397
 30
0.0
 11
92.0
 21
138.252
 31
0.0
  0
LINE
  5
1E9
330
1E
100
AcDbEntity
  8
0
100
AcDbLine
 10
92.0
 20
173.405
 30
0.0
 11
92.0
 21
172.52
 31
0.0
  0
LINE
  5
1EA
330
1E
100
AcDbEntity
  8
0
100
AcDbLine
 10
92.0
 20
173.405
 30
0.0
 11
92.0
 21
173.8499999999999
 31
0.0
  0
LINE
  5
1EB
330
1E
100
AcDbEntity
  8
0
100
AcDbLine
 10
92.0
 20
172.52
 30
0.0
 11
92.0
 21
138.252
 31
0.0
  0
LINE
  5
1EC
330
1E
100
AcDbEntity
  8
0
100
AcDbLine
 10
92.0
 20
172.52
 30
0.0
 11
92.0
 21
173.405
 31
0.0
  0
LINE
  5
1ED
330
1E
100
AcDbEntity
  8
0
100
AcDbLine
 10
92.0
 20
172.52
 30
0.0
 11
92.0
 21
161.397
 31
0.0
  0
LINE
  5
1EF
330
1E
100
AcDbEntity
  8
0
100
AcDbLine
 10
91.5
 20
130.2259999999999
 30
0.0
 11
92.0
 21
138.252
 31
0.0
  0
LINE
  5
1F0
330
1E
100
AcDbEntity
  8
0
100
AcDbLine
 10
92.0
 20
173.8499999999999
 30
0.0
 11
92.0
 21
174.76
 31
0.0
  0
LINE
  5
1F1
330
1E
100
AcDbEntity
  8
0
100
AcDbLine
 10
92.0
 20
173.8499999999999
 30
0.0
 11
92.0
 21
173.405
 31
0.0
  0
LINE
  5
1F2
330
1E
100
AcDbEntity
  8
0
100
AcDbLine
 10
92.0
 20
185.3209999999999
 30
0.0
 11
92.0
 21
184.796
 31
0.0
  0
LINE
  5
1F3
330
1E
100
AcDbEntity
  8
0
100
AcDbLine
 10
92.0
 20
185.3209999999999
 30
0.0
 11
92.4
 21
186.1559999999999
 31
0.0
  0
LINE
  5
1F4
330
1E
100
AcDbEntity
  8
0
100
AcDbLine
 10
92.0
 20
184.796
 30
0.0
 11
92.0
 21
183.942
 31
0.0
  0
LINE
  5
1F5
330
1E
100
AcDbEntity
  8
0
100
AcDbLine
 10
92.0
 20
184.796
 30
0.0
 11
92.0
 21
185.3209999999999
 31
0.0
  0
LINE
  5
1F6
330
1E
100
AcDbEntity
  8
0
100
AcDbLine
 10
92.0
 20
183.942
 30
0.0
 11
92.0
 21
182.178
 31
0.0
  0
LINE
  5
1F7
330
1E
100
AcDbEntity
  8
0
100
AcDbLine
 10
92.0
 20
183.942
 30
0.0
 11
92.0
 21
184.796
 31
0.0
  0
LINE
  5
1F8
330
1E
100
AcDbEntity
  8
0
100
AcDbLine
 10
92.0
 20
182.178
 30
0.0
 11
92.0
 21
179.3479999999999
 31
0.0
  0
LINE
  5
1F9
330
1E
100
AcDbEntity
  8
0
100
AcDbLine
 10
92.0
 20
182.178
 30
0.0
 11
92.0
 21
183.942
 31
0.0
  0
LINE
  5
1FA
330
1E
100
AcDbEntity
  8
0
100
AcDbLine
 10
92.0
 20
179.3479999999999
 30
0.0
 11
92.0
 21
176.937
 31
0.0
  0
LINE
  5
1FB
330
1E
100
AcDbEntity
  8
0
100
AcDbLine
 10
92.0
 20
179.3479999999999
 30
0.0
 11
92.0
 21
182.178
 31
0.0
  0
LINE
  5
1FC
330
1E
100
AcDbEntity
  8
0
100
AcDbLine
 10
92.0
 20
176.937
 30
0.0
 11
92.0
 21
174.76
 31
0.0
  0
LINE
  5
1FD
330
1E
100
AcDbEntity
  8
0
100
AcDbLine
 10
92.0
 20
176.937
 30
0.0
 11
92.0
 21
179.3479999999999
 31
0.0
  0
LINE
  5
206
330
1E
100
AcDbEntity
  8
0
100
AcDbLine
 10
92.4
 20
133.4208
 30
0.0
 11
93.49999999999999
 21
133.8207999999999
 31
0.0
  0
LINE
  5
222
330
1E
100
AcDbEntity
  8
0
100
AcDbLine
 10
93.49999999999999
 20
133.8207999999999
 30
0.0
 11
98.50000000000001
 21
134.3207999999999
 31
0.0
  0
LINE
  5
226
330
1E
100
AcDbEntity
  8
0
100
AcDbLine
 10
92.70000000000001
 20
181.2729999999999
 30
0.0
 11
93.49999999999999
 21
181.0459999999999
 31
0.0
  0
LINE
  5
227
330
1E
100
AcDbEntity
  8
0
100
AcDbLine
 10
98.50000000000001
 20
134.3207999999999
 30
0.0
 11
104.4999999999999
 21
134.7207999999999
 31
0.0
  0
LINE
  5
228
330
1E
100
AcDbEntity
  8
0
100
AcDbLine
 10
101.0
 20
134.4874666666669
 30
0.0
 11
101.0
 21
150.2226999999999
 31
0.0
  0
LINE
  5
229
330
1E
100
AcDbEntity
  8
0
100
AcDbLine
 10
101.0
 20
150.2226999999999
 30
0.0
 11
101.2999999999999
 21
150.2226999999999
 31
0.0
  0
LINE
  5
22A
330
1E
100
AcDbEntity
  8
0
100
AcDbLine
 10
101.0
 20
150.2226999999999
 30
0.0
 11
102.2
 21
150.9538
 31
0.0
  0
LINE
  5
22B
330
1E
100
AcDbEntity
  8
0
100
AcDbLine
 10
101.0
 20
150.2226999999999
 30
0.0
 11
101.0
 21
134.4874666666669
 31
0.0
  0
LINE
  5
22C
330
1E
100
AcDbEntity
  8
0
100
AcDbLine
 10
101.2999999999999
 20
150.2226999999999
 30
0.0
 11
102.2
 21
150.2226999999999
 31
0.0
  0
LINE
  5
22D
330
1E
100
AcDbEntity
  8
0
100
AcDbLine
 10
102.2
 20
150.2226999999999
 30
0.0
 11
103.6399999999999
 21
150.2226999999999
 31
0.0
  0
LINE
  5
22E
330
1E
100
AcDbEntity
  8
0
100
AcDbLine
 10
103.6399999999999
 20
150.2226999999999
 30
0.0
 11
105.4999999999999
 21
150.2226999999999
 31
0.0
  0
LINE
  5
22F
330
1E
100
AcDbEntity
  8
0
100
AcDbLine
 10
102.2
 20
150.9538
 30
0.0
 11
110.0
 21
151.1974999999999
 31
0.0
  0
LINE
  5
230
330
1E
100
AcDbEntity
  8
0
100
AcDbLine
 10
104.4999999999999
 20
134.7207999999999
 30
0.0
 11
110.0
 21
134.8207999999999
 31
0.0
  0
LINE
  5
231
330
1E
100
AcDbEntity
  8
0
100
AcDbLine
 10
126.5
 20
133.8207999999999
 30
0.0
 11
127.6
 21
133.4208
 31
0.0
  0
LINE
  5
238
330
1E
100
AcDbEntity
  8
0
100
AcDbLine
 10
127.6
 20
133.4208
 30
0.0
 11
128.0
 21
132.3207999999999
 31
0.0
  0
LINE
  5
23E
330
1E
100
AcDbEntity
  8
0
100
AcDbLine
 10
126.448
 20
133.826
 30
0.0
 11
126.5
 21
133.826
 31
0.0
  0
LINE
  5
23F
330
1E
100
AcDbEntity
  8
0
100
AcDbLine
 10
105.4999999999999
 20
150.2226999999999
 30
0.0
 11
107.66
 21
150.2226999999999
 31
0.0
  0
LINE
  5
240
330
1E
100
AcDbEntity
  8
0
100
AcDbLine
 10
114.5
 20
150.2226999999999
 30
0.0
 11
116.3599999999999
 21
150.2226999999999
 31
0.0
  0
LINE
  5
241
330
1E
100
AcDbEntity
  8
0
100
AcDbLine
 10
112.3399999999999
 20
150.2226999999999
 30
0.0
 11
114.5
 21
150.2226999999999
 31
0.0
  0
LINE
  5
242
330
1E
100
AcDbEntity
  8
0
100
AcDbLine
 10
110.0
 20
150.2226999999999
 30
0.0
 11
112.3399999999999
 21
150.2226999999999
 31
0.0
  0
LINE
  5
243
330
1E
100
AcDbEntity
  8
0
100
AcDbLine
 10
110.0
 20
151.1974999999999
 30
0.0
 11
117.7999999999999
 21
150.9538
 31
0.0
  0
LINE
  5
244
330
1E
100
AcDbEntity
  8
0
100
AcDbLine
 10
107.66
 20
150.2226999999999
 30
0.0
 11
110.0
 21
150.2226999999999
 31
0.0
  0
LINE
  5
245
330
1E
100
AcDbEntity
  8
0
100
AcDbLine
 10
110.0
 20
134.8207999999999
 30
0.0
 11
115.5
 21
134.7207999999999
 31
0.0
  0
LINE
  5
246
330
1E
100
AcDbEntity
  8
0
100
AcDbLine
 10
119.0
 20
134.4874666666669
 30
0.0
 11
119.0
 21
150.2226999999999
 31
0.0
  0
LINE
  5
247
330
1E
100
AcDbEntity
  8
0
100
AcDbLine
 10
119.0
 20
150.2226999999999
 30
0.0
 11
119.0
 21
134.4874666666669
 31
0.0
  0
LINE
  5
248
330
1E
100
AcDbEntity
  8
0
100
AcDbLine
 10
118.7
 20
150.2226999999999
 30
0.0
 11
119.0
 21
150.2226999999999
 31
0.0
  0
LINE
  5
249
330
1E
100
AcDbEntity
  8
0
100
AcDbLine
 10
117.7999999999999
 20
150.2226999999999
 30
0.0
 11
118.7
 21
150.2226999999999
 31
0.0
  0
LINE
  5
24A
330
1E
100
AcDbEntity
  8
0
100
AcDbLine
 10
117.7999999999999
 20
150.9538
 30
0.0
 11
119.0
 21
150.2226999999999
 31
0.0
  0
LINE
  5
24B
330
1E
100
AcDbEntity
  8
0
100
AcDbLine
 10
116.3599999999999
 20
150.2226999999999
 30
0.0
 11
117.7999999999999
 21
150.2226999999999
 31
0.0
  0
LINE
  5
24C
330
1E
100
AcDbEntity
  8
0
100
AcDbLine
 10
115.5
 20
134.7207999999999
 30
0.0
 11
121.5
 21
134.3207999999999
 31
0.0
  0
LINE
  5
24D
330
1E
100
AcDbEntity
  8
0
100
AcDbLine
 10
121.5
 20
134.3207999999999
 30
0.0
 11
126.5
 21
133.8207999999999
 31
0.0
  0
LINE
  5
25D
330
1E
100
AcDbEntity
  8
0
100
AcDbLine
 10
128.0
 20
125.3584
 30
0.0
 11
128.0
 21
121.1233
 31
0.0
  0
LINE
  5
25E
330
1E
100
AcDbEntity
  8
0
100
AcDbLine
 10
128.0
 20
125.3584
 30
0.0
 11
128.0
 21
128.2915999999999
 31
0.0
  0
LINE
  5
25F
330
1E
100
AcDbEntity
  8
0
100
AcDbLine
 10
128.0
 20
128.2915999999999
 30
0.0
 11
128.0
 21
125.3584
 31
0.0
  0
LINE
  5
260
330
1E
100
AcDbEntity
  8
0
100
AcDbLine
 10
128.0
 20
128.2915999999999
 30
0.0
 11
128.0
 21
130.8122999999999
 31
0.0
  0
LINE
  5
261
330
1E
100
AcDbEntity
  8
0
100
AcDbLine
 10
128.0
 20
130.8122999999999
 30
0.0
 11
128.0
 21
128.2915999999999
 31
0.0
  0
LINE
  5
262
330
1E
100
AcDbEntity
  8
0
100
AcDbLine
 10
128.0
 20
130.8122999999999
 30
0.0
 11
128.0
 21
131.7861
 31
0.0
  0
LINE
  5
263
330
1E
100
AcDbEntity
  8
0
100
AcDbLine
 10
128.0
 20
131.7861
 30
0.0
 11
128.0
 21
130.8122999999999
 31
0.0
  0
LINE
  5
264
330
1E
100
AcDbEntity
  8
0
100
AcDbLine
 10
128.0
 20
131.7861
 30
0.0
 11
128.0
 21
132.3207999999999
 31
0.0
  0
LINE
  5
265
330
1E
100
AcDbEntity
  8
0
100
AcDbLine
 10
128.0
 20
132.3207999999999
 30
0.0
 11
128.0
 21
131.7861
 31
0.0
  0
LINE
  5
269
330
1E
100
AcDbEntity
  8
0
100
AcDbLine
 10
128.4999999999999
 20
130.2259999999999
 30
0.0
 11
128.4999999999999
 21
117.6675
 31
0.0
  0
LINE
  5
26C
330
1E
100
AcDbEntity
  8
0
100
AcDbLine
 10
110.0
 20
180.684
 30
0.0
 11
115.5
 21
180.754
 31
0.0
  0
LINE
  5
26D
330
1E
100
AcDbEntity
  8
0
100
AcDbLine
 10
115.5
 20
180.754
 30
0.0
 11
121.5
 21
180.904
 31
0.0
  0
LINE
  5
26E
330
1E
100
AcDbEntity
  8
0
100
AcDbLine
 10
126.5
 20
181.0459999999999
 30
0.0
 11
127.2999999999999
 21
181.2729999999999
 31
0.0
  0
LINE
  5
26F
330
1E
100
AcDbEntity
  8
0
100
AcDbLine
 10
121.5
 20
180.904
 30
0.0
 11
126.5
 21
181.0459999999999
 31
0.0
  0
LINE
  5
272
330
1E
100
AcDbEntity
  8
0
100
AcDbLine
 10
127.2999999999999
 20
181.2729999999999
 30
0.0
 11
127.6
 21
181.884
 31
0.0
  0
LINE
  5
27D
330
1E
100
AcDbEntity
  8
0
100
AcDbLine
 10
104.4999999999999
 20
180.754
 30
0.0
 11
110.0
 21
180.684
 31
0.0
  0
LINE
  5
280
330
1E
100
AcDbEntity
  8
0
100
AcDbLine
 10
98.50000000000001
 20
180.904
 30
0.0
 11
104.4999999999999
 21
180.754
 31
0.0
  0
LINE
  5
282
330
1E
100
AcDbEntity
  8
0
100
AcDbLine
 10
93.49999999999999
 20
181.0459999999999
 30
0.0
 11
98.50000000000001
 21
180.904
 31
0.0
  0
LINE
  5
291
330
1E
100
AcDbEntity
  8
0
100
AcDbLine
 10
127.6
 20
186.1559999999999
 30
0.0
 11
128.0
 21
185.3209999999999
 31
0.0
  0
LINE
  5
294
330
1E
100
AcDbEntity
  8
0
100
AcDbLine
 10
126.5
 20
186.4589999999999
 30
0.0
 11
127.6
 21
186.1559999999999
 31
0.0
  0
LINE
  5
299
330
1E
100
AcDbEntity
  8
0
100
AcDbLine
 10
115.5
 20
186.764
 30
0.0
 11
121.5
 21
186.6409999999999
 31
0.0
  0
LINE
  5
29A
330
1E
100
AcDbEntity
  8
0
100
AcDbLine
 10
121.5
 20
186.6409999999999
 30
0.0
 11
126.5
 21
186.4589999999999
 31
0.0
  0
LINE
  5
29C
330
1E
100
AcDbEntity
  8
0
100
AcDbLine
 10
110.0
 20
186.826
 30
0.0
 11
115.5
 21
186.764
 31
0.0
  0
LINE
  5
29D
330
1E
100
AcDbEntity
  8
0
100
AcDbLine
 10
104.4999999999999
 20
186.764
 30
0.0
 11
110.0
 21
186.826
 31
0.0
  0
LINE
  5
29E
330
1E
100
AcDbEntity
  8
0
100
AcDbLine
 10
98.50000000000001
 20
186.6409999999999
 30
0.0
 11
104.4999999999999
 21
186.764
 31
0.0
  0
LINE
  5
29F
330
1E
100
AcDbEntity
  8
0
100
AcDbLine
 10
93.49999999999999
 20
186.4589999999999
 30
0.0
 11
98.50000000000001
 21
186.6409999999999
 31
0.0
  0
LINE
  5
2A0
330
1E
100
AcDbEntity
  8
0
100
AcDbLine
 10
92.4
 20
186.1559999999999
 30
0.0
 11
93.49999999999999
 21
186.4589999999999
 31
0.0
  0
LINE
  5
2A4
330
1E
100
AcDbEntity
  8
0
100
AcDbLine
 10
92.0
 20
174.76
 30
0.0
 11
92.0
 21
173.8499999999999
 31
0.0
  0
LINE
  5
2A5
330
1E
100
AcDbEntity
  8
0
100
AcDbLine
 10
92.0
 20
174.76
 30
0.0
 11
92.0
 21
176.937
 31
0.0
  0
LINE
  5
2A6
330
1E
100
AcDbEntity
  8
0
100
AcDbLine
 10
167.5999999999999
 20
124.126
 30
0.0
 11
176.0
 21
127.526
 31
0.0
  0
LINE
  5
2A7
330
1E
100
AcDbEntity
  8
0
100
AcDbLine
 10
202.4
 20
124.126
 30
0.0
 11
209.6999999999999
 21
118.526
 31
0.0
  0
LINE
  5
2A8
330
1E
100
AcDbEntity
  8
0
100
AcDbLine
 10
194.0
 20
127.526
 30
0.0
 11
202.4
 21
124.126
 31
0.0
  0
LINE
  5
2A9
330
1E
100
AcDbEntity
  8
0
100
AcDbLine
 10
185.0
 20
128.8259999999999
 30
0.0
 11
194.0
 21
127.526
 31
0.0
  0
LINE
  5
2AA
330
1E
100
AcDbEntity
  8
0
100
AcDbLine
 10
176.0
 20
127.526
 30
0.0
 11
185.0
 21
128.8259999999999
 31
0.0
  0
LINE
  5
2AB
330
1E
100
AcDbEntity
  8
0
100
AcDbLine
 10
59.7
 20
118.526
 30
0.0
 11
61.441127426808
 21
116.256316032911
 31
0.0
  0
LINE
  5
2AC
330
1E
100
AcDbEntity
  8
0
100
AcDbLine
 10
52.4
 20
124.126
 30
0.0
 11
59.7
 21
118.526
 31
0.0
  0
LINE
  5
2AD
330
1E
100
AcDbEntity
  8
0
100
AcDbLine
 10
31.5
 20
113.148
 30
0.0
 11
36.5
 21
113.8350999999999
 31
0.0
  0
LINE
  5
2B4
330
1E
100
AcDbEntity
  8
0
100
AcDbLine
 10
21.5131
 20
76.0932
 30
0.0
 11
15.4
 21
77.22599999999999
 31
0.0
  0
LINE
  5
2B5
330
1E
100
AcDbEntity
  8
0
100
AcDbLine
 10
15.4
 20
77.22599999999999
 30
0.0
 11
15.0
 21
78.32600000000001
 31
0.0
  0
LINE
  5
2B6
330
1E
100
AcDbEntity
  8
0
100
AcDbLine
 10
198.4869999999999
 20
76.0932
 30
0.0
 11
204.5999999999999
 21
77.22599999999999
 31
0.0
  0
LINE
  5
2B7
330
1E
100
AcDbEntity
  8
0
100
AcDbLine
 10
204.5999999999999
 20
77.22599999999999
 30
0.0
 11
205.0
 21
78.32600000000001
 31
0.0
  0
LINE
  5
2B8
330
1E
100
AcDbEntity
  8
0
100
AcDbLine
 10
128.0
 20
185.3209999999999
 30
0.0
 11
128.4999999999999
 21
130.2259999999999
 31
0.0
  0
ENDSEC
  0
SECTION
  2
OBJECTS
  0
DICTIONARY
  5
C
330
0
100
AcDbDictionary
281
     1
  3
ACAD_GROUP
350
D
  3
ACAD_LAYOUT
350
19
  3
ACAD_MLINESTYLE
350
16
  3
ACAD_PLOTSETTINGS
350
18
  3
ACAD_PLOTSTYLENAME
350
E
  3
AcDbVariableDictionary
350
2B9
  0
DICTIONARY
  5
D
102
{ACAD_REACTORS
330
C
102
}
330
C
100
AcDbDictionary
281
     1
  0
DICTIONARY
  5
19
102
{ACAD_REACTORS
330
C
102
}
330
C
100
AcDbDictionary
281
     1
  3
Layout1
350
1D
  3
Model
350
21
  0
DICTIONARY
  5
16
102
{ACAD_REACTORS
330
C
102
}
330
C
100
AcDbDictionary
281
     1
  3
Standard
350
17
  0
DICTIONARY
  5
18
102
{ACAD_REACTORS
330
C
102
}
330
C
100
AcDbDictionary
281
     1
  0
ACDBDICTIONARYWDFLT
  5
E
102
{ACAD_REACTORS
330
C
102
}
330
C
100
AcDbDictionary
281
     1
  3
Normal
350
F
100
AcDbDictionaryWithDefault
340
F
  0
DICTIONARY
  5
2B9
102
{ACAD_REACTORS
330
C
102
}
330
C
100
AcDbDictionary
281
     1
  3
DIMASSOC
350
2BA
  0
LAYOUT
  5
1D
102
{ACAD_REACTORS
330
19
102
}
330
19
100
AcDbPlotSettings
  1

  2
hp deskjet 980c series
  4

  6

 40
0.0
 41
0.0
 42
0.0
 43
0.0
 44
0.0
 45
0.0
 46
0.0
 47
0.0
 48
0.0
 49
0.0
140
0.0
141
0.0
142
1.0
143
1.0
 70
   688
 72
     0
 73
     0
 74
     5
  7

 75
    16
147
1.0
148
0.0
149
0.0
100
AcDbLayout
  1
Layout1
 70
     1
 71
     1
 10
0.0
 20
0.0
 11
12.0
 21
9.0
 12
0.0
 22
0.0
 32
0.0
 14
1.000000000000000E+20
 24
1.000000000000000E+20
 34
1.000000000000000E+20
 15
-1.000000000000000E+20
 25
-1.000000000000000E+20
 35
-1.000000000000000E+20
146
0.0
 13
0.0
 23
0.0
 33
0.0
 16
1.0
 26
0.0
 36
0.0
 17
0.0
 27
1.0
 37
0.0
 76
     0
330
1A
  0
LAYOUT
  5
21
102
{ACAD_REACTORS
330
19
102
}
330
19
100
AcDbPlotSettings
  1

  2
hp deskjet 980c series
  4

  6

 40
0.0
 41
0.0
 42
0.0
 43
0.0
 44
0.0
 45
0.0
 46
0.0
 47
0.0
 48
0.0
 49
0.0
140
0.0
141
0.0
142
1.0
143
1.0
 70
  1712
 72
     0
 73
     0
 74
     0
  7

 75
     0
147
1.0
148
0.0
149
0.0
100
AcDbLayout
  1
Model
 70
     1
 71
     0
 10
0.0
 20
0.0
 11
12.0
 21
9.0
 12
0.0
 22
0.0
 32
0.0
 14
0.0
 24
0.0
 34
0.0
 15
0.0
 25
0.0
 35
0.0
146
0.0
 13
0.0
 23
0.0
 33
0.0
 16
1.0
 26
0.0
 36
0.0
 17
0.0
 27
1.0
 37
0.0
 76
     0
330
1E
  0
MLINESTYLE
  5
17
102
{ACAD_REACTORS
330
16
102
}
330
16
100
AcDbMlineStyle
  2
STANDARD
 70
     0
  3

 62
   256
 51
90.0
 52
90.0
 71
     2
 49
0.5
 62
   256
  6
BYLAYER
 49
-0.5
 62
   256
  6
BYLAYER
  0
ACDBPLACEHOLDER
  5
F
102
{ACAD_REACTORS
330
E
102
}
330
E
  0
DICTIONARYVAR
  5
2BA
102
{ACAD_REACTORS
330
2B9
102
}
330
2B9
100
DictionaryVariables
280
     0
  1
1
  0
ENDSEC
  0
EOF
