  0
SECTION
  2
HEADER
  9
$ACADVER
  1
AC1009
  9
$INSBASE
 10
0.0
 20
0.0
 30
0.0
  9
$EXTMIN
 10
-0.0003916416323548
 20
-0.0009463593724099
 30
-0.0000000000112498
  9
$EXTMAX
 10
20.00015821769496
 20
14.000370560684789
 30
0.0000000000002956
  9
$LIMMIN
 10
0.0
 20
0.0
  9
$LIMMAX
 10
10.0
 20
7.0
  9
$ORTHOMODE
 70
     1
  9
$REGENMODE
 70
     1
  9
$FILLMODE
 70
     1
  9
$QTEXTMODE
 70
     0
  9
$MIRRTEXT
 70
     1
  9
$DRAGMODE
 70
     2
  9
$LTSCALE
 40
1.0
  9
$OSMODE
 70
    37
  9
$ATTMODE
 70
     1
  9
$TEXTSIZE
 40
0.0021111515439181
  9
$TRACEWID
 40
0.05
  9
$TEXTSTYLE
  7
STANDARD
  9
$CLAYER
  8
0
  9
$CELTYPE
  6
BYLAYER
  9
$CECOLOR
 62
   256
  9
$DIMSCALE
 40
2.0
  9
$DIMASZ
 40
0.125
  9
$DIMEXO
 40
0.125
  9
$DIMDLI
 40
0.125
  9
$DIMRND
 40
0.0
  9
$DIMDLE
 40
0.0
  9
$DIMEXE
 40
0.03125
  9
$DIMTP
 40
0.1
  9
$DIMTM
 40
0.0
  9
$DIMTXT
 40
0.125
  9
$DIMCEN
 40
0.0
  9
$DIMTSZ
 40
0.0
  9
$DIMTOL
 70
     0
  9
$DIMLIM
 70
     0
  9
$DIMTIH
 70
     0
  9
$DIMTOH
 70
     0
  9
$DIMSE1
 70
     0
  9
$DIMSE2
 70
     0
  9
$DIMTAD
 70
     1
  9
$DIMZIN
 70
     8
  9
$DIMBLK
  1

  9
$DIMASO
 70
     1
  9
$DIMSHO
 70
     1
  9
$DIMPOST
  1

  9
$DIMAPOST
  1
"
  9
$DIMALT
 70
     0
  9
$DIMALTD
 70
     2
  9
$DIMALTF
 40
0.0394
  9
$DIMLFAC
 40
1.0
  9
$DIMTOFL
 70
     0
  9
$DIMTVP
 40
0.0
  9
$DIMTIX
 70
     0
  9
$DIMSOXD
 70
     0
  9
$DIMSAH
 70
     0
  9
$DIMBLK1
  1

  9
$DIMBLK2
  1

  9
$DIMSTYLE
  2
DP
  9
$DIMCLRD
 70
   256
  9
$DIMCLRE
 70
   256
  9
$DIMCLRT
 70
   256
  9
$DIMTFAC
 40
1.0
  9
$DIMGAP
 40
0.0625
  9
$LUNITS
 70
     2
  9
$LUPREC
 70
     8
  9
$SKETCHINC
 40
0.1
  9
$FILLETRAD
 40
3.174999999999998
  9
$AUNITS
 70
     0
  9
$AUPREC
 70
     7
  9
$MENU
  1
.
  9
$ELEVATION
 40
0.0
  9
$PELEVATION
 40
0.0
  9
$THICKNESS
 40
0.0
  9
$LIMCHECK
 70
     0
  9
$BLIPMODE
 70
     0
  9
$CHAMFERA
 40
0.0
  9
$CHAMFERB
 40
0.0
  9
$SKPOLY
 70
     0
  9
$TDCREATE
 40
2451702.3512457171
  9
$TDUPDATE
 40
2453052.5688582398
  9
$TDINDWG
 40
3.2843892708000002
  9
$TDUSRTIMER
 40
3.2843887384000001
  9
$USRTIMER
 70
     1
  9
$ANGBASE
 50
0.0
  9
$ANGDIR
 70
     0
  9
$PDMODE
 70
     0
  9
$PDSIZE
 40
0.0
  9
$PLINEWID
 40
0.0
  9
$COORDS
 70
     2
  9
$SPLFRAME
 70
     0
  9
$SPLINETYPE
 70
     6
  9
$SPLINESEGS
 70
     8
  9
$ATTDIA
 70
     0
  9
$ATTREQ
 70
     1
  9
$HANDLING
 70
 22529
  9
$HANDSEED
  5
AA0B
  9
$SURFTAB1
 70
     6
  9
$SURFTAB2
 70
     6
  9
$SURFTYPE
 70
     6
  9
$SURFU
 70
     6
  9
$SURFV
 70
     6
  9
$UCSNAME
  2

  9
$UCSORG
 10
0.0
 20
0.0
 30
0.0
  9
$UCSXDIR
 10
1.0
 20
0.0
 30
0.0
  9
$UCSYDIR
 10
0.0
 20
1.0
 30
0.0
  9
$PUCSNAME
  2

  9
$PUCSORG
 10
0.0
 20
0.0
 30
0.0
  9
$PUCSXDIR
 10
1.0
 20
0.0
 30
0.0
  9
$PUCSYDIR
 10
0.0
 20
1.0
 30
0.0
  9
$USERI1
 70
     0
  9
$USERI2
 70
     0
  9
$USERI3
 70
     0
  9
$USERI4
 70
     0
  9
$USERI5
 70
     0
  9
$USERR1
 40
0.0
  9
$USERR2
 40
0.0
  9
$USERR3
 40
0.0
  9
$USERR4
 40
0.0
  9
$USERR5
 40
0.0
  9
$WORLDVIEW
 70
     1
  9
$SHADEDGE
 70
     3
  9
$SHADEDIF
 70
    70
  9
$TILEMODE
 70
     1
  9
$MAXACTVP
 70
    48
  9
$PLIMCHECK
 70
     0
  9
$PEXTMIN
 10
0.0
 20
0.0
 30
0.0
  9
$PEXTMAX
 10
0.0
 20
0.0
 30
0.0
  9
$PLIMMIN
 10
0.0
 20
0.0
  9
$PLIMMAX
 10
12.0
 20
9.0
  9
$UNITMODE
 70
     0
  9
$VISRETAIN
 70
     1
  9
$PLINEGEN
 70
     0
  9
$PSLTSCALE
 70
     1
  0
ENDSEC
  0
SECTION
  2
TABLES
  0
TABLE
  2
VPORT
 70
     2
  0
VPORT
  2
*ACTIVE
 70
     0
 10
0.0
 20
0.0
 11
1.0
 21
1.0
 12
9.9998832880313042
 22
6.9997121006561906
 13
0.0
 23
0.0
 14
1.0
 24
1.0
 15
0.0
 25
0.0
 16
0.0
 26
0.0
 36
1.0
 17
0.0
 27
0.0
 37
0.0
 40
14.17346425923823
 41
1.546201232032854
 42
50.0
 43
0.0
 44
0.0
 50
0.0
 51
0.0
 71
     0
 72
 20000
 73
     1
 74
     0
 75
     0
 76
     0
 77
     0
 78
     0
  0
ENDTAB
  0
TABLE
  2
LTYPE
 70
     1
  0
LTYPE
  2
CONTINUOUS
 70
     0
  3
Solid line
 72
    65
 73
     0
 40
0.0
  0
ENDTAB
  0
TABLE
  2
LAYER
 70
     2
  0
LAYER
  2
0
 70
     0
 62
     7
  6
CONTINUOUS
  0
LAYER
  2
DEFPOINTS
 70
     0
 62
     7
  6
CONTINUOUS
  0
ENDTAB
  0
TABLE
  2
STYLE
 70
     2
  0
STYLE
  2
STANDARD
 70
     0
 40
0.0
 41
1.0
 50
0.0
 71
     0
 42
0.0021111515439181
  3
simplex.shx
  4

  0
STYLE
  2
COSTAND
 70
     0
 40
0.0
 41
1.0
 50
0.0
 71
     0
 42
3.0
  3
R:\WIP\SD\FONTS\Simplex.shx
  4

  0
ENDTAB
  0
TABLE
  2
VIEW
 70
     0
  0
ENDTAB
  0
TABLE
  2
UCS
 70
     0
  0
ENDTAB
  0
TABLE
  2
APPID
 70
     1
  0
APPID
  2
ACAD
 70
     0
  0
ENDTAB
  0
TABLE
  2
DIMSTYLE
 70
     1
  0
DIMSTYLE
  2
DP
 70
     0
  3

  4
"
  5

  6

  7

 40
2.0
 41
0.125
 42
0.125
 43
0.125
 44
0.03125
 45
0.0
 46
0.0
 47
0.1
 48
0.0
140
0.125
141
0.0
142
0.0
143
0.0394
144
1.0
145
0.0
146
1.0
147
0.0625
 71
     0
 72
     0
 73
     0
 74
     0
 75
     0
 76
     0
 77
     1
 78
     8
170
     0
171
     2
172
     0
173
     0
174
     0
175
     0
176
   256
177
   256
178
   256
  0
ENDTAB
  0
ENDSEC
  0
SECTION
  2
BLOCKS
  0
BLOCK
  8
0
  2
$MODEL_SPACE
 70
     0
 10
0.0
 20
0.0
 30
0.0
  3
$MODEL_SPACE
  1

  0
ENDBLK
  5
A218
  8
0
  0
BLOCK
 67
     1
  8
0
  2
$PAPER_SPACE
 70
     0
 10
0.0
 20
0.0
 30
0.0
  3
$PAPER_SPACE
  1

  0
ENDBLK
  5
A214
 67
     1
  8
0
  0
ENDSEC
  0
SECTION
  2
ENTITIES
  0
TEXT
  5
A226
  8
0
 10
1172.507321116894
 20
-374.4400440153197
 30
599.8012402584792
 40
3.0
  1
 
  7
COSTAND
210
0.577350269189626
220
-0.577350269189626
230
0.577350269189626
  0
TEXT
  5
A227
  8
0
 10
772.73448984001482
 20
-161.4431119421578
 30
-439.3012875610508
 40
3.0
  1
 
  7
COSTAND
210
-0.0000000000000004
220
-1.0
230
0.0000000000000002
  0
TEXT
  5
A228
  8
0
 10
494.82450660688812
 20
-52.690634976270552
 30
719.03518200794144
 40
3.0
  1
 
  7
COSTAND
210
1.0
220
-0.0000000000000007
230
0.0
  0
LINE
  5
A229
  8
0
 10
0.0
 20
14.0
 30
0.0
 11
0.0
 21
0.0
 31
0.0
  0
LINE
  5
A22A
  8
0
 10
0.0
 20
0.0
 30
0.0
 11
20.0
 21
0.0
 31
0.0
  0
LINE
  5
A22B
  8
0
 10
20.0
 20
0.0
 30
0.0
 11
20.0
 21
14.0
 31
0.0
  0
LINE
  5
A22C
  8
0
 10
20.0
 20
14.0
 30
0.0
 11
0.0
 21
14.0
 31
0.0
  0
TEXT
  5
A22D
  8
0
 10
17.65852052668437
 20
7.7688156906813202
 30
0.0
 40
0.125
  1
3006
 72
     4
 11
17.875782431446272
 21
7.8313156906813202
 31
0.0
  0
TEXT
  5
A22E
  8
0
 10
20.733378968077311
 20
582.74109584933205
 30
0.0
 40
0.125
  1

  0
TEXT
  5
A22F
  8
0
 10
20.733378968077311
 20
582.5268101350465
 30
0.0
 40
0.125
  1

  0
TEXT
  5
A230
  8
0
 10
20.733378968077311
 20
582.31252442076072
 30
0.0
 40
0.125
  1

  0
TEXT
  5
A231
  8
0
 10
20.733378968077311
 20
582.09823870647506
 30
0.0
 40
0.125
  1

  0
TEXT
  5
A232
  8
0
 10
18.840456169180879
 20
13.634410483437019
 30
0.0
 40
0.25
  1
15215
 72
     2
 11
19.864265692990401
 21
13.634410483437019
 31
0.0
  0
TEXT
  5
A233
  8
0
 10
17.37617045489516
 20
13.134410483437019
 30
0.0
 40
0.25
  1
SIENA FRIEZE
 72
     2
 11
19.864265692990401
 21
13.134410483437019
 31
0.0
  0
TEXT
  5
A234
  8
0
 10
18.56664664537135
 20
12.634410483437
 30
0.0
 40
0.25
  1
040216
 72
     2
 11
19.864265692990401
 21
12.634410483437
 31
0.0
  0
LINE
  5
A235
  8
0
 10
20.0
 20
13.5
 30
0.0
 11
17.216810063743889
 21
13.499999999999771
 31
0.0
  0
LINE
  5
A236
  8
0
 10
20.0
 20
13.0
 30
0.0
 11
17.216810063743889
 21
12.999999999999771
 31
0.0
  0
LINE
  5
A237
  8
0
 10
20.0
 20
12.5
 30
0.0
 11
17.216810063743889
 21
12.499999999999771
 31
0.0
  0
TEXT
  5
A238
  8
0
 10
15.83405763406663
 20
8.3880105899688662
 30
0.0
 40
0.125
  1
A R C H I T E C T U R A L  P R O D U C T S
 41
0.85
 72
     1
 11
17.885694538828542
 21
8.4505105899688662
 31
0.0
 73
     2
  0
TEXT
  5
A239
  8
0
 10
19.803494300356661
 20
8.6812642898796035
 30
0.0
 40
0.031251
  1
R
 72
     1
 11
19.813911300356668
 21
8.696889789879604
 31
0.0
 73
     2
  0
CIRCLE
  5
A23A
  8
0
 10
19.813911300356668
 20
8.696889789879604
 30
0.0
 40
0.03125
  0
TEXT
  5
A23B
  8
0
 10
21.664405340269479
 20
582.88423560730655
 30
0.0
 40
0.0625
  1

 72
     1
 11
21.664405340269479
 21
582.91548560730655
 31
0.0
 73
     2
  0
LINE
  5
A23C
  8
0
 10
17.216810063743889
 20
12.499999999999771
 30
0.0
 11
17.216810063743889
 21
14.0
 31
0.0
  0
TEXT
  5
A23D
  8
0
 10
20.733378968077311
 20
582.99109584933205
 30
0.0
 40
0.125
  1

  0
LINE
  5
A23E
  8
0
 10
0.0
 20
0.5
 30
0.0
 11
20.0
 21
0.5
 31
0.0
  0
TEXT
  5
A23F
  8
0
 10
2.1349349855820181
 20
0.1180168039913952
 30
0.0
 40
0.25
  1
PRINT BORDER SIZE 7" x 10"  TO ACHIEVE PROPER SCALE
 72
     1
 11
7.8730302236772562
 21
0.1180168039913952
 31
0.0
  0
TEXT
  5
A240
  8
0
 10
12.83537682998336
 20
580.62451063991034
 30
0.0
 40
0.125
  1

  0
TEXT
  5
A241
  8
0
 10
20.733378968077311
 20
583.24109584933205
 30
0.0
 40
0.125
  1

  0
TEXT
  5
A242
  8
0
 10
0.102583632072637
 20
13.58897699062913
 30
0.0
 40
0.125
  1
belonging to Nomaco/Focal Point and may not be reproduced nor
  0
TEXT
  5
A243
  8
0
 10
0.102583632072637
 20
13.407792607428959
 30
0.0
 40
0.125
  1
made accessible to third parties without our prior written consent.
  0
TEXT
  5
A244
  8
0
 10
0.102583632072637
 20
13.77016137382927
 30
0.0
 40
0.125
  1
This document contains confidential and proprietary information
  0
LINE
  5
A245
  8
0
 10
0.0
 20
1.0
 30
0.0
 11
18.480090747970031
 21
1.0
 31
0.0
  0
TEXT
  5
A246
  8
0
 10
3.1537193934426848
 20
0.6180168039913953
 30
0.0
 40
0.25
  1
ENGINEERING DRAWING AND DIGITAL DATA IN FRACTIONAL (U.S.) UNITS
 72
     1
 11
10.00490986963316
 21
0.6180168039913953
 31
0.0
  0
LINE
  5
A247
  8
0
 10
15.75
 20
1.0625
 30
0.0
 11
15.75
 21
4.0625
 31
0.0
  0
LINE
  5
A248
  8
0
 10
15.75
 20
1.5625
 30
0.0
 11
20.0
 21
1.5625
 31
0.0
  0
LINE
  5
A249
  8
0
 10
15.75
 20
2.0625
 30
0.0
 11
20.0
 21
2.0625
 31
0.0
  0
LINE
  5
A24A
  8
0
 10
15.75
 20
2.5625
 30
0.0
 11
20.0
 21
2.5625
 31
0.0
  0
TEXT
  5
A24B
  8
0
 10
15.838530260272
 20
1.180516803991394
 30
0.0
 40
0.25
  1
BLADE ANGLE
  0
TEXT
  5
A24C
  8
0
 10
15.838530260272
 20
1.680516803991394
 30
0.0
 40
0.25
  1
TABLE ANGLE
  0
TEXT
  5
A24D
  8
0
 10
16.256798589988861
 20
2.180516803991392
 30
0.0
 40
0.25
  1
MITER SAW DATA
 72
     1
 11
17.869893828084098
 21
2.180516803991392
 31
0.0
  0
TEXT
  5
A24E
  8
0
 10
15.838530260272
 20
2.680516803991392
 30
0.0
 40
0.25
  1
REPEAT:  N/A
  0
LINE
  5
A24F
  8
0
 10
15.75
 20
3.0625
 30
0.0
 11
20.0
 21
3.0625
 31
0.0
  0
LINE
  5
A250
  8
0
 10
15.75
 20
3.5625
 30
0.0
 11
20.0
 21
3.5625
 31
0.0
  0
TEXT
  5
A251
  8
0
 10
15.838530260272
 20
3.180516803991392
 30
0.0
 40
0.25
  1
LENGTH:  92 1/4"
  0
TEXT
  5
A252
  8
0
 10
16.429417637607909
 20
3.680516803991392
 30
0.0
 40
0.25
  1
PRODUCT DATA
 72
     1
 11
17.869893828084098
 21
3.680516803991392
 31
0.0
  0
LINE
  5
A253
  8
0
 10
15.75
 20
4.0625
 30
0.0
 11
20.0
 21
4.0625
 31
0.0
  0
LINE
  5
A254
  8
0
 10
15.75
 20
4.0
 30
0.0
 11
20.0
 21
4.0
 31
0.0
  0
LINE
  5
A255
  8
0
 10
15.75
 20
3.625
 30
0.0
 11
20.0
 21
3.625
 31
0.0
  0
LINE
  5
A256
  8
0
 10
15.75
 20
2.5
 30
0.0
 11
20.0
 21
2.5
 31
0.0
  0
LINE
  5
A257
  8
0
 10
15.75
 20
2.125
 30
0.0
 11
20.0
 21
2.125
 31
0.0
  0
TEXT
  5
A258
  8
0
 10
18.801281823361101
 20
1.180516803991394
 30
0.0
 40
0.25
  1
45.0%%D
 72
     1
 11
19.241758013837291
 21
1.180516803991394
 31
0.0
  0
TEXT
  5
A259
  8
0
 10
18.920329442408711
 20
1.680516803991394
 30
0.0
 40
0.25
  1
0.0%%d
 72
     1
 11
19.241758013837291
 21
1.680516803991394
 31
0.0
  0
LINE
  5
A25A
  8
0
 10
18.480090747970031
 20
1.0624999999997711
 30
0.0
 11
18.480090747970031
 21
2.0625
 31
0.0
  0
LINE
  5
A25B
  8
0
 10
18.480090747970031
 20
1.0
 30
0.0
 11
20.0
 21
1.0
 31
0.0
  0
LINE
  5
A25C
  8
0
 10
15.75
 20
0.4999999999997728
 30
0.0
 11
15.75
 21
-0.0000000000002274
 31
0.0
  0
LINE
  5
A25D
  8
0
 10
18.480090747970031
 20
0.5
 30
0.0
 11
18.480090747970031
 21
-0.0000000000002274
 31
0.0
  0
TEXT
  5
A25E
  8
0
 10
15.838530260272
 20
0.1180168039913952
 30
0.0
 40
0.25
  1
SCALE
  0
TEXT
  5
A25F
  8
0
 10
18.933039732824291
 20
0.1180168039913952
 30
0.0
 40
0.25
  1
1/2
 72
     1
 11
19.242563542348108
 21
0.1180168039913952
 31
0.0
  0
ARC
  5
A260
  8
0
 10
-18.30811782116616
 20
9.0820169566636562
 30
0.0
 40
0.45789943381389
210
0.0
220
0.0
230
-1.0
 50
150.0285049999984
 51
161.08358500000091
  0
ARC
  5
A261
  8
0
 10
-18.250975362531008
 20
9.0346466444184408
 30
0.0
 40
0.5164129621391586
210
0.0
220
0.0
230
-1.0
 50
184.7396419999973
 51
206.15299100000109
  0
ARC
  5
A262
  8
0
 10
-17.970993325586772
 20
10.573062522114681
 30
0.0
 40
0.2593024635288828
210
0.0
220
0.0
230
-1.0
 50
15.95685699999988
 51
35.77585599999761
  0
ARC
  5
A263
  8
0
 10
-17.815372549293599
 20
10.63583189733342
 30
0.0
 40
0.0431566745030726
210
0.0
220
0.0
230
-1.0
 50
111.5014340000002
 51
139.5739210000001
  0
ARC
  5
A264
  8
0
 10
17.743254574690631
 20
10.605385999479941
 30
0.0
 40
0.229441671848837
 50
12.25384300000144
 51
41.937262000001851
  0
ARC
  5
A265
  8
0
 10
17.386412138005159
 20
10.799985351141
 30
0.0
 40
0.3165043166631968
 50
321.09161298227582
 51
342.10924395059959
  0
LINE
  5
A266
  8
0
 10
15.92104764797082
 20
9.4713832828033446
 30
0.0
 11
16.149799418510622
 21
9.4713832828033446
 31
0.0
  0
LINE
  5
A267
  8
0
 10
15.98675274247328
 20
9.4446139476221944
 30
0.0
 11
16.123031538817319
 21
9.4446139476221944
 31
0.0
  0
LINE
  5
A268
  8
0
 10
15.98675274247328
 20
9.0406461659290382
 30
0.0
 11
16.109472212667431
 21
9.0406461659290382
 31
0.0
  0
LINE
  5
A269
  8
0
 10
15.98675274247328
 20
9.069849077035764
 30
0.0
 11
16.101129355487181
 21
9.069849077035764
 31
0.0
  0
LINE
  5
A26A
  8
0
 10
15.98675274247328
 20
9.4446139476221944
 30
0.0
 11
15.98675274247328
 21
9.069849077035764
 31
0.0
  0
LINE
  5
A26B
  8
0
 10
15.935649103524259
 20
9.430012492068494
 30
0.0
 11
15.935649103524259
 21
8.709685662002812
 31
0.0
  0
LINE
  5
A26C
  8
0
 10
15.98675274247328
 20
9.0406461659290382
 30
0.0
 11
15.98675274247328
 21
8.7124234349193923
 31
0.0
  0
ARC
  5
A26D
  8
0
 10
16.064017322622181
 20
8.7124234349193923
 30
0.0
 40
0.0772936899087948
 50
180.0
 51
214.79552800000249
  0
ARC
  5
A26E
  8
0
 10
15.84056643935569
 20
8.7180285191832301
 30
0.0
 40
0.0954465361670094
 50
328.61068700000237
 51
354.98506300000213
  0
LINE
  5
A26F
  8
0
 10
16.000544946702171
 20
8.6683148712684162
 30
0.0
 11
15.92204465724655
 21
8.6683148712684162
 31
0.0
  0
ARC
  5
A270
  8
0
 10
-15.726668681891731
 20
9.37951724710069
 30
0.0
 40
0.2149944980227434
210
0.0
220
0.0
230
-1.0
 50
154.7039520000001
 51
166.4159789999984
  0
ARC
  5
A271
  8
0
 10
17.33926947961378
 20
10.39261136002732
 30
0.0
 40
0.0386595967369562
 50
303.58637854013671
 51
343.84355974110872
  0
ARC
  5
A272
  8
0
 10
17.36287470264752
 20
10.403154044941621
 30
0.0
 40
0.05818676756424
 50
251.50885560391629
 51
313.31489517703852
  0
ARC
  5
A273
  8
0
 10
17.359084340688781
 20
9.7220372366730263
 30
0.0
 40
0.2975294001970794
 50
74.827085000000451
 51
93.780599201570212
  0
ARC
  5
A274
  8
0
 10
-17.427223011116808
 20
9.9434897349242402
 30
0.0
 40
0.0881807401021434
210
0.0
220
0.0
230
-1.0
 50
297.97947399999953
 51
324.74037614796919
  0
ARC
  5
A275
  8
0
 10
-17.380985068530968
 20
9.8345886677429881
 30
0.0
 40
0.129494766805112
210
0.0
220
0.0
230
-1.0
 50
72.501451999999674
 51
97.559066999999729
  0
ARC
  5
A276
  8
0
 10
17.244170652605192
 20
10.42993274378361
 30
0.0
 40
0.6904776822892869
 50
276.53313499999939
 51
284.3418149999996
  0
ARC
  5
A277
  8
0
 10
17.966657426853342
 20
10.88689193235359
 30
0.0
 40
0.8769941022260598
 50
222.97599100000181
 51
234.03107199999849
  0
ARC
  5
A278
  8
0
 10
17.319402888941472
 20
10.388653747856081
 30
0.0
 40
0.0898708313849426
 50
270.47448234597562
 51
334.2733758010491
  0
LINE
  5
A279
  8
0
 10
17.397280712109119
 20
8.9773746473520024
 30
0.0
 11
17.326835093210981
 21
9.263557063149614
 31
0.0
  0
LINE
  5
A27A
  8
0
 10
17.254034494738931
 20
8.9773746473520024
 30
0.0
 11
17.397280712109119
 21
8.9773746473520024
 31
0.0
  0
LINE
  5
A27B
  8
0
 10
17.247225721904119
 20
8.9506053121706337
 30
0.0
 11
17.403869706256899
 21
8.9506053121706337
 31
0.0
  0
LINE
  5
A27C
  8
0
 10
17.33479515704888
 20
9.4567818272496424
 30
0.0
 11
17.522177592341951
 21
8.7048185101521032
 31
0.0
  0
ARC
  5
A27D
  8
0
 10
-16.07431344469008
 20
9.0558560154636325
 30
0.0
 40
0.6036287137014368
210
0.0
220
0.0
230
-1.0
 50
171.01236299999761
 51
178.90273499999901
  0
ARC
  5
A27E
  8
0
 10
-15.93742770985264
 20
9.056464409445196
 30
0.0
 40
0.6873411056627271
210
0.0
220
0.0
230
-1.0
 50
170.11247000000279
 51
182.13048099999759
  0
ARC
  5
A27F
  8
0
 10
-16.751243444733412
 20
9.0824230378141255
 30
0.0
 40
0.5174128823908736
210
0.0
220
0.0
230
-1.0
 50
3.7304230000010872
 51
18.889442000000461
  0
ARC
  5
A280
  8
0
 10
-16.667945866850349
 20
9.075324622868262
 30
0.0
 40
0.4872770034800065
210
0.0
220
0.0
230
-1.0
 50
6.5238629999969824
 51
20.99770699999857
  0
ARC
  5
A281
  8
0
 10
-16.438744350520491
 20
8.8561266755195902
 30
0.0
 40
0.201708803615673
210
0.0
220
0.0
230
-1.0
 50
281.66125999999957
 51
328.60712600000028
  0
ARC
  5
A282
  8
0
 10
-16.432356213715838
 20
8.8285146127898262
 30
0.0
 40
0.1437934808558416
210
0.0
220
0.0
230
-1.0
 50
281.84460100000052
 51
326.2472740000004
  0
ARC
  5
A283
  8
0
 10
-16.590700208045352
 20
8.9897011751713762
 30
0.0
 40
0.4025122936992254
210
0.0
220
0.0
230
-1.0
 50
323.63766500000168
 51
347.05053800000201
  0
ARC
  5
A284
  8
0
 10
-16.64183004577826
 20
8.9791634420964765
 30
0.0
 40
0.4017583509184561
210
0.0
220
0.0
230
-1.0
 50
324.9820570000021
 51
349.27061299999809
  0
LINE
  5
A285
  8
0
 10
16.132765842519611
 20
9.0941848362915607
 30
0.0
 11
16.132765842519611
 21
9.0195052028195661
 31
0.0
  0
ARC
  5
A286
  8
0
 10
-16.109472212667431
 20
9.0172448299651862
 30
0.0
 40
0.0234013359637248
210
0.0
220
0.0
230
-1.0
 50
90.0
 51
174.45879500000001
  0
ARC
  5
A287
  8
0
 10
-16.101129355487181
 20
9.1027023520309722
 30
0.0
 40
0.0327630347396096
210
0.0
220
0.0
230
-1.0
 50
195.06848800000279
 51
270.0
  0
ARC
  5
A288
  8
0
 10
-16.827495005238681
 20
9.0540308335196151
 30
0.0
 40
0.648219043878366
210
0.0
220
0.0
230
-1.0
 50
355.37033100000082
 51
6.7915170000004892
  0
LINE
  5
A289
  8
0
 10
16.244662303992111
 20
8.9165367047007695
 30
0.0
 11
16.245390047989009
 21
8.9124642492943167
 31
0.0
  0
LINE
  5
A28A
  8
0
 10
16.245390047989009
 20
8.9124642492943167
 30
0.0
 11
16.246325926769
 21
8.9084325475514561
 31
0.0
  0
LINE
  5
A28B
  8
0
 10
16.246325926769
 20
8.9084325475514561
 30
0.0
 11
16.247095879917708
 21
8.9043688250728756
 31
0.0
  0
ARC
  5
A28C
  8
0
 10
-17.013052258587571
 20
9.0540308335196151
 30
0.0
 40
0.7805942214231352
210
0.0
220
0.0
230
-1.0
 50
349.85491799999681
 51
4.559676999999855
  0
ARC
  5
A28D
  8
0
 10
-16.845502302697511
 20
9.0598717068382904
 30
0.0
 40
0.6666542548073707
210
0.0
220
0.0
230
-1.0
 50
346.0804279999968
 51
354.99492799999939
  0
ARC
  5
A28E
  8
0
 10
-16.158495959273338
 20
8.9971139755234582
 30
0.0
 40
0.4607303579617594
210
0.0
220
0.0
230
-1.0
 50
190.07226000000131
 51
209.11230400000079
  0
ARC
  5
A28F
  8
0
 10
-16.160750510175689
 20
9.0346466444184408
 30
0.0
 40
0.5164129621391586
210
0.0
220
0.0
230
-1.0
 50
184.7396419999973
 51
206.15299100000109
  0
ARC
  5
A290
  8
0
 10
-16.41135934391783
 20
8.8471797908216541
 30
0.0
 40
0.1670565454601588
210
0.0
220
0.0
230
-1.0
 50
206.37842099999841
 51
243.62157900000099
  0
ARC
  5
A291
  8
0
 10
-16.427426475880981
 20
8.8352302343930642
 30
0.0
 40
0.1798590178533
210
0.0
220
0.0
230
-1.0
 50
226.4760059999989
 51
259.16177100000021
  0
ARC
  5
A292
  8
0
 10
-16.429611163359599
 20
8.8435294269334008
 30
0.0
 40
0.1876356902039766
210
0.0
220
0.0
230
-1.0
 50
260.29334799999953
 51
279.70665200000002
  0
ARC
  5
A293
  8
0
 10
-16.429611163359599
 20
8.8167615472402741
 30
0.0
 40
0.1317260298995508
210
0.0
220
0.0
230
-1.0
 50
244.85521399999951
 51
281.72511200000019
  0
ARC
  5
A294
  8
0
 10
-16.310975792475968
 20
8.9536472820775543
 30
0.0
 40
0.3459272869656934
210
0.0
220
0.0
230
-1.0
 50
205.07776900000059
 51
225.9975869999983
  0
ARC
  5
A295
  8
0
 10
-16.035377685368928
 20
9.0503804696313601
 30
0.0
 40
0.6426794565741034
210
0.0
220
0.0
230
-1.0
 50
178.48115000000081
 51
185.21407099999681
  0
ARC
  5
A296
  8
0
 10
-15.9186519147331
 20
9.0481448400726041
 30
0.0
 40
0.7058520019674078
210
0.0
220
0.0
230
-1.0
 50
181.39897300000311
 51
190.7459399999986
  0
ARC
  5
A297
  8
0
 10
-16.514905670770101
 20
9.1813045256460502
 30
0.0
 40
0.2623444334358478
210
0.0
220
0.0
230
-1.0
 50
15.164220999999531
 51
52.215913999998691
  0
ARC
  5
A298
  8
0
 10
-16.457840352998659
 20
9.2119672912108381
 30
0.0
 40
0.233738272406426
210
0.0
220
0.0
230
-1.0
 50
36.106316999998938
 51
68.885398000000023
  0
ARC
  5
A299
  8
0
 10
-16.590224263471381
 20
9.1039191399936481
 30
0.0
 40
0.4044728360268242
210
0.0
220
0.0
230
-1.0
 50
21.161260000002532
 51
37.421465000000516
  0
ARC
  5
A29A
  8
0
 10
-16.113701860777301
 20
9.4085163898887441
 30
0.0
 40
0.0372837804482382
210
0.0
220
0.0
230
-1.0
 50
104.4897629999991
 51
165.5102369999986
  0
LINE
  5
A29B
  8
0
 10
16.149799418510622
 20
9.4713832828033446
 30
0.0
 11
16.149799418510622
 21
9.4178446124405983
 31
0.0
  0
ARC
  5
A29C
  8
0
 10
-16.420281485319592
 20
9.2868390490980328
 30
0.0
 40
0.121386243191857
210
0.0
220
0.0
230
-1.0
 50
57.000210000000273
 51
78.239519999999928
  0
ARC
  5
A29D
  8
0
 10
-16.42930696636893
 20
9.2736581498263604
 30
0.0
 40
0.135277420604333
210
0.0
220
0.0
230
-1.0
 50
96.325964000000056
 51
130.53142199999971
  0
ARC
  5
A29E
  8
0
 10
-16.415837880474651
 20
9.2363656364502642
 30
0.0
 40
0.2036416916713906
210
0.0
220
0.0
230
-1.0
 50
102.88433400000039
 51
137.4627059999977
  0
ARC
  5
A29F
  8
0
 10
-16.115857438496072
 20
9.0582022621094822
 30
0.0
 40
0.5622433680867739
210
0.0
220
0.0
230
-1.0
 50
162.1588269999971
 51
170.58718400000211
  0
ARC
  5
A2A0
  8
0
 10
-16.41135934391783
 20
9.2414132688124901
 30
0.0
 40
0.171603489952675
210
0.0
220
0.0
230
-1.0
 50
128.08877299999921
 51
156.1612599999996
  0
ARC
  5
A2A1
  8
0
 10
-16.359281983500981
 20
9.1647570826451101
 30
0.0
 40
0.2940857156038358
210
0.0
220
0.0
230
-1.0
 50
134.63121999999939
 51
150.23159600000031
  0
ARC
  5
A2A2
  8
0
 10
16.19916688665289
 20
9.1095383650497261
 30
0.0
 40
0.4204401313707506
 50
8.8870558864557356
 51
28.595275765016879
  0
ARC
  5
A2A3
  8
0
 10
-16.21789296881084
 20
9.0820169566636562
 30
0.0
 40
0.45789943381389
210
0.0
220
0.0
230
-1.0
 50
150.0285049999984
 51
161.08358500000091
  0
ARC
  5
A2A4
  8
0
 10
-16.427177587434031
 20
9.2608818762168941
 30
0.0
 40
0.1482108869169128
210
0.0
220
0.0
230
-1.0
 50
77.675272999999422
 51
96.599917000000019
  0
ARC
  5
A2A5
  8
0
 10
-16.426720564204
 20
9.2654448310777262
 30
0.0
 40
0.1729163401230494
210
0.0
220
0.0
230
-1.0
 50
72.122851000000537
 51
101.5174889999993
  0
LINE
  5
A2A6
  8
0
 10
17.254034494738931
 20
8.9773746473520024
 30
0.0
 11
17.326835093210981
 21
9.263557063149614
 31
0.0
  0
ARC
  5
A2A7
  8
0
 10
17.369953925026241
 20
9.046904764302095
 30
0.0
 40
0.6561558199083568
 50
171.1615180000004
 51
177.78340099999841
  0
ARC
  5
A2A8
  8
0
 10
-17.211394518473661
 20
9.0784772098627382
 30
0.0
 40
0.4427347044068715
210
0.0
220
0.0
230
-1.0
 50
4.873011999997221
 51
30.178125000000389
  0
LINE
  5
A2A9
  8
0
 10
17.313777910418931
 20
9.3166052340584358
 30
0.0
 11
17.15471199404455
 21
8.7048185101521032
 31
0.0
  0
ARC
  5
A2AA
  8
0
 10
16.73740757586469
 20
9.5894102597055682
 30
0.0
 40
0.9668923181608438
 50
285.69779299999902
 51
291.17210499999959
  0
ARC
  5
A2AB
  8
0
 10
-16.97501744633453
 20
8.8528212622859428
 30
0.0
 40
0.1689530463160322
210
0.0
220
0.0
230
-1.0
 50
212.0265570000021
 51
257.6405709999994
  0
ARC
  5
A2AC
  8
0
 10
17.17185764261108
 20
9.0063927114836062
 30
0.0
 40
0.4552911993290664
 50
186.11338500000039
 51
211.2023919999985
  0
ARC
  5
A2AD
  8
0
 10
-17.328289125716761
 20
9.0451392573656886
 30
0.0
 40
0.5609741825562125
210
0.0
220
0.0
230
-1.0
 50
342.88321399999802
 51
357.5519719999977
  0
ARC
  5
A2AE
  8
0
 10
-17.102216908573482
 20
8.9625053820077447
 30
0.0
 40
0.3208361294412096
210
0.0
220
0.0
230
-1.0
 50
312.70061699999781
 51
345.10475699999802
  0
ARC
  5
A2AF
  8
0
 10
16.97702601976593
 20
8.872190896506936
 30
0.0
 40
0.2195559973951974
 50
207.5844410000017
 51
251.9428419999989
  0
ARC
  5
A2B0
  8
0
 10
-16.984411165846279
 20
8.8258874569612544
 30
0.0
 40
0.140674370085207
210
0.0
220
0.0
230
-1.0
 50
259.03024199999919
 51
315.1752159999981
  0
ARC
  5
A2B1
  8
0
 10
16.965009510889431
 20
8.8648348601861926
 30
0.0
 40
0.2090371856642708
 50
254.45024699999951
 51
279.36163699999992
  0
ARC
  5
A2B2
  8
0
 10
17.431573464730182
 20
9.0455133177799762
 30
0.0
 40
0.7177855480282718
 50
177.86272700000001
 51
187.01057000000031
  0
ARC
  5
A2B3
  8
0
 10
-17.433398646674359
 20
9.0515972575940342
 30
0.0
 40
0.6662670950010298
210
0.0
220
0.0
230
-1.0
 50
357.38318399999991
 51
5.5544169999980477
  0
LINE
  5
A2B4
  8
0
 10
17.247225721904119
 20
8.9506053121706337
 30
0.0
 11
17.18579685112735
 21
8.709131121077462
 31
0.0
  0
ARC
  5
A2B5
  8
0
 10
16.918790489647471
 20
8.7318978642756502
 30
0.0
 40
0.2019096609588124
 50
347.37974199999678
 51
8.9250369999969497
  0
ARC
  5
A2B6
  8
0
 10
-17.10122135478575
 20
8.656146991640524
 30
0.0
 40
0.0348429270826972
210
0.0
220
0.0
230
-1.0
 50
65.224859000000265
 51
114.7751409999991
  0
LINE
  5
A2B7
  8
0
 10
17.13524484212796
 20
8.6683148712684162
 30
0.0
 11
17.190046876069111
 21
8.6683148712684162
 31
0.0
  0
ARC
  5
A2B8
  8
0
 10
17.24328862688099
 20
8.6945063777161522
 30
0.0
 40
0.0593358790417444
 50
165.7274869999988
 51
206.1942030000024
  0
ARC
  5
A2B9
  8
0
 10
-17.038511654574471
 20
8.7433496438109142
 30
0.0
 40
0.1224225506434164
210
0.0
220
0.0
230
-1.0
 50
198.34490800000231
 51
217.8000650000015
  0
ARC
  5
A2BA
  8
0
 10
-16.953991466776621
 20
9.1793585381983522
 30
0.0
 40
0.2641405056201516
210
0.0
220
0.0
230
-1.0
 50
104.676393
 51
118.9264259999986
  0
ARC
  5
A2BB
  8
0
 10
-16.988061529734651
 20
9.2663574220498486
 30
0.0
 40
0.1429230990355712
210
0.0
220
0.0
230
-1.0
 50
67.473939000000655
 51
112.526060999999
  0
ARC
  5
A2BC
  8
0
 10
-17.02180265240607
 20
9.1983293687092136
 30
0.0
 40
0.2187482015586588
210
0.0
220
0.0
230
-1.0
 50
28.00316899999774
 51
66.136893000001095
  0
ARC
  5
A2BD
  8
0
 10
17.073028552346571
 20
9.1310319703416081
 30
0.0
 40
0.3447046770509322
 50
129.1425410000017
 51
158.0887550000011
  0
ARC
  5
A2BE
  8
0
 10
17.223475068821891
 20
9.0663267960910563
 30
0.0
 40
0.5084427098853112
 50
157.65048299999771
 51
170.7880109999976
  0
ARC
  5
A2BF
  8
0
 10
16.997501824862191
 20
9.1883796527838424
 30
0.0
 40
0.2535401865615744
 50
103.5326130000004
 51
124.07927400000059
  0
ARC
  5
A2C0
  8
0
 10
16.979544013995142
 20
9.2061278733799501
 30
0.0
 40
0.2324632649238894
 50
79.748801000000199
 51
100.2511989999997
  0
ARC
  5
A2C1
  8
0
 10
-16.973714784580132
 20
9.23357255499036
 30
0.0
 40
0.1787048158742456
210
0.0
220
0.0
230
-1.0
 50
112.747942000001
 51
148.22547099999781
  0
ARC
  5
A2C2
  8
0
 10
-16.569492292488231
 20
9.3114993821766276
 30
0.0
 40
0.556379206959902
210
0.0
220
0.0
230
-1.0
 50
170.5088379999994
 51
178.3340760000018
  0
LINE
  5
A2C3
  8
0
 10
17.298291518165311
 20
9.3618738216402964
 30
0.0
 11
17.33479515704888
 21
9.4567818272496424
 31
0.0
  0
ARC
  5
A2C4
  8
0
 10
17.267177551322629
 20
9.3349312833879523
 30
0.0
 40
0.0411582894876358
 50
7.0349760000016648
 51
40.890001999998361
  0
LINE
  5
A2C5
  8
0
 10
17.313777910418931
 20
9.3166052340584358
 30
0.0
 11
17.308025821867592
 21
9.3399716383105424
 31
0.0
  0
ARC
  5
A2C6
  8
0
 10
17.11265857944074
 20
9.4701664948402104
 30
0.0
 40
0.067156216032234
 50
242.5992509999993
 51
274.78088400000001
  0
ARC
  5
A2C7
  8
0
 10
-17.289493093242999
 20
9.9301982185654598
 30
0.0
 40
0.3129895936668322
210
0.0
220
0.0
230
-1.0
 50
44.07312200000132
 51
60.97451899999939
  0
ARC
  5
A2C8
  8
0
 10
17.18464992658825
 20
9.980457674477746
 30
0.0
 40
0.2454083751404192
 50
88.477618000000007
 51
145.713487000002
  0
ARC
  5
A2C9
  8
0
 10
17.221748860061261
 20
10.13332612297472
 30
0.0
 40
0.2587013469874586
 50
210.53341399999721
 51
263.5655612222763
  0
ARC
  5
A2CA
  8
0
 10
17.07800923226123
 20
10.089501379482719
 30
0.0
 40
0.1004621477935174
 50
163.10135100000139
 51
191.17383799999939
  0
ARC
  5
A2CB
  8
0
 10
17.34691646106095
 20
10.13817289799405
 30
0.0
 40
0.3737285631345642
 50
190.5050639999981
 51
201.3857279999994
  0
ARC
  5
A2CC
  8
0
 10
-17.361771171525291
 20
9.9310103808654642
 30
0.0
 40
0.0963998808029242
210
0.0
220
0.0
230
-1.0
 50
299.9342454438476
 51
346.42198815912582
  0
ARC
  5
A2CD
  8
0
 10
17.189896105045388
 20
9.8280439938391702
 30
0.0
 40
0.0482952305506364
 50
20.527675597314641
 51
86.603739140537925
  0
ARC
  5
A2CE
  8
0
 10
19.562803780333809
 20
10.65286692881249
 30
0.0
 40
2.463893740482153
 50
199.14079692781311
 51
200.79779800000051
  0
ARC
  5
A2CF
  8
0
 10
17.306913829040351
 20
9.7938262709897117
 30
0.0
 40
0.0500207558816598
 50
198.43494899999851
 51
265.81508399999967
  0
LINE
  5
A2D0
  8
0
 10
17.322730617068579
 20
9.7439394200034641
 30
0.0
 11
17.316284260744212
 21
9.7432014875903388
 31
0.0
  0
LINE
  5
A2D1
  8
0
 10
17.316284260744212
 20
9.7432014875903388
 30
0.0
 11
17.30973456477227
 21
9.7434663864055437
 31
0.0
  0
LINE
  5
A2D2
  8
0
 10
17.30973456477227
 20
9.7434663864055437
 30
0.0
 11
17.303263465152
 21
9.7439394200034641
 31
0.0
  0
ARC
  5
A2D3
  8
0
 10
-17.097477839665778
 20
10.08828459151958
 30
0.0
 40
0.3236190224852848
210
0.0
220
0.0
230
-1.0
 50
217.20895080399799
 51
228.0843192545702
  0
LINE
  5
A2D4
  8
0
 10
17.201714067827151
 20
10.077413551694219
 30
0.0
 11
17.181434753610031
 21
10.07733495534284
 31
0.0
  0
LINE
  5
A2D5
  8
0
 10
17.196920941422562
 20
9.9596857474589342
 30
0.0
 11
17.19911351066245
 21
9.958564930972436
 31
0.0
  0
LINE
  5
A2D6
  8
0
 10
17.200052326476978
 20
9.9439816638073282
 30
0.0
 11
17.198868812428991
 21
9.9442779764312927
 31
0.0
  0
LINE
  5
A2D7
  8
0
 10
17.17032792472963
 20
9.9690961351982423
 30
0.0
 11
17.170346820488799
 21
9.9695349165019689
 31
0.0
  0
LINE
  5
A2D8
  8
0
 10
17.170346820488799
 20
9.9695349165019689
 30
0.0
 11
17.170610903434419
 21
9.969887988893106
 31
0.0
  0
LINE
  5
A2D9
  8
0
 10
17.170610903434419
 20
9.969887988893106
 30
0.0
 11
17.171062846670232
 21
9.9701562904797321
 31
0.0
  0
LINE
  5
A2DA
  8
0
 10
17.171062846670232
 20
9.9701562904797321
 30
0.0
 11
17.171645323299991
 21
9.9703407593692646
 31
0.0
  0
LINE
  5
A2DB
  8
0
 10
17.171645323299991
 20
9.9703407593692646
 30
0.0
 11
17.172301006427411
 21
9.9704423336688706
 31
0.0
  0
LINE
  5
A2DC
  8
0
 10
17.172301006427411
 20
9.9704423336688706
 30
0.0
 11
17.1729725691563
 21
9.9704619514866408
 31
0.0
  0
LINE
  5
A2DD
  8
0
 10
17.1729725691563
 20
9.9704619514866408
 30
0.0
 11
17.173602684590328
 21
9.9704005509297442
 31
0.0
  0
LINE
  5
A2DE
  8
0
 10
17.173602684590328
 20
9.9704005509297442
 30
0.0
 11
17.174134025833322
 21
9.9702590701053797
 31
0.0
  0
LINE
  5
A2DF
  8
0
 10
17.174134025833322
 20
9.9702590701053797
 30
0.0
 11
17.175269716061351
 21
9.9698058407620902
 31
0.0
  0
LINE
  5
A2E0
  8
0
 10
17.175269716061351
 20
9.9698058407620902
 30
0.0
 11
17.17650187927434
 21
9.9692980064555741
 31
0.0
  0
LINE
  5
A2E1
  8
0
 10
17.17650187927434
 20
9.9692980064555741
 30
0.0
 11
17.17783481513165
 21
9.9687328822087622
 31
0.0
  0
LINE
  5
A2E2
  8
0
 10
17.17783481513165
 20
9.9687328822087622
 30
0.0
 11
17.179272823292632
 21
9.9681077830439282
 31
0.0
  0
LINE
  5
A2E3
  8
0
 10
17.179272823292632
 20
9.9681077830439282
 30
0.0
 11
17.180820203416658
 21
9.9674200239839976
 31
0.0
  0
LINE
  5
A2E4
  8
0
 10
17.180820203416658
 20
9.9674200239839976
 30
0.0
 11
17.182481255163051
 21
9.9666669200514661
 31
0.0
  0
LINE
  5
A2E5
  8
0
 10
17.182481255163051
 20
9.9666669200514661
 30
0.0
 11
17.1842602781912
 21
9.9658457862687921
 31
0.0
  0
LINE
  5
A2E6
  8
0
 10
17.1842602781912
 20
9.9658457862687921
 30
0.0
 11
17.186161572160451
 21
9.9649539376589438
 31
0.0
  0
LINE
  5
A2E7
  8
0
 10
17.186161572160451
 20
9.9649539376589438
 30
0.0
 11
17.188183583507939
 21
9.9639914552399187
 31
0.0
  0
LINE
  5
A2E8
  8
0
 10
17.188183583507939
 20
9.9639914552399187
 30
0.0
 11
17.190301345781879
 21
9.9629694840134562
 31
0.0
  0
LINE
  5
A2E9
  8
0
 10
17.190301345781879
 20
9.9629694840134562
 30
0.0
 11
17.192484039308269
 21
9.9619019349765896
 31
0.0
  0
LINE
  5
A2EA
  8
0
 10
17.173826790653571
 20
9.9614121943002321
 30
0.0
 11
17.173409935717761
 21
9.9621304122415495
 31
0.0
  0
LINE
  5
A2EB
  8
0
 10
17.173409935717761
 20
9.9621304122415495
 30
0.0
 11
17.17300946070737
 21
9.9628432630711323
 31
0.0
  0
LINE
  5
A2EC
  8
0
 10
17.17300946070737
 20
9.9628432630711323
 30
0.0
 11
17.172629170643251
 21
9.9635443506017438
 31
0.0
  0
LINE
  5
A2ED
  8
0
 10
17.172629170643251
 20
9.9635443506017438
 30
0.0
 11
17.172272870546308
 21
9.9642272786450103
 31
0.0
  0
LINE
  5
A2EE
  8
0
 10
17.172272870546308
 20
9.9642272786450103
 30
0.0
 11
17.171944365437351
 21
9.9648856510138941
 31
0.0
  0
LINE
  5
A2EF
  8
0
 10
17.171944365437351
 20
9.9648856510138941
 30
0.0
 11
17.171646589982
 21
9.9655142337317102
 31
0.0
  0
LINE
  5
A2F0
  8
0
 10
17.171378997424618
 20
9.9661124416663824
 30
0.0
 11
17.171140170654361
 21
9.9666808518954841
 31
0.0
  0
LINE
  5
A2F1
  8
0
 10
17.171140170654361
 20
9.9666808518954841
 30
0.0
 11
17.170928692560391
 21
9.9672200414972796
 31
0.0
  0
LINE
  5
A2F2
  8
0
 10
17.170928692560391
 20
9.9672200414972796
 30
0.0
 11
17.170743146031771
 21
9.9677305875502462
 31
0.0
  0
LINE
  5
A2F3
  8
0
 10
17.170743146031771
 20
9.9677305875502462
 30
0.0
 11
17.170582113957678
 21
9.9682130671326323
 31
0.0
  0
LINE
  5
A2F4
  8
0
 10
17.170582113957678
 20
9.9682130671326323
 30
0.0
 11
17.170444179227271
 21
9.968668057322704
 31
0.0
  0
LINE
  5
A2F5
  8
0
 10
17.170444179227271
 20
9.968668057322704
 30
0.0
 11
17.17032792472963
 21
9.9690961351982423
 31
0.0
  0
ARC
  5
A2F6
  8
0
 10
-17.150991766732481
 20
10.078401828042161
 30
0.0
 40
0.1108601540209616
210
0.0
220
0.0
230
-1.0
 50
356.93122599999862
 51
38.826167000000673
  0
ARC
  5
A2F7
  8
0
 10
17.009870561833178
 20
9.9264547034451862
 30
0.0
 40
0.1404560468861426
 50
48.160362000000802
 51
58.099843000000789
  0
ARC
  5
A2F8
  8
0
 10
17.08269477760707
 20
10.075311685672171
 30
0.0
 40
0.0424995034128398
 50
183.83797336945321
 51
219.75545477125709
  0
ARC
  5
A2F9
  8
0
 10
17.07679244429843
 20
10.037180952570671
 30
0.0
 40
0.011217445967933
 50
49.398704999999332
 51
130.6012950000005
  0
ARC
  5
A2FA
  8
0
 10
-17.06117796910134
 20
10.05827097360042
 30
0.0
 40
0.0150744891514054
210
0.0
220
0.0
230
-1.0
 50
236.52372199999871
 51
317.73637843584879
  0
ARC
  5
A2FB
  8
0
 10
17.142903619951142
 20
9.9966223241362968
 30
0.0
 40
0.0636790552151338
 50
90.364936000000014
 51
117.7075509999996
  0
ARC
  5
A2FC
  8
0
 10
17.124247174847099
 20
10.05056562016124
 30
0.0
 40
0.011217445967933
 50
167.4711920000004
 51
220.6012949999994
  0
ARC
  5
A2FD
  8
0
 10
-17.10842893133087
 20
10.038397740533339
 30
0.0
 40
0.0087736816264046
210
0.0
220
0.0
230
-1.0
 50
146.3099320000002
 51
303.69006799999852
  0
ARC
  5
A2FE
  8
0
 10
17.181644343881121
 20
10.02383849413194
 30
0.0
 40
0.0534964612107664
 50
90.224687999999887
 51
137.0340669999992
  0
LINE
  5
A2FF
  8
0
 10
17.194700844413191
 20
9.9608027191261463
 30
0.0
 11
17.196920941422562
 21
9.9596857474589342
 31
0.0
  0
LINE
  5
A300
  8
0
 10
17.198868812428991
 20
9.9442779764312927
 30
0.0
 11
17.197642242089721
 21
9.9445504156403768
 31
0.0
  0
LINE
  5
A301
  8
0
 10
17.197642242089721
 20
9.9445504156403768
 30
0.0
 11
17.196392773399271
 21
9.9448140167398744
 31
0.0
  0
LINE
  5
A302
  8
0
 10
17.196392773399271
 20
9.9448140167398744
 30
0.0
 11
17.195140564297851
 21
9.9450838150344225
 31
0.0
  0
LINE
  5
A303
  8
0
 10
17.195140564297851
 20
9.9450838150344225
 30
0.0
 11
17.1939057727256
 21
9.9453748458283826
 31
0.0
  0
LINE
  5
A304
  8
0
 10
17.1939057727256
 20
9.9453748458283826
 30
0.0
 11
17.19270855662268
 21
9.9457021444268321
 31
0.0
  0
LINE
  5
A305
  8
0
 10
17.19270855662268
 20
9.9457021444268321
 30
0.0
 11
17.191569073929259
 21
9.9460807461343812
 31
0.0
  0
LINE
  5
A306
  8
0
 10
17.191569073929259
 20
9.9460807461343812
 30
0.0
 11
17.190502713872441
 21
9.9465211662832136
 31
0.0
  0
LINE
  5
A307
  8
0
 10
17.190502713872441
 20
9.9465211662832136
 30
0.0
 11
17.189505790826779
 21
9.9470158403155438
 31
0.0
  0
LINE
  5
A308
  8
0
 10
17.189505790826779
 20
9.9470158403155438
 30
0.0
 11
17.188569850453881
 21
9.9475526837011277
 31
0.0
  0
LINE
  5
A309
  8
0
 10
17.188569850453881
 20
9.9475526837011277
 30
0.0
 11
17.187686438415241
 21
9.9481196119095223
 31
0.0
  0
LINE
  5
A30A
  8
0
 10
17.187686438415241
 20
9.9481196119095223
 30
0.0
 11
17.186847100372422
 21
9.948704540411196
 31
0.0
  0
LINE
  5
A30B
  8
0
 10
17.186847100372422
 20
9.948704540411196
 30
0.0
 11
17.186043381986959
 21
9.9492953846756738
 31
0.0
  0
LINE
  5
A30C
  8
0
 10
17.186043381986959
 20
9.9492953846756738
 30
0.0
 11
17.185266828920359
 21
9.9498800601725144
 31
0.0
  0
LINE
  5
A30D
  8
0
 10
17.185266828920359
 20
9.9498800601725144
 30
0.0
 11
17.184508986834189
 21
9.95044648237171
 31
0.0
  0
LINE
  5
A30E
  8
0
 10
17.184508986834189
 20
9.95044648237171
 30
0.0
 11
17.183763277131192
 21
9.9509856662882541
 31
0.0
  0
LINE
  5
A30F
  8
0
 10
17.183763277131192
 20
9.9509856662882541
 30
0.0
 11
17.183030624178851
 21
9.9515010251170661
 31
0.0
  0
LINE
  5
A310
  8
0
 10
17.183030624178851
 20
9.9515010251170661
 30
0.0
 11
17.182313828085981
 21
9.9519990715980349
 31
0.0
  0
LINE
  5
A311
  8
0
 10
17.182313828085981
 20
9.9519990715980349
 30
0.0
 11
17.181615688961259
 21
9.9524863184724381
 31
0.0
  0
LINE
  5
A312
  8
0
 10
17.181615688961259
 20
9.9524863184724381
 30
0.0
 11
17.180939006913459
 21
9.9529692784794861
 31
0.0
  0
LINE
  5
A313
  8
0
 10
17.180939006913459
 20
9.9529692784794861
 30
0.0
 11
17.180286582051291
 21
9.9534544643595382
 31
0.0
  0
LINE
  5
A314
  8
0
 10
17.180286582051291
 20
9.9534544643595382
 30
0.0
 11
17.17966121448352
 21
9.9539483888536342
 31
0.0
  0
LINE
  5
A315
  8
0
 10
17.17966121448352
 20
9.9539483888536342
 30
0.0
 11
17.179065704318852
 21
9.9544575647012135
 31
0.0
  0
LINE
  5
A316
  8
0
 10
17.179065704318852
 20
9.9544575647012135
 30
0.0
 11
17.178501728779821
 21
9.9549873869682362
 31
0.0
  0
LINE
  5
A317
  8
0
 10
17.178501728779821
 20
9.9549873869682362
 30
0.0
 11
17.177966473543901
 21
9.9555387800219162
 31
0.0
  0
LINE
  5
A318
  8
0
 10
17.177966473543901
 20
9.9555387800219162
 30
0.0
 11
17.177456001402359
 21
9.9561115505555282
 31
0.0
  0
LINE
  5
A319
  8
0
 10
17.177456001402359
 20
9.9561115505555282
 30
0.0
 11
17.17696637514652
 21
9.9567055052623346
 31
0.0
  0
LINE
  5
A31A
  8
0
 10
17.17696637514652
 20
9.9567055052623346
 30
0.0
 11
17.17649365756759
 21
9.9573204508346862
 31
0.0
  0
LINE
  5
A31B
  8
0
 10
17.17649365756759
 20
9.9573204508346862
 30
0.0
 11
17.176033911456841
 21
9.9579561939660781
 31
0.0
  0
LINE
  5
A31C
  8
0
 10
17.176033911456841
 20
9.9579561939660781
 30
0.0
 11
17.175583199605569
 21
9.9586125413495665
 31
0.0
  0
LINE
  5
A31D
  8
0
 10
17.175583199605569
 20
9.9586125413495665
 30
0.0
 11
17.175137584805022
 21
9.959289299677712
 31
0.0
  0
LINE
  5
A31E
  8
0
 10
17.175137584805022
 20
9.959289299677712
 30
0.0
 11
17.174694420218071
 21
9.9599852418307364
 31
0.0
  0
LINE
  5
A31F
  8
0
 10
17.174694420218071
 20
9.9599852418307364
 30
0.0
 11
17.174256220493952
 21
9.9606950054337542
 31
0.0
  0
LINE
  5
A320
  8
0
 10
17.192484039308269
 20
9.9619019349765896
 30
0.0
 11
17.194700844413191
 21
9.9608027191261463
 31
0.0
  0
LINE
  5
A321
  8
0
 10
17.174256220493952
 20
9.9606950054337542
 30
0.0
 11
17.173826790653571
 21
9.9614121943002321
 31
0.0
  0
ARC
  5
A322
  8
0
 10
17.238513170773452
 20
10.02954837353149
 30
0.0
 40
0.0479335860986034
 50
19.689399999997601
 51
85.499885999999734
  0
ARC
  5
A323
  8
0
 10
17.189952269349519
 20
10.01041161738951
 30
0.0
 40
0.1001157416510018
 50
7.4819300195313572
 51
20.637547000001629
  0
LINE
  5
A324
  8
0
 10
17.242274151749331
 20
10.07733495534284
 30
0.0
 11
17.22205742351597
 21
10.0789258037198
 31
0.0
  0
LINE
  5
A325
  8
0
 10
17.22205742351597
 20
10.0789258037198
 30
0.0
 11
17.201714067827151
 21
10.077413551694219
 31
0.0
  0
LINE
  5
A326
  8
0
 10
17.21406243175656
 20
9.9396702653148168
 30
0.0
 11
17.213052305558602
 21
9.9397069325254961
 31
0.0
  0
LINE
  5
A327
  8
0
 10
17.19911351066245
 20
9.958564930972436
 30
0.0
 11
17.201247732458821
 21
9.9574541806643992
 31
0.0
  0
LINE
  5
A328
  8
0
 10
17.201247732458821
 20
9.9574541806643992
 30
0.0
 11
17.20329278713772
 21
9.9563674075304807
 31
0.0
  0
LINE
  5
A329
  8
0
 10
17.20329278713772
 20
9.9563674075304807
 30
0.0
 11
17.205224006499179
 21
9.9553165546747042
 31
0.0
  0
LINE
  5
A32A
  8
0
 10
17.205224006499179
 20
9.9553165546747042
 30
0.0
 11
17.20704132823964
 21
9.9543056936261056
 31
0.0
  0
LINE
  5
A32B
  8
0
 10
17.20704132823964
 20
9.9543056936261056
 30
0.0
 11
17.208750841529572
 21
9.9533369280188637
 31
0.0
  0
LINE
  5
A32C
  8
0
 10
17.208750841529572
 20
9.9533369280188637
 30
0.0
 11
17.210358635539439
 21
9.9524123614887685
 31
0.0
  0
LINE
  5
A32D
  8
0
 10
17.210358635539439
 20
9.9524123614887685
 30
0.0
 11
17.211870799439708
 21
9.9515340976699864
 31
0.0
  0
LINE
  5
A32E
  8
0
 10
17.211870799439708
 20
9.9515340976699864
 30
0.0
 11
17.213293422400842
 21
9.9507042401987675
 31
0.0
  0
LINE
  5
A32F
  8
0
 10
17.213293422400842
 20
9.9507042401987675
 30
0.0
 11
17.21463259359335
 21
9.9499248927088502
 31
0.0
  0
LINE
  5
A330
  8
0
 10
17.21463259359335
 20
9.9499248927088502
 30
0.0
 11
17.215894402187711
 21
9.9491981588359941
 31
0.0
  0
LINE
  5
A331
  8
0
 10
17.215894402187711
 20
9.9491981588359941
 30
0.0
 11
17.217085660834211
 21
9.9485254139967747
 31
0.0
  0
LINE
  5
A332
  8
0
 10
17.217085660834211
 20
9.9485254139967747
 30
0.0
 11
17.21821607610276
 21
9.9479051207376799
 31
0.0
  0
LINE
  5
A333
  8
0
 10
17.21821607610276
 20
9.9479051207376799
 30
0.0
 11
17.219296078043001
 21
9.9473350133869118
 31
0.0
  0
LINE
  5
A334
  8
0
 10
17.219296078043001
 20
9.9473350133869118
 30
0.0
 11
17.220336096704671
 21
9.9468128262728879
 31
0.0
  0
LINE
  5
A335
  8
0
 10
17.220336096704671
 20
9.9468128262728879
 30
0.0
 11
17.22134656213748
 21
9.9463362937233342
 31
0.0
  0
LINE
  5
A336
  8
0
 10
17.22134656213748
 20
9.9463362937233342
 30
0.0
 11
17.2223379043911
 21
9.9459031500668882
 31
0.0
  0
LINE
  5
A337
  8
0
 10
17.2223379043911
 20
9.9459031500668882
 30
0.0
 11
17.223320553515261
 21
9.945511129631992
 31
0.0
  0
LINE
  5
A338
  8
0
 10
17.223320553515261
 20
9.945511129631992
 30
0.0
 11
17.224304939559659
 21
9.9451579667463594
 31
0.0
  0
LINE
  5
A339
  8
0
 10
17.224304939559659
 20
9.9451579667463594
 30
0.0
 11
17.225296149625422
 21
9.9448401335578183
 31
0.0
  0
LINE
  5
A33A
  8
0
 10
17.225296149625422
 20
9.9448401335578183
 30
0.0
 11
17.226277899019198
 21
9.9445490534892542
 31
0.0
  0
LINE
  5
A33B
  8
0
 10
17.226277899019198
 20
9.9445490534892542
 30
0.0
 11
17.227228560099149
 21
9.9442748877834202
 31
0.0
  0
LINE
  5
A33C
  8
0
 10
17.227228560099149
 20
9.9442748877834202
 30
0.0
 11
17.228126505223301
 21
9.9440077976819321
 31
0.0
  0
LINE
  5
A33D
  8
0
 10
17.228126505223301
 20
9.9440077976819321
 30
0.0
 11
17.228950106749771
 21
9.9437379444277596
 31
0.0
  0
LINE
  5
A33E
  8
0
 10
17.228950106749771
 20
9.9437379444277596
 30
0.0
 11
17.229677737036649
 21
9.9434554892627602
 31
0.0
  0
LINE
  5
A33F
  8
0
 10
17.229677737036649
 20
9.9434554892627602
 30
0.0
 11
17.230287768442039
 21
9.9431505934292037
 31
0.0
  0
LINE
  5
A340
  8
0
 10
17.230287768442039
 20
9.9431505934292037
 30
0.0
 11
17.230758573324021
 21
9.9428134181696262
 31
0.0
  0
LINE
  5
A341
  8
0
 10
17.230758573324021
 20
9.9428134181696262
 30
0.0
 11
17.231074348835421
 21
9.9424380173986702
 31
0.0
  0
LINE
  5
A342
  8
0
 10
17.231074348835421
 20
9.9424380173986702
 30
0.0
 11
17.231242591307939
 21
9.9420340157203064
 31
0.0
  0
LINE
  5
A343
  8
0
 10
17.231242591307939
 20
9.9420340157203064
 30
0.0
 11
17.231276621868052
 21
9.9416149304101928
 31
0.0
  0
LINE
  5
A344
  8
0
 10
17.231276621868052
 20
9.9416149304101928
 30
0.0
 11
17.23118976164217
 21
9.9411942787446588
 31
0.0
  0
LINE
  5
A345
  8
0
 10
17.23118976164217
 20
9.9411942787446588
 30
0.0
 11
17.230995331756741
 21
9.9407855780004866
 31
0.0
  0
LINE
  5
A346
  8
0
 10
17.230995331756741
 20
9.9407855780004866
 30
0.0
 11
17.230706653338249
 21
9.9404023454530943
 31
0.0
  0
LINE
  5
A347
  8
0
 10
17.230706653338249
 20
9.9404023454530943
 30
0.0
 11
17.230337047513071
 21
9.9400580983792644
 31
0.0
  0
LINE
  5
A348
  8
0
 10
17.230337047513071
 20
9.9400580983792644
 30
0.0
 11
17.229899835407679
 21
9.9397663540548802
 31
0.0
  0
LINE
  5
A349
  8
0
 10
17.229899835407679
 20
9.9397663540548802
 30
0.0
 11
17.22940608100506
 21
9.9395372075587076
 31
0.0
  0
LINE
  5
A34A
  8
0
 10
17.22940608100506
 20
9.9395372075587076
 30
0.0
 11
17.228857819714161
 21
9.9393670651818322
 31
0.0
  0
LINE
  5
A34B
  8
0
 10
17.228857819714161
 20
9.9393670651818322
 30
0.0
 11
17.228254829800498
 21
9.93924891101687
 31
0.0
  0
LINE
  5
A34C
  8
0
 10
17.228254829800498
 20
9.93924891101687
 30
0.0
 11
17.227596889529561
 21
9.9391757291559717
 31
0.0
  0
LINE
  5
A34D
  8
0
 10
17.227596889529561
 20
9.9391757291559717
 30
0.0
 11
17.226883777166879
 21
9.939140503693352
 31
0.0
  0
LINE
  5
A34E
  8
0
 10
17.226883777166879
 20
9.939140503693352
 30
0.0
 11
17.22611527097791
 21
9.9391362187213783
 31
0.0
  0
LINE
  5
A34F
  8
0
 10
17.22611527097791
 20
9.9391362187213783
 30
0.0
 11
17.225291149228202
 21
9.9391558583336064
 31
0.0
  0
LINE
  5
A350
  8
0
 10
17.225291149228202
 20
9.9391558583336064
 30
0.0
 11
17.224411190183218
 21
9.9391924066226238
 31
0.0
  0
LINE
  5
A351
  8
0
 10
17.224411190183218
 20
9.9391924066226238
 30
0.0
 11
17.22347675315126
 21
9.9392395555262247
 31
0.0
  0
LINE
  5
A352
  8
0
 10
17.22347675315126
 20
9.9392395555262247
 30
0.0
 11
17.222495521611759
 21
9.9392938283613148
 31
0.0
  0
LINE
  5
A353
  8
0
 10
17.222495521611759
 20
9.9392938283613148
 30
0.0
 11
17.221476760086919
 21
9.9393524562897255
 31
0.0
  0
LINE
  5
A354
  8
0
 10
17.221476760086919
 20
9.9393524562897255
 30
0.0
 11
17.220429733098939
 21
9.9394126704726151
 31
0.0
  0
LINE
  5
A355
  8
0
 10
17.220429733098939
 20
9.9394126704726151
 30
0.0
 11
17.219363705170039
 21
9.939471702071156
 31
0.0
  0
LINE
  5
A356
  8
0
 10
17.219363705170039
 20
9.939471702071156
 30
0.0
 11
17.21828794082246
 21
9.939526782247178
 31
0.0
  0
LINE
  5
A357
  8
0
 10
17.21828794082246
 20
9.939526782247178
 30
0.0
 11
17.217211704578361
 21
9.9395751421623117
 31
0.0
  0
LINE
  5
A358
  8
0
 10
17.217211704578361
 20
9.9395751421623117
 30
0.0
 11
17.216144260959972
 21
9.9396140129783781
 31
0.0
  0
LINE
  5
A359
  8
0
 10
17.216144260959972
 20
9.9396140129783781
 30
0.0
 11
17.215093577247931
 21
9.9396428825255043
 31
0.0
  0
LINE
  5
A35A
  8
0
 10
17.215093577247931
 20
9.9396428825255043
 30
0.0
 11
17.21406243175656
 21
9.9396702653148168
 31
0.0
  0
LINE
  5
A35B
  8
0
 10
17.213052305558602
 20
9.9397069325254961
 30
0.0
 11
17.21206467972679
 21
9.939763655337396
 31
0.0
  0
LINE
  5
A35C
  8
0
 10
17.21206467972679
 20
9.939763655337396
 30
0.0
 11
17.211101035333879
 21
9.9398512049301608
 31
0.0
  0
LINE
  5
A35D
  8
0
 10
17.211101035333879
 20
9.9398512049301608
 30
0.0
 11
17.210162853452591
 21
9.9399803524834116
 31
0.0
  0
LINE
  5
A35E
  8
0
 10
17.210162853452591
 20
9.9399803524834116
 30
0.0
 11
17.209251615155711
 21
9.9401618691772402
 31
0.0
  0
LINE
  5
A35F
  8
0
 10
17.209251615155711
 20
9.9401618691772402
 30
0.0
 11
17.208368801515959
 21
9.9404065261908183
 31
0.0
  0
LINE
  5
A360
  8
0
 10
17.208368801515959
 20
9.9404065261908183
 30
0.0
 11
17.207513286804328
 21
9.9407206358507665
 31
0.0
  0
LINE
  5
A361
  8
0
 10
17.207513286804328
 20
9.9407206358507665
 30
0.0
 11
17.206673518084891
 21
9.9410926750699602
 31
0.0
  0
LINE
  5
A362
  8
0
 10
17.206673518084891
 20
9.9410926750699602
 30
0.0
 11
17.205835335619931
 21
9.941506661907848
 31
0.0
  0
LINE
  5
A363
  8
0
 10
17.205835335619931
 20
9.941506661907848
 30
0.0
 11
17.204984579671802
 21
9.9419466144242961
 31
0.0
  0
LINE
  5
A364
  8
0
 10
17.204984579671802
 20
9.9419466144242961
 30
0.0
 11
17.20410709050276
 21
9.9423965506784882
 31
0.0
  0
LINE
  5
A365
  8
0
 10
17.20410709050276
 20
9.9423965506784882
 30
0.0
 11
17.203188708375169
 21
9.9428404887300932
 31
0.0
  0
LINE
  5
A366
  8
0
 10
17.203188708375169
 20
9.9428404887300932
 30
0.0
 11
17.202215273551278
 21
9.9432624466394302
 31
0.0
  0
LINE
  5
A367
  8
0
 10
17.202215273551278
 20
9.9432624466394302
 30
0.0
 11
17.201172626293459
 21
9.9436464424647966
 31
0.0
  0
LINE
  5
A368
  8
0
 10
17.201172626293459
 20
9.9436464424647966
 30
0.0
 11
17.200052326476978
 21
9.9439816638073282
 31
0.0
  0
ARC
  5
A369
  8
0
 10
17.102207791506132
 20
9.9983421899323641
 30
0.0
 40
0.188685539483754
 50
331.52398972244652
 51
7.6462551798543608
  0
ARC
  5
A36A
  8
0
 10
-17.363950037051961
 20
9.8680503367195325
 30
0.0
 40
0.0926665540989216
210
0.0
220
0.0
230
-1.0
 50
60.068312362020961
 51
76.328692999999802
  0
ARC
  5
A36B
  8
0
 10
17.255488228300301
 20
10.006174911411319
 30
0.0
 40
0.0849397129691308
 50
317.1022425865325
 51
8.6291783757405032
  0
ARC
  5
A36C
  8
0
 10
17.306282147251071
 20
10.25698729390114
 30
0.0
 40
0.103082026182291
 50
118.6401079999989
 51
177.05530099999939
  0
ARC
  5
A36D
  8
0
 10
17.196385621564939
 20
10.232818244236331
 30
0.0
 40
0.0071974559508554
 50
273.09450790218631
 51
5.5421348733659759
  0
LINE
  5
A36E
  8
0
 10
17.194395874194502
 20
10.208005756446919
 30
0.0
 11
17.209864800592211
 21
10.20766517225638
 31
0.0
  0
LINE
  5
A36F
  8
0
 10
17.191169057312312
 20
10.225780175826671
 30
0.0
 11
17.196774162533568
 21
10.225631283259631
 31
0.0
  0
LINE
  5
A370
  8
0
 10
17.179001177684459
 20
10.20874514434761
 30
0.0
 11
17.194395874194502
 21
10.208005756446919
 31
0.0
  0
ARC
  5
A371
  8
0
 10
-17.172917237870511
 20
10.08220065170574
 30
0.0
 40
0.1266900414411302
210
0.0
220
0.0
230
-1.0
 50
73.82784100000049
 51
92.752484999999922
  0
ARC
  5
A372
  8
0
 10
-17.34911570341951
 20
10.387516912669501
 30
0.0
 40
0.0294648989457422
210
0.0
220
0.0
230
-1.0
 50
246.9426104235107
 51
288.80904999999962
  0
LINE
  5
A373
  8
0
 10
17.238137885623871
 20
10.33420551251128
 30
0.0
 11
17.238137885623871
 21
10.33420551251128
 31
0.0
  0
ARC
  5
A374
  8
0
 10
17.33231500550751
 20
10.298785998106011
 30
0.0
 40
0.0121678796278604
 50
180.0
 51
233.13010199999891
  0
ARC
  5
A375
  8
0
 10
-17.345257204748059
 20
10.30796721637056
 30
0.0
 40
0.0640734924614436
210
0.0
220
0.0
230
-1.0
 50
358.3182239999997
 51
27.671010000001559
  0
ARC
  5
A376
  8
0
 10
-22.563206405685001
 20
8.3702061868498241
 30
0.0
 40
5.625577534934262
210
0.0
220
0.0
230
-1.0
 50
19.469593999999692
 51
20.128158999999531
  0
LINE
  5
A377
  8
0
 10
17.203549432612022
 20
10.23351335821711
 30
0.0
 11
17.202677600879021
 21
10.24947406487694
 31
0.0
  0
LINE
  5
A378
  8
0
 10
17.202677600879021
 20
10.24947406487694
 30
0.0
 11
17.203336936940168
 21
10.26228381471036
 31
0.0
  0
LINE
  5
A379
  8
0
 10
17.209864800592211
 20
10.20766517225638
 30
0.0
 11
17.225239120270331
 21
10.20874514434761
 31
0.0
  0
ARC
  5
A37A
  8
0
 10
17.222670183961331
 20
10.24529390335918
 30
0.0
 40
0.036638999267001
 50
274.02034199999991
 51
359.92952600000149
  0
ARC
  5
A37B
  8
0
 10
17.315096968680891
 20
10.2389551834226
 30
0.0
 40
0.1231360796950428
 50
78.514521519517345
 51
118.2181686236387
  0
ARC
  5
A37C
  8
0
 10
17.322850673750519
 20
10.30801219999441
 30
0.0
 40
0.0454090158799492
 50
61.640158362231332
 51
139.13362845344469
  0
ARC
  5
A37D
  8
0
 10
18.094832066048092
 20
9.6784075285722722
 30
0.0
 40
0.088036646790761
 50
300.66775632646471
 51
350.33841200000262
  0
ARC
  5
A37E
  8
0
 10
-17.825106852995891
 20
9.691618993091188
 30
0.0
 40
0.046332549305464
210
0.0
220
0.0
230
-1.0
 50
256.3286929999997
 51
299.93151200000068
  0
ARC
  5
A37F
  8
0
 10
-17.834841156698179
 20
9.6551153542077301
 30
0.0
 40
0.0086033895311342
210
0.0
220
0.0
230
-1.0
 50
171.86989800000211
 51
261.86989799999952
  0
ARC
  5
A380
  8
0
 10
17.548230827430299
 20
9.6784075285722722
 30
0.0
 40
0.088036646790761
 50
189.66158799999729
 51
239.33224367353489
  0
LINE
  5
A381
  8
0
 10
17.962600981814731
 20
9.4713832828033446
 30
0.0
 11
18.10618050593548
 21
9.4713832828033446
 31
0.0
  0
ARC
  5
A382
  8
0
 10
18.106441038286359
 20
9.9090718103354902
 30
0.0
 40
0.3123171582137136
 50
242.11373735930431
 51
272.23121636225119
  0
LINE
  5
A383
  8
0
 10
18.028307531805169
 20
9.4446139476221944
 30
0.0
 11
18.07454401890303
 21
9.4446139476221944
 31
0.0
  0
LINE
  5
A384
  8
0
 10
18.028307531805169
 20
8.7121192379286114
 30
0.0
 11
18.028307531805169
 21
9.4446139476221944
 31
0.0
  0
LINE
  5
A385
  8
0
 10
17.977202437368131
 20
9.4178446124405983
 30
0.0
 11
17.977202437368131
 21
8.7218535416311624
 31
0.0
  0
LINE
  5
A386
  8
0
 10
17.58296895937746
 20
9.3862095808960824
 30
0.0
 11
17.58296895937746
 21
8.7127276319097255
 31
0.0
  0
LINE
  5
A387
  8
0
 10
17.634074053814459
 20
8.6950842064495593
 30
0.0
 11
17.634074053814459
 21
9.3775465163571425
 31
0.0
  0
LINE
  5
A388
  8
0
 10
17.634074053814459
 20
8.6950842064495593
 30
0.0
 11
17.763579009035531
 21
8.6950842064495593
 31
0.0
  0
LINE
  5
A389
  8
0
 10
17.56836750382401
 20
8.6683148712684162
 30
0.0
 11
17.789820002075071
 21
8.6683148712684162
 31
0.0
  0
LINE
  5
A38A
  8
0
 10
17.403869706256899
 20
8.9506053121706337
 30
0.0
 11
17.463771770128218
 21
8.7072520860774567
 31
0.0
  0
LINE
  5
A38B
  8
0
 10
17.456471042351499
 20
8.6683148712684162
 30
0.0
 11
17.541644744258541
 21
8.6683148712684162
 31
0.0
  0
ARC
  5
A38C
  8
0
 10
17.63837793181203
 20
8.7433496438109142
 30
0.0
 40
0.1224225506434164
 50
198.34490800000231
 51
217.8000650000015
  0
ARC
  5
A38D
  8
0
 10
-17.41145134321642
 20
8.696909388393804
 30
0.0
 40
0.053333446555465
210
0.0
220
0.0
230
-1.0
 50
168.81824599999831
 51
212.42106500000131
  0
LINE
  5
A38E
  8
0
 10
17.578106173990282
 20
8.6867922913493203
 30
0.0
 11
17.58296895937746
 21
8.6997068363177661
 31
0.0
  0
LINE
  5
A38F
  8
0
 10
17.58296895937746
 20
8.6997068363177661
 30
0.0
 11
17.58296895937746
 21
8.7127276319097255
 31
0.0
  0
ARC
  5
A390
  8
0
 10
17.497795257470411
 20
8.7127276319097255
 30
0.0
 40
0.0833849071626938
 50
327.81736800000061
 51
333.22801199999878
  0
LINE
  5
A391
  8
0
 10
17.572242012863391
 20
8.67516730874285
 30
0.0
 11
17.578106173990282
 21
8.6867922913493203
 31
0.0
  0
ARC
  5
A392
  8
0
 10
17.75209957522873
 20
8.7571389370636936
 30
0.0
 40
0.0631085039215786
 50
280.48011099999968
 51
326.00354099999799
  0
LINE
  5
A393
  8
0
 10
17.804421457628528
 20
8.7218535416311624
 30
0.0
 11
17.805435932760179
 21
8.7233570607286222
 31
0.0
  0
LINE
  5
A394
  8
0
 10
17.805435932760179
 20
8.7233570607286222
 30
0.0
 11
17.807408118991731
 21
8.7187140540283963
 31
0.0
  0
LINE
  5
A395
  8
0
 10
17.807408118991731
 20
8.7187140540283963
 30
0.0
 11
17.8068550335541
 21
8.7169863897797768
 31
0.0
  0
ARC
  5
A396
  8
0
 10
16.897927524744851
 20
9.0077943464218553
 30
0.0
 40
0.9543154464067361
 50
339.16179600000231
 51
342.2581110000026
  0
ARC
  5
A397
  8
0
 10
-18.115914809637761
 20
8.7169863897797768
 30
0.0
 40
0.0877426382160208
210
0.0
220
0.0
230
-1.0
 50
326.30993200000017
 51
356.82017000000047
  0
ARC
  5
A398
  8
0
 10
-17.688828056651829
 20
8.7717403926173976
 30
0.0
 40
0.2926578818819539
210
0.0
220
0.0
230
-1.0
 50
189.814787
 51
200.695450999999
  0
LINE
  5
A399
  8
0
 10
17.962600981814731
 20
8.6683148712684162
 30
0.0
 11
18.0429075318706
 21
8.6683148712684162
 31
0.0
  0
ARC
  5
A39A
  8
0
 10
17.91000110120812
 20
10.020003283268331
 30
0.0
 40
0.4356406559252694
 50
242.62641915895671
 51
255.1270028687957
  0
ARC
  5
A39B
  8
0
 10
-17.478326650065831
 20
9.3655241855285567
 30
0.0
 40
0.1066668931109298
210
0.0
220
0.0
230
-1.0
 50
147.57893499999841
 51
168.81824599999831
  0
ARC
  5
A39C
  8
0
 10
17.789820002075071
 20
9.3521395179379763
 30
0.0
 40
0.1578054637717998
 50
153.4349489999976
 51
170.73496100000179
  0
ARC
  5
A39D
  8
0
 10
17.536621855192031
 20
9.9090718103354902
 30
0.0
 40
0.3123171582137136
 50
267.76878363774881
 51
297.88626264069558
  0
LINE
  5
A39E
  8
0
 10
17.480556677548918
 20
9.6201848278794841
 30
0.0
 11
17.480556677548918
 21
9.6201848278794841
 31
0.0
  0
ARC
  5
A39F
  8
0
 10
17.524424239547361
 20
9.6389337430075557
 30
0.0
 40
0.0419423262639052
 50
239.800845837184
 51
270.05247339540972
  0
ARC
  5
A3A0
  8
0
 10
17.696313338804568
 20
9.6072921382942642
 30
0.0
 40
0.029109759875264
 50
62.626419158956772
 51
117.88626264069551
  0
LINE
  5
A3A1
  8
0
 10
17.56836750382401
 20
9.4227117642917602
 30
0.0
 11
17.648675509367909
 21
9.4227117642917602
 31
0.0
  0
ARC
  5
A3A2
  8
0
 10
17.733061792270291
 20
10.020003283268331
 30
0.0
 40
0.4356406559252694
 50
284.87299713120427
 51
297.37358084104301
  0
LINE
  5
A3A3
  8
0
 10
17.748816393874669
 20
9.6178171142591928
 30
0.0
 11
17.748816393874669
 21
9.6178171142591928
 31
0.0
  0
ARC
  5
A3A4
  8
0
 10
17.821531446739201
 20
9.6868781412429144
 30
0.0
 40
0.0909679996102
 50
255.1270028687957
 51
284.87299713120427
  0
ARC
  5
A3A5
  8
0
 10
17.94674955467385
 20
9.6072921382942642
 30
0.0
 40
0.029109759875264
 50
62.113737359304501
 51
117.37358084104289
  0
ARC
  5
A3A6
  8
0
 10
-17.789955362458521
 20
9.3955378034481782
 30
0.0
 40
0.1885715689839664
210
0.0
220
0.0
230
-1.0
 50
156.2835929999988
 51
173.20616899999911
  0
ARC
  5
A3A7
  8
0
 10
-18.02765256220798
 20
9.056464409445196
 30
0.0
 40
0.6873411056627271
210
0.0
220
0.0
230
-1.0
 50
170.11247000000279
 51
182.13048099999759
  0
ARC
  5
A3A8
  8
0
 10
-17.981761025764602
 20
9.1867960818467456
 30
0.0
 40
0.2584524585405252
210
0.0
220
0.0
230
-1.0
 50
182.1888729999973
 51
225.73610499999839
  0
ARC
  5
A3A9
  8
0
 10
17.935000562988971
 20
9.1815999897087224
 30
0.0
 40
0.2516684290015948
 50
326.60512299999868
 51
357.82709999999798
  0
ARC
  5
A3AA
  8
0
 10
-18.84146829708876
 20
9.0824230378141255
 30
0.0
 40
0.5174128823908736
210
0.0
220
0.0
230
-1.0
 50
3.7304230000010872
 51
18.889442000000461
  0
ARC
  5
A3AB
  8
0
 10
-18.75817071920569
 20
9.075324622868262
 30
0.0
 40
0.4872770034800065
210
0.0
220
0.0
230
-1.0
 50
6.5238629999969824
 51
20.99770699999857
  0
ARC
  5
A3AC
  8
0
 10
-18.73205489813359
 20
8.9791634420964765
 30
0.0
 40
0.4017583509184561
210
0.0
220
0.0
230
-1.0
 50
324.9820570000021
 51
349.27061299999809
  0
ARC
  5
A3AD
  8
0
 10
-18.52896920287581
 20
8.8561266755195902
 30
0.0
 40
0.201708803615673
210
0.0
220
0.0
230
-1.0
 50
281.66125999999957
 51
328.60712600000028
  0
ARC
  5
A3AE
  8
0
 10
-18.680925060400689
 20
8.9897011751713762
 30
0.0
 40
0.4025122936992254
210
0.0
220
0.0
230
-1.0
 50
323.63766500000168
 51
347.05053800000201
  0
ARC
  5
A3AF
  8
0
 10
-18.041690743907829
 20
9.1927432057893821
 30
0.0
 40
0.2258407945522668
210
0.0
220
0.0
230
-1.0
 50
237.76556599999981
 51
244.12522600000071
  0
ARC
  5
A3B0
  8
0
 10
-18.115914809637761
 20
9.0503804696313601
 30
0.0
 40
0.0655246139912254
210
0.0
220
0.0
230
-1.0
 50
248.1985910000011
 51
285.068488
  0
ARC
  5
A3B1
  8
0
 10
-18.105572111954078
 20
9.0345622261149821
 30
0.0
 40
0.0479233976826472
210
0.0
220
0.0
230
-1.0
 50
278.0272379999999
 51
303.0848529999987
  0
ARC
  5
A3B2
  8
0
 10
18.058482708891841
 20
9.1078125703772823
 30
0.0
 40
0.108147124400587
 50
281.15822300000042
 51
323.23324499999921
  0
LINE
  5
A3B3
  8
0
 10
18.079411170754199
 20
8.9944096788310617
 30
0.0
 11
18.077372032074919
 21
8.995737083881524
 31
0.0
  0
LINE
  5
A3B4
  8
0
 10
18.077372032074919
 20
8.995737083881524
 30
0.0
 11
18.07702417044441
 21
9.0012388284981082
 31
0.0
  0
LINE
  5
A3B5
  8
0
 10
18.07702417044441
 20
9.0012388284981082
 30
0.0
 11
18.079411170754199
 21
9.0017104066077955
 31
0.0
  0
ARC
  5
A3B6
  8
0
 10
-18.917718402106001
 20
9.0540308335196151
 30
0.0
 40
0.648219043878366
210
0.0
220
0.0
230
-1.0
 50
355.37033100000082
 51
6.7915170000004892
  0
LINE
  5
A3B7
  8
0
 10
18.33488715634746
 20
8.9165367047007695
 30
0.0
 11
18.33561490034435
 21
8.9124642492943167
 31
0.0
  0
LINE
  5
A3B8
  8
0
 10
18.33561490034435
 20
8.9124642492943167
 30
0.0
 11
18.336549323636351
 21
8.9084325475514561
 31
0.0
  0
LINE
  5
A3B9
  8
0
 10
18.336549323636351
 20
8.9084325475514561
 30
0.0
 11
18.337320732273032
 21
8.9043688250728756
 31
0.0
  0
ARC
  5
A3BA
  8
0
 10
-19.10327711094288
 20
9.0540308335196151
 30
0.0
 40
0.7805942214231352
210
0.0
220
0.0
230
-1.0
 50
349.85491799999681
 51
4.559676999999855
  0
ARC
  5
A3BB
  8
0
 10
-18.935727155052849
 20
9.0598717068382904
 30
0.0
 40
0.6666542548073707
210
0.0
220
0.0
230
-1.0
 50
346.0804279999968
 51
354.99492799999939
  0
ARC
  5
A3BC
  8
0
 10
-18.248720811628701
 20
8.9971139755234582
 30
0.0
 40
0.4607303579617594
210
0.0
220
0.0
230
-1.0
 50
190.07226000000131
 51
209.11230400000079
  0
ARC
  5
A3BD
  8
0
 10
-18.517651328236312
 20
8.8352302343930642
 30
0.0
 40
0.1798590178533
210
0.0
220
0.0
230
-1.0
 50
226.4760059999989
 51
259.16177100000021
  0
ARC
  5
A3BE
  8
0
 10
-18.519836015714951
 20
8.8167615472402741
 30
0.0
 40
0.1317260298995508
210
0.0
220
0.0
230
-1.0
 50
244.85521399999951
 51
281.72511200000019
  0
ARC
  5
A3BF
  8
0
 10
-18.519836015714951
 20
8.8435294269334008
 30
0.0
 40
0.1876356902039766
210
0.0
220
0.0
230
-1.0
 50
260.29334799999953
 51
279.70665200000002
  0
ARC
  5
A3C0
  8
0
 10
-18.52258106607119
 20
8.8285146127898262
 30
0.0
 40
0.1437934808558416
210
0.0
220
0.0
230
-1.0
 50
281.84460100000052
 51
326.2472740000004
  0
ARC
  5
A3C1
  8
0
 10
-18.501584196273161
 20
8.8471797908216541
 30
0.0
 40
0.1670565454601588
210
0.0
220
0.0
230
-1.0
 50
206.37842099999841
 51
243.62157900000099
  0
ARC
  5
A3C2
  8
0
 10
-18.40120064483132
 20
8.9536472820775543
 30
0.0
 40
0.3459272869656934
210
0.0
220
0.0
230
-1.0
 50
205.07776900000059
 51
225.9975869999983
  0
ARC
  5
A3C3
  8
0
 10
-18.008876767088431
 20
9.0481448400726041
 30
0.0
 40
0.7058520019674078
210
0.0
220
0.0
230
-1.0
 50
181.39897300000311
 51
190.7459399999986
  0
ARC
  5
A3C4
  8
0
 10
-18.605130523125471
 20
9.1813045256460502
 30
0.0
 40
0.2623444334358478
210
0.0
220
0.0
230
-1.0
 50
15.164220999999531
 51
52.215913999998691
  0
ARC
  5
A3C5
  8
0
 10
-18.548065205353971
 20
9.2119672912108381
 30
0.0
 40
0.233738272406426
210
0.0
220
0.0
230
-1.0
 50
36.106316999998938
 51
68.885398000000023
  0
ARC
  5
A3C6
  8
0
 10
17.932520411447619
 20
9.2602356395480001
 30
0.0
 40
0.2564060424212939
 50
0.4164509999972098
 51
35.888960000001347
  0
ARC
  5
A3C7
  8
0
 10
-18.08055663980528
 20
9.3288779088218181
 30
0.0
 40
0.1447904901315694
210
0.0
220
0.0
230
-1.0
 50
100.1933809999995
 51
161.82479299999909
  0
ARC
  5
A3C8
  8
0
 10
-17.920362720235719
 20
9.2539290100710243
 30
0.0
 40
0.321073373984193
210
0.0
220
0.0
230
-1.0
 50
158.03154799999879
 51
174.62583799999891
  0
ARC
  5
A3C9
  8
0
 10
17.55741641215895
 20
9.2341125410357563
 30
0.0
 40
0.6321228021553388
 50
354.36622600000231
 51
2.537458999998476
  0
ARC
  5
A3CA
  8
0
 10
-17.75088278726594
 20
9.2304621771472721
 30
0.0
 40
0.4920626480034998
210
0.0
220
0.0
230
-1.0
 50
173.7536839999984
 51
186.2463160000014
  0
ARC
  5
A3CB
  8
0
 10
-18.680449115826711
 20
9.1039191399936481
 30
0.0
 40
0.4044728360268242
210
0.0
220
0.0
230
-1.0
 50
21.161260000002532
 51
37.421465000000516
  0
ARC
  5
A3CC
  8
0
 10
18.118638653931072
 20
9.6389337430075557
 30
0.0
 40
0.0419423262639052
 50
269.94752660459
 51
300.19915416281572
  0
ARC
  5
A3CD
  8
0
 10
18.06442255539439
 20
9.3447005188020285
 30
0.0
 40
0.1004243051056796
 50
40.969227999999809
 51
84.215621000000283
  0
ARC
  5
A3CE
  8
0
 10
-18.519531818724261
 20
9.2736581498263604
 30
0.0
 40
0.135277420604333
210
0.0
220
0.0
230
-1.0
 50
96.325964000000056
 51
130.53142199999971
  0
ARC
  5
A3CF
  8
0
 10
-18.506062732829982
 20
9.2363656364502642
 30
0.0
 40
0.2036416916713906
210
0.0
220
0.0
230
-1.0
 50
102.88433400000039
 51
137.4627059999977
  0
ARC
  5
A3D0
  8
0
 10
-18.51050633767494
 20
9.2868390490980328
 30
0.0
 40
0.121386243191857
210
0.0
220
0.0
230
-1.0
 50
57.000210000000273
 51
78.239519999999928
  0
ARC
  5
A3D1
  8
0
 10
-18.501584196273161
 20
9.2414132688124901
 30
0.0
 40
0.171603489952675
210
0.0
220
0.0
230
-1.0
 50
128.08877299999921
 51
156.1612599999996
  0
ARC
  5
A3D2
  8
0
 10
-18.449506835856312
 20
9.1647570826451101
 30
0.0
 40
0.2940857156038358
210
0.0
220
0.0
230
-1.0
 50
134.63121999999939
 51
150.23159600000031
  0
ARC
  5
A3D3
  8
0
 10
-18.27954950282459
 20
9.1061984341918052
 30
0.0
 40
0.4306847193065062
210
0.0
220
0.0
230
-1.0
 50
151.64118499999981
 51
170.87613400000231
  0
ARC
  5
A3D4
  8
0
 10
-18.517402439789361
 20
9.2608818762168941
 30
0.0
 40
0.1482108869169128
210
0.0
220
0.0
230
-1.0
 50
77.675272999999422
 51
96.599917000000019
  0
ARC
  5
A3D5
  8
0
 10
-18.516945416559341
 20
9.2654448310777262
 30
0.0
 40
0.1729163401230494
210
0.0
220
0.0
230
-1.0
 50
72.122851000000537
 51
101.5174889999993
  0
ARC
  5
A3D6
  8
0
 10
-18.03015454606923
 20
10.516768612979821
 30
0.0
 40
0.0273908285546296
210
0.0
220
0.0
230
-1.0
 50
112.1340119999995
 51
182.92360400000081
  0
ARC
  5
A3D7
  8
0
 10
-18.070893655014672
 20
11.07630186242203
 30
0.0
 40
0.5079187342075562
210
0.0
220
0.0
230
-1.0
 50
263.81138399999998
 51
272.6087950000001
  0
ARC
  5
A3D8
  8
0
 10
-17.961384193851949
 20
10.33163927310099
 30
0.0
 40
0.2393360792304392
210
0.0
220
0.0
230
-1.0
 50
103.8242999999996
 51
113.0455979999996
  0
LINE
  5
A3D9
  8
0
 10
18.035056629632241
 20
10.54434428850935
 30
0.0
 11
18.060457806099379
 21
10.549584045286791
 31
0.0
  0
ARC
  5
A3DA
  8
0
 10
17.87493144379885
 20
10.420622802737171
 30
0.0
 40
0.205577545020086
 50
319.99137528222752
 51
345.40900459038647
  0
LINE
  5
A3DB
  8
0
 10
18.062946690568719
 20
10.194968950486761
 30
0.0
 11
18.051618627513282
 21
10.18008513026256
 31
0.0
  0
LINE
  5
A3DC
  8
0
 10
18.040607860840439
 20
10.011091330282611
 30
0.0
 11
18.06308932839212
 21
10.012852470754961
 31
0.0
  0
LINE
  5
A3DD
  8
0
 10
18.037669230581049
 20
9.7904204290841736
 30
0.0
 11
18.067390295413681
 21
9.7524642131827441
 31
0.0
  0
LINE
  5
A3DE
  8
0
 10
18.064729663361089
 20
9.8866310964476725
 30
0.0
 11
18.041590315236238
 21
9.8826270489769286
 31
0.0
  0
ARC
  5
A3DF
  8
0
 10
18.071799242132101
 20
10.411948235089991
 30
0.0
 40
0.0618102736370894
 50
52.243595062829897
 51
126.0030158204668
  0
ARC
  5
A3E0
  8
0
 10
-18.027090743842361
 20
10.533623163947579
 30
0.0
 40
0.0354746088719904
210
0.0
220
0.0
230
-1.0
 50
210.96375700000019
 51
292.16634599999878
  0
LINE
  5
A3E1
  8
0
 10
18.051618627513282
 20
10.18008513026256
 30
0.0
 11
18.044019524697841
 21
10.15728054437613
 31
0.0
  0
LINE
  5
A3E2
  8
0
 10
17.976182140284511
 20
10.15343368960861
 30
0.0
 11
17.979197911407599
 21
10.174838096044811
 31
0.0
  0
LINE
  5
A3E3
  8
0
 10
17.89063292247511
 20
10.16202834621185
 30
0.0
 11
17.900220221890031
 21
10.1482827175987
 31
0.0
  0
ARC
  5
A3E4
  8
0
 10
-17.824664384645779
 20
10.166159021137901
 30
0.0
 40
0.0358850564862318
210
0.0
220
0.0
230
-1.0
 50
158.10020099999781
 51
259.5213870000004
  0
ARC
  5
A3E5
  8
0
 10
4.6109889789946923
 20
7.3627217640309901
 30
0.0
 40
13.43197968337164
 50
12.020444000001859
 51
12.5091040000021
  0
ARC
  5
A3E6
  8
0
 10
17.619472598261041
 20
10.42776406667303
 30
0.0
 40
0.301699373299211
 50
236.18175400000169
 51
257.42106500000028
  0
ARC
  5
A3E7
  8
0
 10
-24.183586634261641
 20
17.62103025383362
 30
0.0
 40
9.9441021081732863
210
0.0
220
0.0
230
-1.0
 50
311.0653919999998
 51
313.01071529566309
  0
ARC
  5
A3E8
  8
0
 10
18.588629655740181
 20
10.733173478868579
 30
0.0
 40
1.05086233149703
 50
208.56810299999711
 51
214.64690200000121
  0
ARC
  5
A3E9
  8
0
 10
17.892028735461121
 20
9.8242459700593301
 30
0.0
 40
0.3335367176747872
 50
119.7448810000009
 51
125.19750300000059
  0
ARC
  5
A3EA
  8
0
 10
17.726548483498188
 20
10.28418454255233
 30
0.0
 40
0.19807590558324
 50
264.35945099999969
 51
280.61965500000008
  0
ARC
  5
A3EB
  8
0
 10
17.706870285822539
 20
9.6636750790992121
 30
0.0
 40
0.0534964612107664
 50
42.965933000000753
 51
89.7753119999999
  0
ARC
  5
A3EC
  8
0
 10
-17.40680833651631
 20
9.7728716103433726
 30
0.0
 40
0.176422610700025
210
0.0
220
0.0
230
-1.0
 50
121.046586
 51
146.4073529999998
  0
ARC
  5
A3ED
  8
0
 10
17.376117916679821
 20
9.7354219042635961
 30
0.0
 40
0.2804521595662558
 50
28.789011999997768
 51
77.471192000000713
  0
ARC
  5
A3EE
  8
0
 10
17.50400728022781
 20
9.7860146669267962
 30
0.0
 40
0.0377218823343608
 50
307.5507999999993
 51
29.82933499999946
  0
ARC
  5
A3EF
  8
0
 10
-17.547195975466739
 20
9.6765299490600665
 30
0.0
 40
0.0106017745465712
210
0.0
220
0.0
230
-1.0
 50
211.86597799999711
 51
9.2461130000011398
  0
ARC
  5
A3F0
  8
0
 10
-17.544720190389359
 20
9.7420880392753606
 30
0.0
 40
0.0225964511031738
210
0.0
220
0.0
230
-1.0
 50
297.46491099999861
 51
38.34557500000075
  0
ARC
  5
A3F1
  8
0
 10
17.476040078427651
 20
9.8190382340176221
 30
0.0
 40
0.0296555678729252
 50
66.085250000001281
 51
142.9294577609416
  0
ARC
  5
A3F2
  8
0
 10
17.367600400940312
 20
9.830329909873166
 30
0.0
 40
0.0397275447897666
 50
352.66540846050913
 51
62.650123999999352
  0
ARC
  5
A3F3
  8
0
 10
-17.34569967309816
 20
9.9398393710357542
 30
0.0
 40
0.1482356302128068
210
0.0
220
0.0
230
-1.0
 50
223.97405474886031
 51
234.3529789999981
  0
ARC
  5
A3F4
  8
0
 10
-17.42113907130291
 20
9.8291131219100354
 30
0.0
 40
0.0146523976332142
210
0.0
220
0.0
230
-1.0
 50
221.6335389999993
 51
344.74623610313921
  0
ARC
  5
A3F5
  8
0
 10
-17.42833645943206
 20
9.7299012383034498
 30
0.0
 40
0.0337338452314498
210
0.0
220
0.0
230
-1.0
 50
67.093030000000098
 51
155.40798099999881
  0
ARC
  5
A3F6
  8
0
 10
17.302960723649299
 20
9.579067562021919
 30
0.0
 40
0.3249537049755656
 50
43.994913999999973
 51
55.276012999998258
  0
LINE
  5
A3F7
  8
0
 10
17.539000353279899
 20
9.6698243511154942
 30
0.0
 11
17.539000353279899
 21
9.6698243511154942
 31
0.0
  0
ARC
  5
A3F8
  8
0
 10
18.263294612910219
 20
9.7281211764868623
 30
0.0
 40
0.8044409367129516
 50
178.8732990000031
 51
184.5981099999978
  0
ARC
  5
A3F9
  8
0
 10
-17.57167873900984
 20
9.7021450822623994
 30
0.0
 40
0.0423445122025528
210
0.0
220
0.0
230
-1.0
 50
325.61965500000082
 51
28.02068400000239
  0
ARC
  5
A3FA
  8
0
 10
17.642937975696469
 20
9.7583662169977252
 30
0.0
 40
0.0081711095969866
 50
1.2188750000012081
 51
141.91122700000059
  0
ARC
  5
A3FB
  8
0
 10
-17.595745232986712
 20
9.8175536362639324
 30
0.0
 40
0.0677747984295834
210
0.0
220
0.0
230
-1.0
 50
233.0272379999993
 51
258.08485299999933
  0
ARC
  5
A3FC
  8
0
 10
17.611286933784111
 20
9.7348688188260422
 30
0.0
 40
0.0164441033535366
 50
95.403790999999785
 51
190.8564130000025
  0
ARC
  5
A3FD
  8
0
 10
17.542816412093512
 20
9.8570992450543145
 30
0.0
 40
0.0802148543122774
 50
337.71441199999703
 51
9.6052040000027841
  0
ARC
  5
A3FE
  8
0
 10
-17.322112034671221
 20
9.7867133011641272
 30
0.0
 40
0.2463355209924464
210
0.0
220
0.0
230
-1.0
 50
160.11919100000131
 51
181.4587560000019
  0
ARC
  5
A3FF
  8
0
 10
-17.733849211274919
 20
9.7923067415240421
 30
0.0
 40
0.121761759094248
210
0.0
220
0.0
230
-1.0
 50
357.85241499999842
 51
16.397617999997738
  0
LINE
  5
A400
  8
0
 10
17.598021179907018
 20
9.7415919804584465
 30
0.0
 11
17.598021179907018
 21
9.7415919804584465
 31
0.0
  0
LINE
  5
A401
  8
0
 10
17.56836750382401
 20
9.7804430588869256
 30
0.0
 11
17.56799053243363
 21
9.7656451124544184
 31
0.0
  0
LINE
  5
A402
  8
0
 10
17.56799053243363
 20
9.7656451124544184
 30
0.0
 11
17.612726411409952
 21
9.7729502066947518
 31
0.0
  0
LINE
  5
A403
  8
0
 10
17.612726411409952
 20
9.7729502066947518
 30
0.0
 11
17.612171870484321
 21
9.7877437866636647
 31
0.0
  0
ARC
  5
A404
  8
0
 10
17.698866557344829
 20
9.5863682897986564
 30
0.0
 40
0.1658455794493478
 50
135.5201810000006
 51
149.34263499999781
  0
ARC
  5
A405
  8
0
 10
-17.483193801916979
 20
9.7694919672217129
 30
0.0
 40
0.1181274055738212
210
0.0
220
0.0
230
-1.0
 50
198.6215790000025
 51
214.50852300000159
  0
ARC
  5
A406
  8
0
 10
-17.741149939051649
 20
9.8218123941335236
 30
0.0
 40
0.1100494472084356
210
0.0
220
0.0
230
-1.0
 50
288.03428599999961
 51
324.90418299999811
  0
ARC
  5
A407
  8
0
 10
-17.375372706827012
 20
9.7576180961686916
 30
0.0
 40
0.2065846883947796
210
0.0
220
0.0
230
-1.0
 50
96.29390800000013
 51
126.3419160000003
  0
ARC
  5
A408
  8
0
 10
17.70305545179087
 20
10.091654046225351
 30
0.0
 40
0.0061014056698554
 50
122.4711920000004
 51
311.26860299999788
  0
ARC
  5
A409
  8
0
 10
17.649080135030161
 20
10.07692887419239
 30
0.0
 40
0.0336668927837366
 50
238.7994850000004
 51
269.30972299999951
  0
ARC
  5
A40A
  8
0
 10
17.801667674344309
 20
10.20848897846076
 30
0.0
 40
0.233843067541977
 50
203.8764569999976
 51
222.4805659999999
  0
ARC
  5
A40B
  8
0
 10
-17.541599624130711
 20
10.072467803491451
 30
0.0
 40
0.062043086710144
210
0.0
220
0.0
230
-1.0
 50
101.30993199999961
 51
138.1798300000018
  0
LINE
  5
A40C
  8
0
 10
17.648675509367909
 20
10.04326489238473
 30
0.0
 11
17.663630648503819
 21
10.04308441187343
 31
0.0
  0
LINE
  5
A40D
  8
0
 10
17.663630648503819
 20
10.04308441187343
 30
0.0
 11
17.673989356555438
 21
10.062890692492591
 31
0.0
  0
LINE
  5
A40E
  8
0
 10
17.658408357582179
 20
10.11627071466385
 30
0.0
 11
17.655213561435879
 21
10.11754863312215
 31
0.0
  0
LINE
  5
A40F
  8
0
 10
17.655213561435879
 20
10.11754863312215
 30
0.0
 11
17.653702764898359
 21
10.12131106958622
 31
0.0
  0
LINE
  5
A410
  8
0
 10
17.653702764898359
 20
10.12131106958622
 30
0.0
 11
17.65110762980547
 21
10.12357144244058
 31
0.0
  0
LINE
  5
A411
  8
0
 10
17.63164047788889
 20
10.04813204423567
 30
0.0
 11
17.630659478981109
 21
10.04872588333725
 31
0.0
  0
ARC
  5
A412
  8
0
 10
17.646241933442329
 20
10.08585101559424
 30
0.0
 40
0.0327630347396096
 50
344.9315119999971
 51
68.198591000001144
  0
LINE
  5
A413
  8
0
 10
17.673989356555438
 20
10.062890692492591
 30
0.0
 11
17.677876964986751
 21
10.07733495534284
 31
0.0
  0
ARC
  5
A414
  8
0
 10
17.903465960116119
 20
9.9721701258413304
 30
0.0
 40
0.1058634637383726
 50
204.1325169999981
 51
243.07312100000109
  0
ARC
  5
A415
  8
0
 10
17.890602981393471
 20
9.7920646610966742
 30
0.0
 40
0.0475906008671706
 50
79.43378225686908
 51
114.5137970194357
  0
ARC
  5
A416
  8
0
 10
17.892028735461121
 20
9.9903346160033362
 30
0.0
 40
0.1183224409649856
 50
252.03086000000081
 51
277.0884759999995
  0
ARC
  5
A417
  8
0
 10
17.875836431530502
 20
9.8252764555588765
 30
0.0
 40
0.0112509221917896
 50
116.2683000299469
 51
232.4058030000005
  0
ARC
  5
A418
  8
0
 10
-17.848832762782202
 20
9.8145116663570153
 30
0.0
 40
0.0202240056733396
210
0.0
220
0.0
230
-1.0
 50
174.7547549999999
 51
226.21887499999909
  0
ARC
  5
A419
  8
0
 10
-17.803204669665721
 20
9.7548905116684601
 30
0.0
 40
0.0506087730311402
210
0.0
220
0.0
230
-1.0
 50
170.31121299999941
 51
207.18111099999879
  0
ARC
  5
A41A
  8
0
 10
-17.834841156698179
 20
9.7573240875940357
 30
0.0
 40
0.019238640301562
210
0.0
220
0.0
230
-1.0
 50
124.6951540000011
 51
161.5650510000014
  0
ARC
  5
A41B
  8
0
 10
17.867692976205412
 20
9.778009482961572
 30
0.0
 40
0.0224363474238598
 50
102.528807999999
 51
192.52880799999949
  0
ARC
  5
A41C
  8
0
 10
-17.844574004912481
 20
9.689185417165838
 30
0.0
 40
0.0092670920562902
210
0.0
220
0.0
230
-1.0
 50
113.19859099999979
 51
203.1985909999978
  0
ARC
  5
A41D
  8
0
 10
-17.960573487039412
 20
9.8903571457119543
 30
0.0
 40
0.286738412211319
210
0.0
220
0.0
230
-1.0
 50
303.5776790000013
 51
318.44049499999818
  0
ARC
  5
A41E
  8
0
 10
17.87012655213098
 20
9.6636328699473761
 30
0.0
 40
0.0277459676251078
 50
127.8749840000016
 51
195.25511900000041
  0
ARC
  5
A41F
  8
0
 10
17.87621049194491
 20
9.7147365088962871
 30
0.0
 40
0.0327630347396096
 50
148.6713069999989
 51
211.3286930000009
  0
LINE
  5
A420
  8
0
 10
18.029832883222639
 20
9.8304812806243262
 30
0.0
 11
18.037669230581049
 21
9.7904204290841736
 31
0.0
  0
LINE
  5
A421
  8
0
 10
18.038242692850591
 20
9.8621701652245921
 30
0.0
 11
18.029832883222639
 21
9.8304812806243262
 31
0.0
  0
LINE
  5
A422
  8
0
 10
18.041590315236238
 20
9.8826270489769286
 30
0.0
 11
18.038242692850591
 21
9.8621701652245921
 31
0.0
  0
ARC
  5
A423
  8
0
 10
-17.90784697897735
 20
9.8643999728310536
 30
0.0
 40
0.0086033895311342
210
0.0
220
0.0
230
-1.0
 50
81.869897999999509
 51
261.86989799999952
  0
ARC
  5
A424
  8
0
 10
-17.836057944660961
 20
9.8863021561612641
 30
0.0
 40
0.0790897620930986
210
0.0
220
0.0
230
-1.0
 50
202.61986499999699
 51
216.86989799999981
  0
ARC
  5
A425
  8
0
 10
-17.529604947574111
 20
9.7281211764868623
 30
0.0
 40
0.4639717297238703
210
0.0
220
0.0
230
-1.0
 50
137.2165990000006
 51
143.83848199999801
  0
ARC
  5
A426
  8
0
 10
17.76730942476355
 20
9.8400642135752552
 30
0.0
 40
0.192508664007096
 50
47.689770000002021
 51
68.299463000000586
  0
ARC
  5
A427
  8
0
 10
-17.860392248428671
 20
10.035964164608
 30
0.0
 40
0.0121678796278604
210
0.0
220
0.0
230
-1.0
 50
90.0
 51
143.13010200000019
  0
ARC
  5
A428
  8
0
 10
17.825106852995891
 20
9.9860758581337379
 30
0.0
 40
0.0354746088719904
 50
67.833654000001147
 51
112.1663459999987
  0
ARC
  5
A429
  8
0
 10
-17.783736062261141
 20
10.032313800719511
 30
0.0
 40
0.0310222710990688
210
0.0
220
0.0
230
-1.0
 50
205.55996499999949
 51
244.4400350000011
  0
ARC
  5
A42A
  8
0
 10
-17.58175217141466
 20
10.287834906440811
 30
0.0
 40
0.356034195594385
210
0.0
220
0.0
230
-1.0
 50
232.7776379999994
 51
239.84222700000129
  0
ARC
  5
A42B
  8
0
 10
-17.47710986210307
 20
10.32190496939868
 30
0.0
 40
0.444162538128753
210
0.0
220
0.0
230
-1.0
 50
230.33510599999889
 51
233.91492699999921
  0
ARC
  5
A42C
  8
0
 10
17.945565950335698
 20
10.216045872124131
 30
0.0
 40
0.1950630454361502
 50
220.446232000002
 51
236.70643699999999
  0
ARC
  5
A42D
  8
0
 10
-17.810505397442459
 20
10.204081760815811
 30
0.0
 40
0.076075446458015
210
0.0
220
0.0
230
-1.0
 50
254.22244200000071
 51
324.657627999998
  0
ARC
  5
A42E
  8
0
 10
-17.710730239981999
 20
10.12316536129036
 30
0.0
 40
0.0183638920173102
210
0.0
220
0.0
230
-1.0
 50
136.78991099999709
 51
210.5297060000018
  0
ARC
  5
A42F
  8
0
 10
-17.780085698372801
 20
10.064558681733381
 30
0.0
 40
0.0302057423345678
210
0.0
220
0.0
230
-1.0
 50
55.669783000000209
 51
124.33021699999939
  0
ARC
  5
A430
  8
0
 10
17.854308308614751
 20
10.072467803491451
 30
0.0
 40
0.025083880084515
 50
230.9061410000015
 51
284.03624299999922
  0
ARC
  5
A431
  8
0
 10
17.747232423377572
 20
9.9684338881613623
 30
0.0
 40
0.020977948454109
 50
253.1416009999995
 51
330.46121799999742
  0
ARC
  5
A432
  8
0
 10
-17.710382378351479
 20
9.9099421921557624
 30
0.0
 40
0.0983153030027166
210
0.0
220
0.0
230
-1.0
 50
149.0362429999995
 51
168.888733999999
  0
ARC
  5
A433
  8
0
 10
17.740845742060959
 20
9.9558089853035181
 30
0.0
 40
0.0074593759680364
 50
106.5873389999995
 51
272.3373059999999
  0
ARC
  5
A434
  8
0
 10
-17.795903941889001
 20
9.9520072506638808
 30
0.0
 40
0.0310222710990688
210
0.0
220
0.0
230
-1.0
 50
11.309932000002499
 51
48.179829999999427
  0
ARC
  5
A435
  8
0
 10
-17.75574993911707
 20
9.9288882793709927
 30
0.0
 40
0.0501692156570238
210
0.0
220
0.0
230
-1.0
 50
112.83365400000091
 51
140.90614099999971
  0
LINE
  5
A436
  8
0
 10
18.020273238079561
 20
10.012370704229159
 30
0.0
 11
18.040607860840439
 21
10.011091330282611
 31
0.0
  0
LINE
  5
A437
  8
0
 10
18.044019524697841
 20
10.15728054437613
 30
0.0
 11
18.032375620747722
 21
10.137002685647071
 31
0.0
  0
ARC
  5
A438
  8
0
 10
-17.87012655213098
 20
9.9812101617703703
 30
0.0
 40
0.0398570832212114
210
0.0
220
0.0
230
-1.0
 50
148.73626799999801
 51
192.3384419719857
  0
ARC
  5
A439
  8
0
 10
17.878644067870479
 20
9.947140098812266
 30
0.0
 40
0.0397275447897666
 50
40.031624428020287
 51
62.650123999999352
  0
LINE
  5
A43A
  8
0
 10
17.96598062493625
 20
10.06984501412694
 30
0.0
 11
17.969802736407861
 21
10.050700980544651
 31
0.0
  0
LINE
  5
A43B
  8
0
 10
17.969802736407861
 20
10.050700980544651
 30
0.0
 11
17.973156180745502
 21
10.0309718407891
 31
0.0
  0
LINE
  5
A43C
  8
0
 10
17.973156180745502
 20
10.0309718407891
 30
0.0
 11
17.99879605724362
 21
10.014373455708419
 31
0.0
  0
LINE
  5
A43D
  8
0
 10
17.970878342035231
 20
10.08577096375461
 30
0.0
 11
17.96598062493625
 21
10.06984501412694
 31
0.0
  0
LINE
  5
A43E
  8
0
 10
18.00928721470267
 20
10.13278759241709
 30
0.0
 11
17.984666179800161
 21
10.131757106917339
 31
0.0
  0
LINE
  5
A43F
  8
0
 10
17.984666179800161
 20
10.131757106917339
 30
0.0
 11
17.976182140284511
 21
10.15343368960861
 31
0.0
  0
LINE
  5
A440
  8
0
 10
17.900220221890031
 20
10.1482827175987
 30
0.0
 11
17.903289846068851
 21
10.13546423483761
 31
0.0
  0
LINE
  5
A441
  8
0
 10
17.903289846068851
 20
10.13546423483761
 30
0.0
 11
17.911632703249111
 21
10.12491485785903
 31
0.0
  0
LINE
  5
A442
  8
0
 10
17.911632703249111
 20
10.12491485785903
 30
0.0
 11
17.920605786730668
 21
10.11446445406361
 31
0.0
  0
LINE
  5
A443
  8
0
 10
17.920605786730668
 20
10.11446445406361
 30
0.0
 11
17.937979946912211
 21
10.117378341027219
 31
0.0
  0
LINE
  5
A444
  8
0
 10
17.937979946912211
 20
10.117378341027219
 30
0.0
 11
17.951047318120231
 21
10.112358362936661
 31
0.0
  0
LINE
  5
A445
  8
0
 10
17.951047318120231
 20
10.112358362936661
 30
0.0
 11
17.963143878836391
 21
10.099721816174419
 31
0.0
  0
LINE
  5
A446
  8
0
 10
17.963143878836391
 20
10.099721816174419
 30
0.0
 11
17.970878342035231
 21
10.08577096375461
 31
0.0
  0
LINE
  5
A447
  8
0
 10
17.99879605724362
 20
10.014373455708419
 30
0.0
 11
18.020273238079561
 21
10.012370704229159
 31
0.0
  0
LINE
  5
A448
  8
0
 10
18.032375620747722
 20
10.137002685647071
 30
0.0
 11
18.00928721470267
 21
10.13278759241709
 31
0.0
  0
ARC
  5
A449
  8
0
 10
17.626773326037728
 20
10.65225853483116
 30
0.0
 40
0.0952369458959074
 50
287.8562229999992
 51
355.23635800000221
  0
ARC
  5
A44A
  8
0
 10
-30.192351948801921
 20
13.166711561752649
 30
0.0
 40
12.79985251475232
210
0.0
220
0.0
230
-1.0
 50
346.92944999999759
 51
347.62183800000122
  0
ARC
  5
A44B
  8
0
 10
-17.44747321557406
 20
10.30087171240096
 30
0.0
 40
0.1959552595763272
210
0.0
220
0.0
230
-1.0
 50
127.19517800000079
 51
145.90113699999739
  0
ARC
  5
A44C
  8
0
 10
17.612171870484321
 20
10.41559618704513
 30
0.0
 40
0.0054420696086806
 50
243.4349489999997
 51
26.56505100000237
  0
ARC
  5
A44D
  8
0
 10
17.6540637259208
 20
10.449839453074659
 30
0.0
 40
0.124631981417949
 50
180.0799099999989
 51
205.5286220000001
  0
ARC
  5
A44E
  8
0
 10
-17.224022332307559
 20
10.43263121852417
 30
0.0
 40
0.1606174665757504
210
0.0
220
0.0
230
-1.0
 50
167.753667000002
 51
198.4295387765639
  0
ARC
  5
A44F
  8
0
 10
-20.740485691703402
 20
9.9483568867754002
 30
0.0
 40
3.3454711744005761
210
0.0
220
0.0
230
-1.0
 50
8.0156543690893525
 51
9.8425980000020008
  0
ARC
  5
A450
  8
0
 10
18.676845327554169
 20
11.11828104713798
 30
0.0
 40
1.345469111802633
 50
212.4612569999974
 51
221.27853800000011
  0
ARC
  5
A451
  8
0
 10
17.3321630443907
 20
10.426131786480481
 30
0.0
 40
0.09619915949456
 50
317.2386040915377
 51
353.272091005444
  0
LINE
  5
A452
  8
0
 10
17.651369300440841
 20
10.338541727814111
 30
0.0
 11
17.652993928979232
 21
10.334600736328181
 31
0.0
  0
LINE
  5
A453
  8
0
 10
17.640312224186239
 20
10.337055649935101
 30
0.0
 11
17.638927392506531
 21
10.34022799522676
 31
0.0
  0
LINE
  5
A454
  8
0
 10
17.655857963583792
 20
10.326657986733141
 30
0.0
 11
17.657079031069792
 21
10.32284498722265
 31
0.0
  0
LINE
  5
A455
  8
0
 10
17.656078175790221
 20
10.30340099092632
 30
0.0
 11
17.65550547774663
 21
10.30395610371805
 31
0.0
  0
LINE
  5
A456
  8
0
 10
17.652993928979232
 20
10.334600736328181
 30
0.0
 11
17.654493206456891
 21
10.33060802953468
 31
0.0
  0
LINE
  5
A457
  8
0
 10
17.654493206456891
 20
10.33060802953468
 30
0.0
 11
17.655857963583792
 21
10.326657986733141
 31
0.0
  0
LINE
  5
A458
  8
0
 10
17.65550547774663
 20
10.30395610371805
 30
0.0
 11
17.654877687208291
 21
10.304727436074471
 31
0.0
  0
LINE
  5
A459
  8
0
 10
17.654877687208291
 20
10.304727436074471
 30
0.0
 11
17.654183526985971
 21
10.30575208872458
 31
0.0
  0
LINE
  5
A45A
  8
0
 10
17.654183526985971
 20
10.30575208872458
 30
0.0
 11
17.653411719890489
 21
10.30706716239956
 31
0.0
  0
LINE
  5
A45B
  8
0
 10
17.653411719890489
 20
10.30706716239956
 30
0.0
 11
17.652550988732621
 21
10.30870975782863
 31
0.0
  0
LINE
  5
A45C
  8
0
 10
17.652550988732621
 20
10.30870975782863
 30
0.0
 11
17.651593816096959
 21
10.310702623408099
 31
0.0
  0
LINE
  5
A45D
  8
0
 10
17.651593816096959
 20
10.310702623408099
 30
0.0
 11
17.650547723663031
 21
10.313011098198089
 31
0.0
  0
LINE
  5
A45E
  8
0
 10
17.650547723663031
 20
10.313011098198089
 30
0.0
 11
17.649423992884191
 21
10.315586168924471
 31
0.0
  0
LINE
  5
A45F
  8
0
 10
17.649423992884191
 20
10.315586168924471
 30
0.0
 11
17.64823390521379
 21
10.31837882231388
 31
0.0
  0
LINE
  5
A460
  8
0
 10
17.64823390521379
 20
10.31837882231388
 30
0.0
 11
17.646988742105108
 21
10.32134004509177
 31
0.0
  0
LINE
  5
A461
  8
0
 10
17.646988742105108
 20
10.32134004509177
 30
0.0
 11
17.645699785011491
 21
10.32442082398461
 31
0.0
  0
LINE
  5
A462
  8
0
 10
17.645699785011491
 20
10.32442082398461
 30
0.0
 11
17.644378315386231
 21
10.32757214571868
 31
0.0
  0
LINE
  5
A463
  8
0
 10
17.644378315386231
 20
10.32757214571868
 30
0.0
 11
17.643035614682731
 21
10.33074499701956
 31
0.0
  0
LINE
  5
A464
  8
0
 10
17.643035614682731
 20
10.33074499701956
 30
0.0
 11
17.641680536645762
 21
10.333902416452011
 31
0.0
  0
LINE
  5
A465
  8
0
 10
17.641680536645762
 20
10.333902416452011
 30
0.0
 11
17.640312224186239
 21
10.337055649935101
 31
0.0
  0
LINE
  5
A466
  8
0
 10
17.644693270638321
 20
10.32644525121008
 30
0.0
 11
17.644693270638321
 21
10.32644525121008
 31
0.0
  0
LINE
  5
A467
  8
0
 10
17.657079031069792
 20
10.32284498722265
 30
0.0
 11
17.658147239624821
 21
10.319263410303391
 31
0.0
  0
LINE
  5
A468
  8
0
 10
17.658147239624821
 20
10.319263410303391
 30
0.0
 11
17.659053419958791
 21
10.316007635274421
 31
0.0
  0
LINE
  5
A469
  8
0
 10
17.659053419958791
 20
10.316007635274421
 30
0.0
 11
17.659788402781619
 21
10.313172041435999
 31
0.0
  0
LINE
  5
A46A
  8
0
 10
17.659788402781619
 20
10.313172041435999
 30
0.0
 11
17.660347385030281
 21
10.310825478771211
 31
0.0
  0
LINE
  5
A46B
  8
0
 10
17.660347385030281
 20
10.310825478771211
 30
0.0
 11
17.660743028550179
 21
10.30893467999794
 31
0.0
  0
LINE
  5
A46C
  8
0
 10
17.660743028550179
 20
10.30893467999794
 30
0.0
 11
17.66099236141369
 21
10.30744084851881
 31
0.0
  0
LINE
  5
A46D
  8
0
 10
17.66099236141369
 20
10.30744084851881
 30
0.0
 11
17.661112411693271
 21
10.30628518773482
 31
0.0
  0
LINE
  5
A46E
  8
0
 10
17.661112411693271
 20
10.30628518773482
 30
0.0
 11
17.66112020746133
 21
10.30540890104907
 31
0.0
  0
LINE
  5
A46F
  8
0
 10
17.66112020746133
 20
10.30540890104907
 30
0.0
 11
17.661032776790272
 21
10.30475319186324
 31
0.0
  0
LINE
  5
A470
  8
0
 10
17.661032776790272
 20
10.30475319186324
 30
0.0
 11
17.66086714775258
 21
10.304259263579061
 31
0.0
  0
LINE
  5
A471
  8
0
 10
17.66086714775258
 20
10.304259263579061
 30
0.0
 11
17.660640348420621
 21
10.303868319598431
 31
0.0
  0
LINE
  5
A472
  8
0
 10
17.660640348420621
 20
10.303868319598431
 30
0.0
 11
17.660367280489861
 21
10.303531855026661
 31
0.0
  0
LINE
  5
A473
  8
0
 10
17.660367280489861
 20
10.303531855026661
 30
0.0
 11
17.660054340147809
 21
10.303242531777631
 31
0.0
  0
LINE
  5
A474
  8
0
 10
17.660054340147809
 20
10.303242531777631
 30
0.0
 11
17.659705797204872
 21
10.303003303468801
 31
0.0
  0
LINE
  5
A475
  8
0
 10
17.659705797204872
 20
10.303003303468801
 30
0.0
 11
17.659325921471599
 21
10.30281712371788
 31
0.0
  0
LINE
  5
A476
  8
0
 10
17.659325921471599
 20
10.30281712371788
 30
0.0
 11
17.658918982758419
 21
10.30268694614117
 31
0.0
  0
LINE
  5
A477
  8
0
 10
17.658918982758419
 20
10.30268694614117
 30
0.0
 11
17.658489250875832
 21
10.3026157243571
 31
0.0
  0
LINE
  5
A478
  8
0
 10
17.658489250875832
 20
10.3026157243571
 30
0.0
 11
17.658040995634352
 21
10.30260641198196
 31
0.0
  0
LINE
  5
A479
  8
0
 10
17.658040995634352
 20
10.30260641198196
 30
0.0
 11
17.657578486844422
 21
10.30266196263301
 31
0.0
  0
LINE
  5
A47A
  8
0
 10
17.657578486844422
 20
10.30266196263301
 30
0.0
 11
17.657103403149911
 21
10.30279102111353
 31
0.0
  0
LINE
  5
A47B
  8
0
 10
17.657103403149911
 20
10.30279102111353
 30
0.0
 11
17.65660705852823
 21
10.30302499696789
 31
0.0
  0
LINE
  5
A47C
  8
0
 10
17.65660705852823
 20
10.30302499696789
 30
0.0
 11
17.656078175790221
 21
10.30340099092632
 31
0.0
  0
LINE
  5
A47D
  8
0
 10
17.63164047788889
 20
10.3669261240218
 30
0.0
 11
17.63430389370442
 21
10.36412776262727
 31
0.0
  0
LINE
  5
A47E
  8
0
 10
17.63430389370442
 20
10.36412776262727
 30
0.0
 11
17.636844148798101
 21
10.36131546038699
 31
0.0
  0
LINE
  5
A47F
  8
0
 10
17.636844148798101
 20
10.36131546038699
 30
0.0
 11
17.639263550061521
 21
10.35845685543492
 31
0.0
  0
LINE
  5
A480
  8
0
 10
17.639263550061521
 20
10.35845685543492
 30
0.0
 11
17.641564404386362
 21
10.35551958590553
 31
0.0
  0
LINE
  5
A481
  8
0
 10
17.641564404386362
 20
10.35551958590553
 30
0.0
 11
17.643749018664192
 21
10.35247128993228
 31
0.0
  0
LINE
  5
A482
  8
0
 10
17.643749018664192
 20
10.35247128993228
 30
0.0
 11
17.645819699786649
 21
10.34927960564935
 31
0.0
  0
LINE
  5
A483
  8
0
 10
17.645819699786649
 20
10.34927960564935
 30
0.0
 11
17.647778754645302
 21
10.345912171191451
 31
0.0
  0
LINE
  5
A484
  8
0
 10
17.647778754645302
 20
10.345912171191451
 30
0.0
 11
17.649628490131811
 21
10.3423366246925
 31
0.0
  0
LINE
  5
A485
  8
0
 10
17.649628490131811
 20
10.3423366246925
 30
0.0
 11
17.651369300440841
 21
10.338541727814111
 31
0.0
  0
LINE
  5
A486
  8
0
 10
17.638927392506531
 20
10.34022799522676
 30
0.0
 11
17.63752275680903
 21
10.343442750083559
 31
0.0
  0
LINE
  5
A487
  8
0
 10
17.63752275680903
 20
10.343442750083559
 30
0.0
 11
17.636095032296119
 21
10.34672321226409
 31
0.0
  0
LINE
  5
A488
  8
0
 10
17.636095032296119
 20
10.34672321226409
 30
0.0
 11
17.634640934170211
 21
10.350092679525231
 31
0.0
  0
LINE
  5
A489
  8
0
 10
17.634640934170211
 20
10.350092679525231
 30
0.0
 11
17.63315717763367
 21
10.35357444962434
 31
0.0
  0
LINE
  5
A48A
  8
0
 10
17.63315717763367
 20
10.35357444962434
 30
0.0
 11
17.63164047788889
 21
10.35719182031948
 31
0.0
  0
LINE
  5
A48B
  8
0
 10
17.63164047788889
 20
10.3669261240218
 30
0.0
 11
17.63093956660915
 21
10.367298072272879
 31
0.0
  0
LINE
  5
A48C
  8
0
 10
17.63093956660915
 20
10.367298072272879
 30
0.0
 11
17.630510450655731
 21
10.36680697868403
 31
0.0
  0
LINE
  5
A48D
  8
0
 10
17.630510450655731
 20
10.36680697868403
 30
0.0
 11
17.630317362548311
 21
10.365657401859581
 31
0.0
  0
LINE
  5
A48E
  8
0
 10
17.630317362548311
 20
10.365657401859581
 30
0.0
 11
17.63032453480654
 21
10.364053900402251
 31
0.0
  0
LINE
  5
A48F
  8
0
 10
17.63032453480654
 20
10.364053900402251
 30
0.0
 11
17.630496199950059
 21
10.36220103291588
 31
0.0
  0
LINE
  5
A490
  8
0
 10
17.630496199950059
 20
10.36220103291588
 30
0.0
 11
17.63079659049852
 21
10.36030335800409
 31
0.0
  0
LINE
  5
A491
  8
0
 10
17.63079659049852
 20
10.36030335800409
 30
0.0
 11
17.631189938971591
 21
10.358565434270981
 31
0.0
  0
LINE
  5
A492
  8
0
 10
17.631189938971591
 20
10.358565434270981
 30
0.0
 11
17.63164047788889
 21
10.35719182031948
 31
0.0
  0
ARC
  5
A493
  8
0
 10
17.267825243479852
 20
9.5139694060126203
 30
0.0
 40
1.054463208793599
 50
72.610478999999856
 51
75.498730000000094
  0
ARC
  5
A494
  8
0
 10
-17.56091085269394
 20
11.07695370110172
 30
0.0
 40
0.5079187342075562
210
0.0
220
0.0
230
-1.0
 50
267.39120499999922
 51
275.78789220674309
  0
ARC
  5
A495
  8
0
 10
17.60240948615812
 20
10.92687658479689
 30
0.0
 40
0.3694509314281618
 50
256.3929548767112
 51
277.39035656052778
  0
ARC
  5
A496
  8
0
 10
17.554982836233371
 20
10.416812975008259
 30
0.0
 40
0.0416196791816588
 50
74.744880999999538
 51
127.8749840000016
  0
LINE
  5
A497
  8
0
 10
17.536732472279589
 20
10.476434129696591
 30
0.0
 11
17.543369497531131
 21
10.467078252872611
 31
0.0
  0
LINE
  5
A498
  8
0
 10
17.518793582756452
 20
10.538219595031681
 30
0.0
 11
17.53186532042843
 21
10.53483995191025
 31
0.0
  0
ARC
  5
A499
  8
0
 10
-17.527867094909571
 20
10.49838434413048
 30
0.0
 40
0.0864181441416962
210
0.0
220
0.0
230
-1.0
 50
14.64864200000166
 51
48.391215914724903
  0
ARC
  5
A49A
  8
0
 10
17.46228426139859
 20
10.48910997463414
 30
0.0
 40
0.0901733031656052
 50
73.03881876547284
 51
140.05411400000079
  0
ARC
  5
A49B
  8
0
 10
17.45764125469849
 20
10.50523095965309
 30
0.0
 40
0.0768381221667468
 50
147.0648840000004
 51
176.06521800000141
  0
LINE
  5
A49C
  8
0
 10
17.380985068530968
 20
10.51050419265469
 30
0.0
 11
17.379983692791232
 21
10.495937668812751
 31
0.0
  0
LINE
  5
A49D
  8
0
 10
17.379983692791232
 20
10.495937668812751
 30
0.0
 11
17.377887790080241
 21
10.48096943028508
 31
0.0
  0
LINE
  5
A49E
  8
0
 10
17.497795257470411
 20
10.51293776858005
 30
0.0
 11
17.48630272427167
 21
10.520023084133751
 31
0.0
  0
ARC
  5
A49F
  8
0
 10
-17.42752720810752
 20
10.39896723671631
 30
0.0
 40
0.1338917960342706
210
0.0
220
0.0
230
-1.0
 50
121.6558269999997
 51
144.64895300000001
  0
ARC
  5
A4A0
  8
0
 10
17.520834113081659
 20
10.69496561032906
 30
0.0
 40
0.1238437846381486
 50
254.92820235261081
 51
264.83689421914022
  0
ARC
  5
A4A1
  8
0
 10
17.498429026837371
 20
10.51432858770543
 30
0.0
 40
0.0561234118320286
 50
72.30057821114552
 51
119.8650034551282
  0
LINE
  5
A4A2
  8
0
 10
17.48630272427167
 20
10.520023084133751
 30
0.0
 11
17.518793582756452
 21
10.538219595031681
 31
0.0
  0
LINE
  5
A4A3
  8
0
 10
17.377887790080241
 20
10.48096943028508
 30
0.0
 11
17.380985068530968
 21
10.46670128148228
 31
0.0
  0
ARC
  5
A4A4
  8
0
 10
-17.574468723355839
 20
10.63752586541659
 30
0.0
 40
0.0686349918338974
210
0.0
220
0.0
230
-1.0
 50
211.95923899999781
 51
261.99302600000033
  0
ARC
  5
A4A5
  8
0
 10
-17.605085099442672
 20
10.57699670616168
 30
0.0
 40
0.0609150835149774
210
0.0
220
0.0
230
-1.0
 50
223.8814911584208
 51
291.28884900000031
  0
LINE
  5
A4A6
  8
0
 10
17.543369497531131
 20
10.467078252872611
 30
0.0
 11
17.559384231926511
 21
10.47267897067263
 31
0.0
  0
LINE
  5
A4A7
  8
0
 10
17.559384231926511
 20
10.47267897067263
 30
0.0
 11
17.5708010797496
 21
10.47156697784521
 31
0.0
  0
LINE
  5
A4A8
  8
0
 10
17.617039022335469
 20
10.41802976297047
 30
0.0
 11
17.615189097095399
 21
10.4217296134509
 31
0.0
  0
LINE
  5
A4A9
  8
0
 10
17.615189097095399
 20
10.4217296134509
 30
0.0
 11
17.61524003917518
 21
10.42611063231219
 31
0.0
  0
LINE
  5
A4AA
  8
0
 10
17.61524003917518
 20
10.42611063231219
 30
0.0
 11
17.614605446409868
 21
10.430197642598831
 31
0.0
  0
ARC
  5
A4AB
  8
0
 10
17.426287132336832
 20
10.38957642818081
 30
0.0
 40
0.2658550704768048
 50
7.2000759999996893
 51
33.103049558948548
  0
ARC
  5
A4AC
  8
0
 10
17.566037267546001
 20
10.422648026374871
 30
0.0
 40
0.0491518295493832
 50
8.8358109999969923
 51
84.437342999999785
  0
LINE
  5
A4AD
  8
0
 10
17.977928725877032
 20
10.43747217159147
 30
0.0
 11
17.943331776265271
 21
10.35688471235266
 31
0.0
  0
LINE
  5
A4AE
  8
0
 10
17.900979986622762
 20
10.40608020654189
 30
0.0
 11
17.911372170898218
 21
10.46857886099405
 31
0.0
  0
LINE
  5
A4AF
  8
0
 10
17.859721268463542
 20
10.43137949884952
 30
0.0
 11
17.85338116276273
 21
10.39745352920294
 31
0.0
  0
ARC
  5
A4B0
  8
0
 10
20.671630921182441
 20
10.64671021459889
 30
0.0
 40
2.8620031830002461
 50
182.19141899999809
 51
187.4244890000007
  0
LINE
  5
A4B1
  8
0
 10
17.87932960271554
 20
10.348763089347569
 30
0.0
 11
17.883665501448942
 21
10.35914799618307
 31
0.0
  0
LINE
  5
A4B2
  8
0
 10
17.85338116276273
 20
10.39745352920294
 30
0.0
 11
17.851337657619489
 21
10.385987194787941
 31
0.0
  0
LINE
  5
A4B3
  8
0
 10
17.851337657619489
 20
10.385987194787941
 30
0.0
 11
17.85065503375041
 21
10.373538405977341
 31
0.0
  0
LINE
  5
A4B4
  8
0
 10
17.85065503375041
 20
10.373538405977341
 30
0.0
 11
17.850605547158619
 21
10.372686945501069
 31
0.0
  0
LINE
  5
A4B5
  8
0
 10
17.850605547158619
 20
10.372686945501069
 30
0.0
 11
17.85042070018342
 21
10.37005251223238
 31
0.0
  0
LINE
  5
A4B6
  8
0
 10
17.85042070018342
 20
10.37005251223238
 30
0.0
 11
17.85073217461408
 21
10.368262261999901
 31
0.0
  0
LINE
  5
A4B7
  8
0
 10
17.85073217461408
 20
10.368262261999901
 30
0.0
 11
17.850711797782161
 21
10.366474922743681
 31
0.0
  0
LINE
  5
A4B8
  8
0
 10
17.850711797782161
 20
10.366474922743681
 30
0.0
 11
17.85058225935073
 21
10.35522254506415
 31
0.0
  0
LINE
  5
A4B9
  8
0
 10
17.85058225935073
 20
10.35522254506415
 30
0.0
 11
17.87932960271554
 21
10.348763089347569
 31
0.0
  0
ARC
  5
A4BA
  8
0
 10
-17.791036790037872
 20
10.26228381471036
 30
0.0
 40
0.0450211546230834
210
0.0
220
0.0
230
-1.0
 50
161.07535599999699
 51
198.9246440000025
  0
ARC
  5
A4BB
  8
0
 10
17.874993703982121
 20
10.23794805545457
 30
0.0
 40
0.0425002494178854
 50
166.759479999999
 51
203.62937799999861
  0
ARC
  5
A4BC
  8
0
 10
-17.707854195706311
 20
10.126558103803511
 30
0.0
 40
0.1591823554138998
210
0.0
220
0.0
230
-1.0
 50
143.64770099999751
 51
160.55775699999791
  0
LINE
  5
A4BD
  8
0
 10
17.9345100635351
 20
10.293889736494741
 30
0.0
 11
17.910426103702289
 21
10.24012692098106
 31
0.0
  0
LINE
  5
A4BE
  8
0
 10
17.943331776265271
 20
10.35688471235266
 30
0.0
 11
17.9345100635351
 21
10.293889736494741
 31
0.0
  0
LINE
  5
A4BF
  8
0
 10
17.883665501448942
 20
10.35914799618307
 30
0.0
 11
17.893276088671779
 21
10.38216508331629
 31
0.0
  0
LINE
  5
A4C0
  8
0
 10
17.893276088671779
 20
10.38216508331629
 30
0.0
 11
17.900979986622762
 21
10.40608020654189
 31
0.0
  0
LINE
  5
A4C1
  8
0
 10
17.979197911407599
 20
10.174838096044811
 30
0.0
 11
17.986265761105319
 21
10.202154694711661
 31
0.0
  0
LINE
  5
A4C2
  8
0
 10
17.897678939852891
 20
10.175935533992281
 30
0.0
 11
17.88166857192153
 21
10.17063755769481
 31
0.0
  0
LINE
  5
A4C3
  8
0
 10
17.88166857192153
 20
10.17063755769481
 30
0.0
 11
17.89063292247511
 21
10.16202834621185
 31
0.0
  0
LINE
  5
A4C4
  8
0
 10
17.986265761105319
 20
10.202154694711661
 30
0.0
 11
18.005734368509899
 21
10.22742924372343
 31
0.0
  0
LINE
  5
A4C5
  8
0
 10
17.910426103702289
 20
10.24012692098106
 30
0.0
 11
17.897678939852891
 21
10.175935533992281
 31
0.0
  0
LINE
  5
A4C6
  8
0
 10
18.005734368509899
 20
10.22742924372343
 30
0.0
 11
18.032393086603641
 21
10.288456399814081
 31
0.0
  0
LINE
  5
A4C7
  8
0
 10
17.882198369551251
 20
10.631328617480881
 30
0.0
 11
17.87987249973721
 21
10.631781274247031
 31
0.0
  0
ARC
  5
A4C8
  8
0
 10
-17.837274732623751
 20
10.65530050473806
 30
0.0
 40
0.0138737115565508
210
0.0
220
0.0
230
-1.0
 50
142.1250160000013
 51
195.25511900000041
  0
LINE
  5
A4C9
  8
0
 10
17.87987249973721
 20
10.631781274247031
 30
0.0
 11
17.87644337002391
 21
10.63296749696201
 31
0.0
  0
LINE
  5
A4CA
  8
0
 10
17.87644337002391
 20
10.63296749696201
 30
0.0
 11
17.875043190573891
 21
10.63202725171775
 31
0.0
  0
LINE
  5
A4CB
  8
0
 10
17.875043190573891
 20
10.63202725171775
 30
0.0
 11
17.870884861375711
 21
10.631765263878821
 31
0.0
  0
LINE
  5
A4CC
  8
0
 10
17.870884861375711
 20
10.631765263878821
 30
0.0
 11
17.86803501588394
 21
10.631864237062461
 31
0.0
  0
LINE
  5
A4CD
  8
0
 10
17.86803501588394
 20
10.631864237062461
 30
0.0
 11
17.863994581213259
 21
10.63081919668296
 31
0.0
  0
LINE
  5
A4CE
  8
0
 10
17.863994581213259
 20
10.63081919668296
 30
0.0
 11
17.863972748893332
 21
10.62876986958803
 31
0.0
  0
LINE
  5
A4CF
  8
0
 10
17.863972748893332
 20
10.62876986958803
 30
0.0
 11
17.862376078564189
 21
10.624947758116139
 31
0.0
  0
LINE
  5
A4D0
  8
0
 10
17.862376078564189
 20
10.624947758116139
 30
0.0
 11
17.861537717479781
 21
10.62225656081568
 31
0.0
  0
LINE
  5
A4D1
  8
0
 10
17.861537717479781
 20
10.62225656081568
 30
0.0
 11
17.85875482443571
 21
10.618042923073499
 31
0.0
  0
LINE
  5
A4D2
  8
0
 10
17.85875482443571
 20
10.618042923073499
 30
0.0
 11
17.860367505132789
 21
10.6154012123652
 31
0.0
  0
LINE
  5
A4D3
  8
0
 10
17.860367505132789
 20
10.6154012123652
 30
0.0
 11
17.861264085736948
 21
10.59149773304352
 31
0.0
  0
LINE
  5
A4D4
  8
0
 10
17.861264085736948
 20
10.59149773304352
 30
0.0
 11
17.86260167920323
 21
10.569895380240011
 31
0.0
  0
LINE
  5
A4D5
  8
0
 10
17.86260167920323
 20
10.569895380240011
 30
0.0
 11
17.865236112471941
 21
10.524529274962321
 31
0.0
  0
LINE
  5
A4D6
  8
0
 10
17.865236112471941
 20
10.524529274962321
 30
0.0
 11
17.865891082069119
 21
10.50069129260077
 31
0.0
  0
ARC
  5
A4D7
  8
0
 10
17.843357216949691
 20
10.62488080566845
 30
0.0
 40
0.0277459676251078
 50
127.8749840000016
 51
164.74488099999951
  0
LINE
  5
A4D8
  8
0
 10
17.723855456578129
 20
10.64941327198493
 30
0.0
 11
17.723855456578129
 21
10.64941327198493
 31
0.0
  0
ARC
  5
A4D9
  8
0
 10
18.19378778376808
 20
10.56525819549187
 30
0.0
 40
0.3830888064224554
 50
169.93931000000191
 51
184.18934299999751
  0
ARC
  5
A4DA
  8
0
 10
17.86890976416819
 20
10.49711952506413
 30
0.0
 40
0.1556033104372362
 50
96.736010999999706
 51
105.8838539999997
  0
LINE
  5
A4DB
  8
0
 10
17.863064524385219
 20
10.454079289600481
 30
0.0
 11
17.859721268463542
 21
10.43137949884952
 31
0.0
  0
LINE
  5
A4DC
  8
0
 10
17.865891082069119
 20
10.50069129260077
 30
0.0
 11
17.863064524385219
 21
10.454079289600481
 31
0.0
  0
LINE
  5
A4DD
  8
0
 10
18.04047395594505
 20
10.54214067968698
 30
0.0
 11
18.035056629632241
 21
10.54434428850935
 31
0.0
  0
ARC
  5
A4DE
  8
0
 10
-18.036612546297562
 20
10.58705558368637
 30
0.0
 40
0.0892738115854596
210
0.0
220
0.0
230
-1.0
 50
284.86799099999968
 51
353.02238199999681
  0
LINE
  5
A4DF
  8
0
 10
17.99919049448993
 20
10.47347803358138
 30
0.0
 11
18.007597393141921
 21
10.482097433480231
 31
0.0
  0
ARC
  5
A4E0
  8
0
 10
17.994953878172751
 20
10.470948602340499
 30
0.0
 40
0.0168568949263376
 50
41.405285992195509
 51
165.1775633013595
  0
ARC
  5
A4E1
  8
0
 10
-17.910059320727871
 20
10.663042245376801
 30
0.0
 40
0.0696974980693446
210
0.0
220
0.0
230
-1.0
 50
200.56829398561311
 51
210.83899700000109
  0
ARC
  5
A4E2
  8
0
 10
18.275397473773239
 20
10.799925125759721
 30
0.0
 40
0.3407201125343774
 50
205.34315814419199
 51
215.8151843503623
  0
ARC
  5
A4E3
  8
0
 10
17.960976085967101
 20
10.62771335402156
 30
0.0
 40
0.0089352421494932
 50
357.43450161877962
 51
129.43210283820571
  0
ARC
  5
A4E4
  8
0
 10
-17.996427978277762
 20
10.599815846927861
 30
0.0
 40
0.0538748880891448
210
0.0
220
0.0
230
-1.0
 50
334.01367400000089
 51
40.236357999997693
  0
LINE
  5
A4E5
  8
0
 10
17.910482867734039
 20
10.50731667394802
 30
0.0
 11
17.906467176359261
 21
10.56685632130916
 31
0.0
  0
LINE
  5
A4E6
  8
0
 10
17.906467176359261
 20
10.56685632130916
 30
0.0
 11
17.904716224302732
 21
10.588173398465861
 31
0.0
  0
LINE
  5
A4E7
  8
0
 10
17.904716224302732
 20
10.588173398465861
 30
0.0
 11
17.899454635205291
 21
10.60916735728776
 31
0.0
  0
LINE
  5
A4E8
  8
0
 10
17.899454635205291
 20
10.60916735728776
 30
0.0
 11
17.899364394949671
 21
10.60953705123824
 31
0.0
  0
LINE
  5
A4E9
  8
0
 10
17.899364394949671
 20
10.60953705123824
 30
0.0
 11
17.898670127176668
 21
10.612411640025799
 31
0.0
  0
LINE
  5
A4EA
  8
0
 10
17.898670127176668
 20
10.612411640025799
 30
0.0
 11
17.897411130062071
 21
10.61471131105576
 31
0.0
  0
LINE
  5
A4EB
  8
0
 10
17.897411130062071
 20
10.61471131105576
 30
0.0
 11
17.895600502997809
 21
10.61931938604401
 31
0.0
  0
LINE
  5
A4EC
  8
0
 10
17.895600502997809
 20
10.61931938604401
 30
0.0
 11
17.893832085085371
 21
10.621058694197011
 31
0.0
  0
LINE
  5
A4ED
  8
0
 10
17.893832085085371
 20
10.621058694197011
 30
0.0
 11
17.891691062246551
 21
10.62431316535071
 31
0.0
  0
LINE
  5
A4EE
  8
0
 10
17.891691062246551
 20
10.62431316535071
 30
0.0
 11
17.89038403402817
 21
10.625199557539171
 31
0.0
  0
LINE
  5
A4EF
  8
0
 10
17.89038403402817
 20
10.625199557539171
 30
0.0
 11
17.887804909303231
 21
10.62781506946383
 31
0.0
  0
LINE
  5
A4F0
  8
0
 10
17.887804909303231
 20
10.62781506946383
 30
0.0
 11
17.885815257215761
 21
10.628788790931591
 31
0.0
  0
LINE
  5
A4F1
  8
0
 10
17.885815257215761
 20
10.628788790931591
 30
0.0
 11
17.882198369551251
 21
10.631328617480881
 31
0.0
  0
LINE
  5
A4F2
  8
0
 10
17.978071363700419
 20
10.466170028364759
 30
0.0
 11
17.97756776485458
 21
10.451907701513599
 31
0.0
  0
LINE
  5
A4F3
  8
0
 10
17.97756776485458
 20
10.451907701513599
 30
0.0
 11
17.977928725877032
 21
10.43747217159147
 31
0.0
  0
LINE
  5
A4F4
  8
0
 10
17.978657925361919
 20
10.47526100637355
 30
0.0
 11
17.978071363700419
 21
10.466170028364759
 31
0.0
  0
ARC
  5
A4F5
  8
0
 10
18.004445564995262
 20
10.46486750302709
 30
0.0
 40
0.0100874675929062
 50
121.39602558081189
 51
235.9605520503797
  0
LINE
  5
A4F6
  8
0
 10
17.911372170898218
 20
10.46857886099405
 30
0.0
 11
17.910482867734039
 21
10.50731667394802
 31
0.0
  0
ARC
  5
A4F7
  8
0
 10
-18.05733578435278
 20
10.6368740267369
 30
0.0
 40
0.0686349918338974
210
0.0
220
0.0
230
-1.0
 50
278.0069739999995
 51
328.04076100000208
  0
ARC
  5
A4F8
  8
0
 10
18.032304301836032
 20
10.59480896822946
 30
0.0
 40
0.0336916360796306
 50
170.1975030000022
 51
245.9474710000006
  0
ARC
  5
A4F9
  8
0
 10
18.00916537796229
 20
10.51289449381942
 30
0.0
 40
0.0573309938490632
 50
259.58265735866331
 51
297.30588215302879
  0
ARC
  5
A4FA
  8
0
 10
18.386741827101272
 20
9.8481654597485448
 30
0.0
 40
0.3562277754975556
 50
51.07805153336394
 51
74.69865720946278
  0
LINE
  5
A4FB
  8
0
 10
18.217366689267031
 20
10.16426979772222
 30
0.0
 11
18.238624091415961
 21
10.15787729445332
 31
0.0
  0
LINE
  5
A4FC
  8
0
 10
18.13043184688755
 20
10.13288219913669
 30
0.0
 11
18.191924759136061
 21
10.163381950046171
 31
0.0
  0
LINE
  5
A4FD
  8
0
 10
18.394505400060002
 20
10.147864992544321
 30
0.0
 11
18.3546701491587
 21
10.165891211347111
 31
0.0
  0
LINE
  5
A4FE
  8
0
 10
18.389727032976481
 20
10.06941418968062
 30
0.0
 11
18.396924421105641
 21
10.0769201412645
 31
0.0
  0
LINE
  5
A4FF
  8
0
 10
18.39334328528636
 20
10.00896220435242
 30
0.0
 11
18.392496057190922
 21
10.01008050145149
 31
0.0
  0
LINE
  5
A500
  8
0
 10
18.392450453795639
 20
9.9731222689415464
 30
0.0
 11
18.39300733312
 21
9.9715639790538262
 31
0.0
  0
ARC
  5
A501
  8
0
 10
16.080259113144589
 20
10.65286692881249
 30
0.0
 40
2.463893740482153
 50
339.2022019999992
 51
340.34807899999799
  0
LINE
  5
A502
  8
0
 10
18.391493017494891
 20
9.9338308020001023
 30
0.0
 11
18.394117598739751
 21
9.9306234015741666
 31
0.0
  0
LINE
  5
A503
  8
0
 10
18.393574781788871
 20
9.9041963789752501
 30
0.0
 11
18.391187524210221
 21
9.906849795654578
 31
0.0
  0
LINE
  5
A504
  8
0
 10
18.286058445132682
 20
9.9051973012963064
 30
0.0
 11
18.30261171008576
 21
9.8888740034462863
 31
0.0
  0
LINE
  5
A505
  8
0
 10
18.21562883660248
 20
9.8938619608009049
 30
0.0
 11
18.189550858218219
 21
9.9069249655449241
 31
0.0
  0
LINE
  5
A506
  8
0
 10
18.089304122647778
 20
9.9012412849292541
 30
0.0
 11
18.103821159897571
 21
9.9084124742744262
 31
0.0
  0
LINE
  5
A507
  8
0
 10
18.0665228245694
 20
9.9775292326344243
 30
0.0
 11
18.070654954983691
 21
9.9008570360988344
 31
0.0
  0
LINE
  5
A508
  8
0
 10
18.236175960610439
 20
9.881976445843744
 30
0.0
 11
18.21562883660248
 21
9.8938619608009049
 31
0.0
  0
ARC
  5
A509
  8
0
 10
-18.214726434046359
 20
9.7299012383034498
 30
0.0
 40
0.0337338452314498
210
0.0
220
0.0
230
-1.0
 50
24.592019000001031
 51
112.9069699999996
  0
LINE
  5
A50A
  8
0
 10
18.187327553639282
 20
9.8480161689424222
 30
0.0
 11
18.18892063191694
 21
9.8485817293148941
 31
0.0
  0
LINE
  5
A50B
  8
0
 10
18.18892063191694
 20
9.8485817293148941
 30
0.0
 11
18.189822545520041
 21
9.8492051813427643
 31
0.0
  0
LINE
  5
A50C
  8
0
 10
18.189822545520041
 20
9.8492051813427643
 30
0.0
 11
18.190309167462988
 21
9.8501512229540822
 31
0.0
  0
LINE
  5
A50D
  8
0
 10
18.190309167462988
 20
9.8501512229540822
 30
0.0
 11
18.19045929877532
 21
9.8513433216330597
 31
0.0
  0
LINE
  5
A50E
  8
0
 10
18.19045929877532
 20
9.8513433216330597
 30
0.0
 11
18.1903517404868
 21
9.8527049448655362
 31
0.0
  0
LINE
  5
A50F
  8
0
 10
18.1903517404868
 20
9.8527049448655362
 30
0.0
 11
18.190065293627011
 21
9.8541595601345762
 31
0.0
  0
LINE
  5
A510
  8
0
 10
18.190065293627011
 20
9.8541595601345762
 30
0.0
 11
18.189678759225679
 21
9.855630634926678
 31
0.0
  0
LINE
  5
A511
  8
0
 10
18.189678759225679
 20
9.855630634926678
 30
0.0
 11
18.189270938312411
 21
9.8570416367260805
 31
0.0
  0
LINE
  5
A512
  8
0
 10
18.189270938312411
 20
9.8570416367260805
 30
0.0
 11
18.18892063191694
 21
9.8583160330174398
 31
0.0
  0
LINE
  5
A513
  8
0
 10
18.18892063191694
 20
9.8583160330174398
 30
0.0
 11
18.188633707712071
 21
9.8595201233631542
 31
0.0
  0
LINE
  5
A514
  8
0
 10
18.188633707712071
 20
9.8595201233631542
 30
0.0
 11
18.188371960322439
 21
9.860704792041588
 31
0.0
  0
LINE
  5
A515
  8
0
 10
18.188371960322439
 20
9.860704792041588
 30
0.0
 11
18.188121882421552
 21
9.8618784535919968
 31
0.0
  0
LINE
  5
A516
  8
0
 10
18.188121882421552
 20
9.8618784535919968
 30
0.0
 11
18.187869966682761
 21
9.8630495225545438
 31
0.0
  0
LINE
  5
A517
  8
0
 10
18.187869966682761
 20
9.8630495225545438
 30
0.0
 11
18.187602705779561
 21
9.8642264134684865
 31
0.0
  0
LINE
  5
A518
  8
0
 10
18.187602705779561
 20
9.8642264134684865
 30
0.0
 11
18.187306592385351
 21
9.8654175408746561
 31
0.0
  0
LINE
  5
A519
  8
0
 10
18.187306592385351
 20
9.8654175408746561
 30
0.0
 11
18.186968119173549
 21
9.8666313193130009
 31
0.0
  0
LINE
  5
A51A
  8
0
 10
18.186968119173549
 20
9.8666313193130009
 30
0.0
 11
18.18657377881766
 21
9.8678761633229861
 31
0.0
  0
LINE
  5
A51B
  8
0
 10
18.18657377881766
 20
9.8678761633229861
 30
0.0
 11
18.186118122713449
 21
9.8691549791426461
 31
0.0
  0
LINE
  5
A51C
  8
0
 10
18.18648528780087
 20
9.8797930162820649
 30
0.0
 11
18.18725227880407
 21
9.8802023310604401
 31
0.0
  0
LINE
  5
A51D
  8
0
 10
18.18725227880407
 20
9.8802023310604401
 30
0.0
 11
18.18802377272328
 21
9.8806460829121061
 31
0.0
  0
LINE
  5
A51E
  8
0
 10
18.18802377272328
 20
9.8806460829121061
 30
0.0
 11
18.188765622445601
 21
9.8811562783594056
 31
0.0
  0
LINE
  5
A51F
  8
0
 10
18.188765622445601
 20
9.8811562783594056
 30
0.0
 11
18.189447269830069
 21
9.8817572503942301
 31
0.0
  0
LINE
  5
A520
  8
0
 10
18.189447269830069
 20
9.8817572503942301
 30
0.0
 11
18.190052512623058
 21
9.882442637890108
 31
0.0
  0
LINE
  5
A521
  8
0
 10
18.190052512623058
 20
9.882442637890108
 30
0.0
 11
18.190568737542979
 21
9.8831984061903224
 31
0.0
  0
LINE
  5
A522
  8
0
 10
18.190568737542979
 20
9.8831984061903224
 30
0.0
 11
18.190983331308111
 21
9.8840105206377302
 31
0.0
  0
LINE
  5
A523
  8
0
 10
18.190983331308111
 20
9.8840105206377302
 30
0.0
 11
18.191283680636658
 21
9.8848649465762701
 31
0.0
  0
LINE
  5
A524
  8
0
 10
18.191283680636658
 20
9.8848649465762701
 30
0.0
 11
18.191457172247048
 21
9.885747649348783
 31
0.0
  0
LINE
  5
A525
  8
0
 10
18.191457172247048
 20
9.885747649348783
 30
0.0
 11
18.191491192857551
 21
9.8866445942987848
 31
0.0
  0
LINE
  5
A526
  8
0
 10
18.191491192857551
 20
9.8866445942987848
 30
0.0
 11
18.191373129186442
 21
9.8875417467693261
 31
0.0
  0
LINE
  5
A527
  8
0
 10
18.191373129186442
 20
9.8875417467693261
 30
0.0
 11
18.191095955377119
 21
9.8884236090354918
 31
0.0
  0
LINE
  5
A528
  8
0
 10
18.191095955377119
 20
9.8884236090354918
 30
0.0
 11
18.190674995273401
 21
9.8892688310968424
 31
0.0
  0
LINE
  5
A529
  8
0
 10
18.190674995273401
 20
9.8892688310968424
 30
0.0
 11
18.19013116014424
 21
9.8900545998849321
 31
0.0
  0
LINE
  5
A52A
  8
0
 10
18.19013116014424
 20
9.8900545998849321
 30
0.0
 11
18.189485361258502
 21
9.8907581023315743
 31
0.0
  0
LINE
  5
A52B
  8
0
 10
18.189485361258502
 20
9.8907581023315743
 30
0.0
 11
18.18875850988514
 21
9.891356525367426
 31
0.0
  0
LINE
  5
A52C
  8
0
 10
18.18875850988514
 20
9.891356525367426
 30
0.0
 11
18.187971517293001
 21
9.8918270559240664
 31
0.0
  0
LINE
  5
A52D
  8
0
 10
18.187971517293001
 20
9.8918270559240664
 30
0.0
 11
18.18714529475103
 21
9.8921468809328381
 31
0.0
  0
LINE
  5
A52E
  8
0
 10
18.18714529475103
 20
9.8921468809328381
 30
0.0
 11
18.186300753528158
 21
9.8922931873248583
 31
0.0
  0
LINE
  5
A52F
  8
0
 10
18.111884563383011
 20
9.8247612128088804
 30
0.0
 11
18.113329862960839
 21
9.842644793788164
 31
0.0
  0
LINE
  5
A530
  8
0
 10
18.140547488444199
 20
9.714743786336383
 30
0.0
 11
18.126258962809441
 21
9.7470308765020945
 31
0.0
  0
LINE
  5
A531
  8
0
 10
18.126258962809441
 20
9.7470308765020945
 30
0.0
 11
18.123994223491142
 21
9.7780662469933741
 31
0.0
  0
LINE
  5
A532
  8
0
 10
18.123994223491142
 20
9.7780662469933741
 30
0.0
 11
18.117748724509902
 21
9.8024180166164481
 31
0.0
  0
LINE
  5
A533
  8
0
 10
18.117748724509902
 20
9.8024180166164481
 30
0.0
 11
18.111884563383011
 21
9.8247612128088804
 31
0.0
  0
LINE
  5
A534
  8
0
 10
18.067390295413681
 20
9.7524642131827441
 30
0.0
 11
18.103387424475439
 21
9.7145618503373043
 31
0.0
  0
LINE
  5
A535
  8
0
 10
18.113329862960839
 20
9.842644793788164
 30
0.0
 11
18.120562182801841
 21
9.8503312258835596
 31
0.0
  0
LINE
  5
A536
  8
0
 10
18.120562182801841
 20
9.8503312258835596
 30
0.0
 11
18.12519447367788
 21
9.8602923671251101
 31
0.0
  0
LINE
  5
A537
  8
0
 10
18.125375481597231
 20
9.8602139893610001
 30
0.0
 11
18.10840740256592
 21
9.8675612927536296
 31
0.0
  0
LINE
  5
A538
  8
0
 10
18.10840740256592
 20
9.8675612927536296
 30
0.0
 11
18.089730580629968
 21
9.8641612728001746
 31
0.0
  0
LINE
  5
A539
  8
0
 10
18.089730580629968
 20
9.8641612728001746
 30
0.0
 11
18.073659082202809
 21
9.8691492301547878
 31
0.0
  0
LINE
  5
A53A
  8
0
 10
18.073659082202809
 20
9.8691492301547878
 30
0.0
 11
18.074918079317442
 21
9.8892422419089563
 31
0.0
  0
LINE
  5
A53B
  8
0
 10
18.074918079317442
 20
9.8892422419089563
 30
0.0
 11
18.089304122647778
 21
9.9012412849292541
 31
0.0
  0
LINE
  5
A53C
  8
0
 10
18.070654954983691
 20
9.9008570360988344
 30
0.0
 11
18.06395534374839
 21
9.8982124144145001
 31
0.0
  0
LINE
  5
A53D
  8
0
 10
18.06395534374839
 20
9.8982124144145001
 30
0.0
 11
18.064729663361089
 21
9.8866310964476725
 31
0.0
  0
LINE
  5
A53E
  8
0
 10
18.1794264837336
 20
9.8877554609230121
 30
0.0
 11
18.178527016316838
 21
9.886700746665376
 31
0.0
  0
LINE
  5
A53F
  8
0
 10
18.178527016316838
 20
9.886700746665376
 30
0.0
 11
18.177628512592321
 21
9.8855823946064394
 31
0.0
  0
LINE
  5
A540
  8
0
 10
18.177628512592321
 20
9.8855823946064394
 30
0.0
 11
18.1767465366162
 21
9.8844084724705681
 31
0.0
  0
LINE
  5
A541
  8
0
 10
18.1767465366162
 20
9.8844084724705681
 30
0.0
 11
18.175896652444742
 21
9.8831870479827941
 31
0.0
  0
LINE
  5
A542
  8
0
 10
18.175896652444742
 20
9.8831870479827941
 30
0.0
 11
18.175094424134041
 21
9.8819261888666006
 31
0.0
  0
LINE
  5
A543
  8
0
 10
18.175094424134041
 20
9.8819261888666006
 30
0.0
 11
18.174355415740351
 21
9.8806339628476945
 31
0.0
  0
LINE
  5
A544
  8
0
 10
18.174355415740351
 20
9.8806339628476945
 30
0.0
 11
18.173695191319808
 21
9.8793184376495446
 31
0.0
  0
LINE
  5
A545
  8
0
 10
18.173695191319808
 20
9.8793184376495446
 30
0.0
 11
18.173129314928602
 21
9.8779876809967302
 31
0.0
  0
LINE
  5
A546
  8
0
 10
18.173129314928602
 20
9.8779876809967302
 30
0.0
 11
18.172668375810439
 21
9.876648414572168
 31
0.0
  0
LINE
  5
A547
  8
0
 10
18.172668375810439
 20
9.876648414572168
 30
0.0
 11
18.172303063959149
 21
9.8753019758894425
 31
0.0
  0
LINE
  5
A548
  8
0
 10
18.172303063959149
 20
9.8753019758894425
 30
0.0
 11
18.172019094555981
 21
9.8739483564199837
 31
0.0
  0
LINE
  5
A549
  8
0
 10
18.172019094555981
 20
9.8739483564199837
 30
0.0
 11
18.171802182782301
 21
9.8725875476359235
 31
0.0
  0
LINE
  5
A54A
  8
0
 10
18.171802182782301
 20
9.8725875476359235
 30
0.0
 11
18.17163804381935
 21
9.8712195410091681
 31
0.0
  0
LINE
  5
A54B
  8
0
 10
18.17163804381935
 20
9.8712195410091681
 30
0.0
 11
18.17151239284853
 21
9.8698443280106822
 31
0.0
  0
LINE
  5
A54C
  8
0
 10
18.17151239284853
 20
9.8698443280106822
 30
0.0
 11
18.1714109450511
 21
9.868461900113056
 31
0.0
  0
LINE
  5
A54D
  8
0
 10
18.1714109450511
 20
9.868461900113056
 30
0.0
 11
18.171319415608359
 21
9.8670722487875064
 31
0.0
  0
LINE
  5
A54E
  8
0
 10
18.171319415608359
 20
9.8670722487875064
 30
0.0
 11
18.171228603486199
 21
9.8656761093593541
 31
0.0
  0
LINE
  5
A54F
  8
0
 10
18.171228603486199
 20
9.8656761093593541
 30
0.0
 11
18.17114964278873
 21
9.8642771925638044
 31
0.0
  0
LINE
  5
A550
  8
0
 10
18.17114964278873
 20
9.8642771925638044
 30
0.0
 11
18.171098751404671
 21
9.862879952991074
 31
0.0
  0
LINE
  5
A551
  8
0
 10
18.171098751404671
 20
9.862879952991074
 30
0.0
 11
18.171092147222659
 21
9.861488845230264
 31
0.0
  0
LINE
  5
A552
  8
0
 10
18.171092147222659
 20
9.861488845230264
 30
0.0
 11
18.171146048131391
 21
9.8601083238704632
 31
0.0
  0
LINE
  5
A553
  8
0
 10
18.171146048131391
 20
9.8601083238704632
 30
0.0
 11
18.17127667201953
 21
9.8587428435002877
 31
0.0
  0
LINE
  5
A554
  8
0
 10
18.17127667201953
 20
9.8587428435002877
 30
0.0
 11
18.171500236775799
 21
9.8573968587097625
 31
0.0
  0
LINE
  5
A555
  8
0
 10
18.171500236775799
 20
9.8573968587097625
 30
0.0
 11
18.171832960288821
 21
9.8560748240879512
 31
0.0
  0
LINE
  5
A556
  8
0
 10
18.171832960288821
 20
9.8560748240879512
 30
0.0
 11
18.1722867918213
 21
9.8547833101777034
 31
0.0
  0
LINE
  5
A557
  8
0
 10
18.1722867918213
 20
9.8547833101777034
 30
0.0
 11
18.172856606131941
 21
9.8535373513359445
 31
0.0
  0
LINE
  5
A558
  8
0
 10
18.172856606131941
 20
9.8535373513359445
 30
0.0
 11
18.173533009353331
 21
9.8523540978733308
 31
0.0
  0
LINE
  5
A559
  8
0
 10
18.173533009353331
 20
9.8523540978733308
 30
0.0
 11
18.174306607618231
 21
9.8512507001007581
 31
0.0
  0
LINE
  5
A55A
  8
0
 10
18.174306607618231
 20
9.8512507001007581
 30
0.0
 11
18.17516800705922
 21
9.8502443083289126
 31
0.0
  0
LINE
  5
A55B
  8
0
 10
18.17516800705922
 20
9.8502443083289126
 30
0.0
 11
18.176107813809001
 21
9.8493520728679815
 31
0.0
  0
LINE
  5
A55C
  8
0
 10
18.176107813809001
 20
9.8493520728679815
 30
0.0
 11
18.177116634000232
 21
9.8485911440291076
 31
0.0
  0
LINE
  5
A55D
  8
0
 10
18.177116634000232
 20
9.8485911440291076
 30
0.0
 11
18.178185073765601
 21
9.847978672122732
 31
0.0
  0
LINE
  5
A55E
  8
0
 10
18.178185073765601
 20
9.847978672122732
 30
0.0
 11
18.179306022439761
 21
9.8475280971970243
 31
0.0
  0
LINE
  5
A55F
  8
0
 10
18.179306022439761
 20
9.8475280971970243
 30
0.0
 11
18.180481502165598
 21
9.847238018250664
 31
0.0
  0
LINE
  5
A560
  8
0
 10
18.180481502165598
 20
9.847238018250664
 30
0.0
 11
18.18171581828793
 21
9.8471033240184624
 31
0.0
  0
LINE
  5
A561
  8
0
 10
18.18171581828793
 20
9.8471033240184624
 30
0.0
 11
18.18301327615157
 21
9.8471189032359181
 31
0.0
  0
LINE
  5
A562
  8
0
 10
18.18301327615157
 20
9.8471189032359181
 30
0.0
 11
18.184378181101462
 21
9.8472796446385438
 31
0.0
  0
LINE
  5
A563
  8
0
 10
18.184378181101462
 20
9.8472796446385438
 30
0.0
 11
18.185814838482401
 21
9.8475804369625113
 31
0.0
  0
LINE
  5
A564
  8
0
 10
18.185627937146531
 20
9.870448639803266
 30
0.0
 11
18.185138067124878
 21
9.871732510032416
 31
0.0
  0
LINE
  5
A565
  8
0
 10
18.185138067124878
 20
9.871732510032416
 30
0.0
 11
18.184683357656422
 21
9.8729819545596822
 31
0.0
  0
LINE
  5
A566
  8
0
 10
18.184683357656422
 20
9.8729819545596822
 30
0.0
 11
18.184298653749181
 21
9.8741723381128796
 31
0.0
  0
LINE
  5
A567
  8
0
 10
18.184298653749181
 20
9.8741723381128796
 30
0.0
 11
18.184018800411081
 21
9.8752790254213778
 31
0.0
  0
LINE
  5
A568
  8
0
 10
18.184018800411081
 20
9.8752790254213778
 30
0.0
 11
18.183878642650178
 21
9.8762773812129563
 31
0.0
  0
LINE
  5
A569
  8
0
 10
18.183878642650178
 20
9.8762773812129563
 30
0.0
 11
18.183913025474371
 21
9.8771427702163201
 31
0.0
  0
LINE
  5
A56A
  8
0
 10
18.183913025474371
 20
9.8771427702163201
 30
0.0
 11
18.184145295204871
 21
9.8778599974598364
 31
0.0
  0
LINE
  5
A56B
  8
0
 10
18.184145295204871
 20
9.8778599974598364
 30
0.0
 11
18.184552803415649
 21
9.8784516291659621
 31
0.0
  0
LINE
  5
A56C
  8
0
 10
18.184552803415649
 20
9.8784516291659621
 30
0.0
 11
18.185101402993801
 21
9.8789496718568408
 31
0.0
  0
LINE
  5
A56D
  8
0
 10
18.185101402993801
 20
9.8789496718568408
 30
0.0
 11
18.185756946826491
 21
9.8793861320550551
 31
0.0
  0
LINE
  5
A56E
  8
0
 10
18.185454961495282
 20
9.8922495605886525
 30
0.0
 11
18.1846096129314
 21
9.8920251804368
 31
0.0
  0
LINE
  5
A56F
  8
0
 10
18.1846096129314
 20
9.8920251804368
 30
0.0
 11
18.183762558717518
 21
9.8916356251397701
 31
0.0
  0
LINE
  5
A570
  8
0
 10
18.183762558717518
 20
9.8916356251397701
 30
0.0
 11
18.182911649734681
 21
9.8910964729670887
 31
0.0
  0
LINE
  5
A571
  8
0
 10
18.182911649734681
 20
9.8910964729670887
 30
0.0
 11
18.18205473686384
 21
9.8904233021896744
 31
0.0
  0
LINE
  5
A572
  8
0
 10
18.18205473686384
 20
9.8904233021896744
 30
0.0
 11
18.18118967098604
 21
9.8896316910763709
 31
0.0
  0
LINE
  5
A573
  8
0
 10
18.18118967098604
 20
9.8896316910763709
 30
0.0
 11
18.180314302982321
 21
9.8887372178974147
 31
0.0
  0
LINE
  5
A574
  8
0
 10
18.180314302982321
 20
9.8887372178974147
 30
0.0
 11
18.1794264837336
 21
9.8877554609230121
 31
0.0
  0
LINE
  5
A575
  8
0
 10
18.132969975367359
 20
9.8472652404245764
 30
0.0
 11
18.132256042397501
 21
9.8467015392106916
 31
0.0
  0
LINE
  5
A576
  8
0
 10
18.132256042397501
 20
9.8467015392106916
 30
0.0
 11
18.131596093249911
 21
9.8461362290006438
 31
0.0
  0
LINE
  5
A577
  8
0
 10
18.131596093249911
 20
9.8461362290006438
 30
0.0
 11
18.13099392015307
 21
9.8455613557796262
 31
0.0
  0
LINE
  5
A578
  8
0
 10
18.13099392015307
 20
9.8455613557796262
 30
0.0
 11
18.130453315335469
 21
9.8449689655330914
 31
0.0
  0
LINE
  5
A579
  8
0
 10
18.130453315335469
 20
9.8449689655330914
 30
0.0
 11
18.12997807102559
 21
9.844351104246698
 31
0.0
  0
LINE
  5
A57A
  8
0
 10
18.12997807102559
 20
9.844351104246698
 30
0.0
 11
18.12957197945191
 21
9.8436998179058701
 31
0.0
  0
LINE
  5
A57B
  8
0
 10
18.12957197945191
 20
9.8436998179058701
 30
0.0
 11
18.12923883284293
 21
9.8430071524962823
 31
0.0
  0
LINE
  5
A57C
  8
0
 10
18.12923883284293
 20
9.8430071524962823
 30
0.0
 11
18.128982423427111
 21
9.8422651540033623
 31
0.0
  0
LINE
  5
A57D
  8
0
 10
18.128982423427111
 20
9.8422651540033623
 30
0.0
 11
18.12880358270883
 21
9.8414684112524302
 31
0.0
  0
LINE
  5
A57E
  8
0
 10
18.12880358270883
 20
9.8414684112524302
 30
0.0
 11
18.12869129929603
 21
9.8406216844286938
 31
0.0
  0
LINE
  5
A57F
  8
0
 10
18.12869129929603
 20
9.8406216844286938
 30
0.0
 11
18.128631601072481
 21
9.8397322765565605
 31
0.0
  0
LINE
  5
A580
  8
0
 10
18.128631601072481
 20
9.8397322765565605
 30
0.0
 11
18.128610515922031
 21
9.83880749066088
 31
0.0
  0
LINE
  5
A581
  8
0
 10
18.128610515922031
 20
9.83880749066088
 30
0.0
 11
18.128614071728482
 21
9.8378546297662979
 31
0.0
  0
LINE
  5
A582
  8
0
 10
18.128614071728482
 20
9.8378546297662979
 30
0.0
 11
18.128628296375631
 21
9.836880996897662
 31
0.0
  0
LINE
  5
A583
  8
0
 10
18.128628296375631
 20
9.836880996897662
 30
0.0
 11
18.128639217747281
 21
9.8358938950791526
 31
0.0
  0
LINE
  5
A584
  8
0
 10
18.128639217747281
 20
9.8358938950791526
 30
0.0
 11
18.12863286372724
 21
9.8349006273360828
 31
0.0
  0
LINE
  5
A585
  8
0
 10
18.12863286372724
 20
9.8349006273360828
 30
0.0
 11
18.128600350248071
 21
9.8339084412596041
 31
0.0
  0
LINE
  5
A586
  8
0
 10
18.128600350248071
 20
9.8339084412596041
 30
0.0
 11
18.12855314543696
 21
9.8329243627060805
 31
0.0
  0
LINE
  5
A587
  8
0
 10
18.12855314543696
 20
9.8329243627060805
 30
0.0
 11
18.128507805469798
 21
9.8319553620983662
 31
0.0
  0
LINE
  5
A588
  8
0
 10
18.128507805469798
 20
9.8319553620983662
 30
0.0
 11
18.12848088652256
 21
9.831008409859578
 31
0.0
  0
LINE
  5
A589
  8
0
 10
18.12848088652256
 20
9.831008409859578
 30
0.0
 11
18.128488944771199
 21
9.8300904764125736
 31
0.0
  0
LINE
  5
A58A
  8
0
 10
18.128488944771199
 20
9.8300904764125736
 30
0.0
 11
18.128548536391609
 21
9.8292085321804663
 31
0.0
  0
LINE
  5
A58B
  8
0
 10
18.128548536391609
 20
9.8292085321804663
 30
0.0
 11
18.12867621755975
 21
9.8283695475861261
 31
0.0
  0
LINE
  5
A58C
  8
0
 10
18.12867621755975
 20
9.8283695475861261
 30
0.0
 11
18.128888544451481
 21
9.8275804930526647
 31
0.0
  0
LINE
  5
A58D
  8
0
 10
18.128888544451481
 20
9.8275804930526647
 30
0.0
 11
18.129196049929391
 21
9.8268457672620517
 31
0.0
  0
LINE
  5
A58E
  8
0
 10
18.129196049929391
 20
9.8268457672620517
 30
0.0
 11
18.129585173602191
 21
9.8261594819309721
 31
0.0
  0
LINE
  5
A58F
  8
0
 10
18.129585173602191
 20
9.8261594819309721
 30
0.0
 11
18.13003633176519
 21
9.8255131770358695
 31
0.0
  0
LINE
  5
A590
  8
0
 10
18.13003633176519
 20
9.8255131770358695
 30
0.0
 11
18.13052994071381
 21
9.8248983925523063
 31
0.0
  0
LINE
  5
A591
  8
0
 10
18.13052994071381
 20
9.8248983925523063
 30
0.0
 11
18.131046416743281
 21
9.8243066684569822
 31
0.0
  0
LINE
  5
A592
  8
0
 10
18.131046416743281
 20
9.8243066684569822
 30
0.0
 11
18.13156617614905
 21
9.8237295447254365
 31
0.0
  0
LINE
  5
A593
  8
0
 10
18.13156617614905
 20
9.8237295447254365
 30
0.0
 11
18.13206963522634
 21
9.8231585613339121
 31
0.0
  0
LINE
  5
A594
  8
0
 10
18.13206963522634
 20
9.8231585613339121
 30
0.0
 11
18.132537210270542
 21
9.8225852582581794
 31
0.0
  0
LINE
  5
A595
  8
0
 10
18.132537210270542
 20
9.8225852582581794
 30
0.0
 11
18.132955663542521
 21
9.8220059498732937
 31
0.0
  0
LINE
  5
A596
  8
0
 10
18.132955663542521
 20
9.8220059498732937
 30
0.0
 11
18.133337141165441
 21
9.8214360481481382
 31
0.0
  0
LINE
  5
A597
  8
0
 10
18.133337141165441
 20
9.8214360481481382
 30
0.0
 11
18.133700135227919
 21
9.8208957394503997
 31
0.0
  0
LINE
  5
A598
  8
0
 10
18.133700135227919
 20
9.8208957394503997
 30
0.0
 11
18.134063137818671
 21
9.8204052101475519
 31
0.0
  0
LINE
  5
A599
  8
0
 10
18.134063137818671
 20
9.8204052101475519
 30
0.0
 11
18.13444464102632
 21
9.8199846466075034
 31
0.0
  0
LINE
  5
A59A
  8
0
 10
18.13444464102632
 20
9.8199846466075034
 30
0.0
 11
18.134863136939551
 21
9.8196542351979517
 31
0.0
  0
LINE
  5
A59B
  8
0
 10
18.134863136939551
 20
9.8196542351979517
 30
0.0
 11
18.135337117647079
 21
9.8194341622861412
 31
0.0
  0
LINE
  5
A59C
  8
0
 10
18.135337117647079
 20
9.8194341622861412
 30
0.0
 11
18.135885075237528
 21
9.8193446142404301
 31
0.0
  0
LINE
  5
A59D
  8
0
 10
18.135885075237528
 20
9.8193446142404301
 30
0.0
 11
18.1365201233166
 21
9.8193979603386161
 31
0.0
  0
LINE
  5
A59E
  8
0
 10
18.1365201233166
 20
9.8193979603386161
 30
0.0
 11
18.137233861558069
 21
9.8195753015065765
 31
0.0
  0
LINE
  5
A59F
  8
0
 10
18.137233861558069
 20
9.8195753015065765
 30
0.0
 11
18.138012511152791
 21
9.8198499215786743
 31
0.0
  0
LINE
  5
A5A0
  8
0
 10
18.138012511152791
 20
9.8198499215786743
 30
0.0
 11
18.138842293291511
 21
9.820195104391356
 31
0.0
  0
LINE
  5
A5A1
  8
0
 10
18.138842293291511
 20
9.820195104391356
 30
0.0
 11
18.139709429165102
 21
9.8205841337794464
 31
0.0
  0
LINE
  5
A5A2
  8
0
 10
18.139709429165102
 20
9.8205841337794464
 30
0.0
 11
18.14060013996432
 21
9.8209902935789142
 31
0.0
  0
LINE
  5
A5A3
  8
0
 10
18.14060013996432
 20
9.8209902935789142
 30
0.0
 11
18.141500646880001
 21
9.8213868676257281
 31
0.0
  0
LINE
  5
A5A4
  8
0
 10
18.141500646880001
 20
9.8213868676257281
 30
0.0
 11
18.14239717110296
 21
9.8217471397551819
 31
0.0
  0
LINE
  5
A5A5
  8
0
 10
18.14239717110296
 20
9.8217471397551819
 30
0.0
 11
18.143276147504022
 21
9.8220536436374424
 31
0.0
  0
LINE
  5
A5A6
  8
0
 10
18.143276147504022
 20
9.8220536436374424
 30
0.0
 11
18.1441248656742
 21
9.8223259122817144
 31
0.0
  0
LINE
  5
A5A7
  8
0
 10
18.1441248656742
 20
9.8223259122817144
 30
0.0
 11
18.144930828884601
 21
9.8225927285316121
 31
0.0
  0
LINE
  5
A5A8
  8
0
 10
18.144930828884601
 20
9.8225927285316121
 30
0.0
 11
18.145681540406201
 21
9.8228828752303343
 31
0.0
  0
LINE
  5
A5A9
  8
0
 10
18.145681540406201
 20
9.8228828752303343
 30
0.0
 11
18.146364503510121
 21
9.8232251352219446
 31
0.0
  0
LINE
  5
A5AA
  8
0
 10
18.146364503510121
 20
9.8232251352219446
 30
0.0
 11
18.14696722146736
 21
9.8236482913498566
 31
0.0
  0
LINE
  5
A5AB
  8
0
 10
18.14696722146736
 20
9.8236482913498566
 30
0.0
 11
18.147477197549001
 21
9.8241811264581411
 31
0.0
  0
LINE
  5
A5AC
  8
0
 10
18.147477197549001
 20
9.8241811264581411
 30
0.0
 11
18.14788193502612
 21
9.8248524233897516
 31
0.0
  0
LINE
  5
A5AD
  8
0
 10
18.14788193502612
 20
9.8248524233897516
 30
0.0
 11
18.14817244654456
 21
9.8256813697601046
 31
0.0
  0
LINE
  5
A5AE
  8
0
 10
18.14817244654456
 20
9.8256813697601046
 30
0.0
 11
18.14835378224976
 21
9.8266487722685216
 31
0.0
  0
LINE
  5
A5AF
  8
0
 10
18.14835378224976
 20
9.8266487722685216
 30
0.0
 11
18.148434501661882
 21
9.8277258423856821
 31
0.0
  0
LINE
  5
A5B0
  8
0
 10
18.148434501661882
 20
9.8277258423856821
 30
0.0
 11
18.148423164301121
 21
9.828883791583614
 31
0.0
  0
LINE
  5
A5B1
  8
0
 10
18.148423164301121
 20
9.828883791583614
 30
0.0
 11
18.14832832968775
 21
9.8300938313316184
 31
0.0
  0
LINE
  5
A5B2
  8
0
 10
18.14832832968775
 20
9.8300938313316184
 30
0.0
 11
18.14815855734194
 21
9.8313271731012648
 31
0.0
  0
LINE
  5
A5B3
  8
0
 10
18.14815855734194
 20
9.8313271731012648
 30
0.0
 11
18.147922406783881
 21
9.8325550283634566
 31
0.0
  0
LINE
  5
A5B4
  8
0
 10
18.147922406783881
 20
9.8325550283634566
 30
0.0
 11
18.147628437533871
 21
9.8337486085890742
 31
0.0
  0
LINE
  5
A5B5
  8
0
 10
18.147628437533871
 20
9.8337486085890742
 30
0.0
 11
18.147286820477511
 21
9.8348867210770532
 31
0.0
  0
LINE
  5
A5B6
  8
0
 10
18.147286820477511
 20
9.8348867210770532
 30
0.0
 11
18.146914171962251
 21
9.8359785564380182
 31
0.0
  0
LINE
  5
A5B7
  8
0
 10
18.146914171962251
 20
9.8359785564380182
 30
0.0
 11
18.14652871970107
 21
9.837040901110182
 31
0.0
  0
LINE
  5
A5B8
  8
0
 10
18.14652871970107
 20
9.837040901110182
 30
0.0
 11
18.146148691406879
 21
9.8380905415331181
 31
0.0
  0
LINE
  5
A5B9
  8
0
 10
18.146148691406879
 20
9.8380905415331181
 30
0.0
 11
18.14579231479258
 21
9.8391442641450322
 31
0.0
  0
LINE
  5
A5BA
  8
0
 10
18.14579231479258
 20
9.8391442641450322
 30
0.0
 11
18.14547781757107
 21
9.8402188553843608
 31
0.0
  0
LINE
  5
A5BB
  8
0
 10
18.14547781757107
 20
9.8402188553843608
 30
0.0
 11
18.145223427455321
 21
9.8413311016902263
 31
0.0
  0
LINE
  5
A5BC
  8
0
 10
18.145223427455321
 20
9.8413311016902263
 30
0.0
 11
18.14504737215827
 21
9.8424977895010581
 31
0.0
  0
LINE
  5
A5BD
  8
0
 10
18.14504737215827
 20
9.8424977895010581
 30
0.0
 11
18.144961083325121
 21
9.8437304722265182
 31
0.0
  0
LINE
  5
A5BE
  8
0
 10
18.144961083325121
 20
9.8437304722265182
 30
0.0
 11
18.1449488083307
 21
9.8450197711608762
 31
0.0
  0
LINE
  5
A5BF
  8
0
 10
18.1449488083307
 20
9.8450197711608762
 30
0.0
 11
18.144987998482002
 21
9.8463510745691512
 31
0.0
  0
LINE
  5
A5C0
  8
0
 10
18.144987998482002
 20
9.8463510745691512
 30
0.0
 11
18.145056105086208
 21
9.847709770715932
 31
0.0
  0
LINE
  5
A5C1
  8
0
 10
18.145056105086208
 20
9.847709770715932
 30
0.0
 11
18.14513057945042
 21
9.8490812478667031
 31
0.0
  0
LINE
  5
A5C2
  8
0
 10
18.14513057945042
 20
9.8490812478667031
 30
0.0
 11
18.145188872881668
 21
9.8504508942867162
 31
0.0
  0
LINE
  5
A5C3
  8
0
 10
18.145188872881668
 20
9.8504508942867162
 30
0.0
 11
18.145208436687071
 21
9.8518040982410184
 31
0.0
  0
LINE
  5
A5C4
  8
0
 10
18.145208436687071
 20
9.8518040982410184
 30
0.0
 11
18.145166722173759
 21
9.8531262479939361
 31
0.0
  0
LINE
  5
A5C5
  8
0
 10
18.145166722173759
 20
9.8531262479939361
 30
0.0
 11
18.14504879874498
 21
9.8544059701773623
 31
0.0
  0
LINE
  5
A5C6
  8
0
 10
18.14504879874498
 20
9.8544059701773623
 30
0.0
 11
18.144870208188681
 21
9.8556448448859921
 31
0.0
  0
LINE
  5
A5C7
  8
0
 10
18.144870208188681
 20
9.8556448448859921
 30
0.0
 11
18.14465411038907
 21
9.8568476905818407
 31
0.0
  0
LINE
  5
A5C8
  8
0
 10
18.14465411038907
 20
9.8568476905818407
 30
0.0
 11
18.144423665230271
 21
9.8580193257250759
 31
0.0
  0
LINE
  5
A5C9
  8
0
 10
18.144423665230271
 20
9.8580193257250759
 30
0.0
 11
18.144202032596422
 21
9.8591645687777127
 31
0.0
  0
LINE
  5
A5CA
  8
0
 10
18.144202032596422
 20
9.8591645687777127
 30
0.0
 11
18.144012372371702
 21
9.8602882382003827
 31
0.0
  0
LINE
  5
A5CB
  8
0
 10
18.144012372371702
 20
9.8602882382003827
 30
0.0
 11
18.14387784444024
 21
9.8613951524546302
 31
0.0
  0
LINE
  5
A5CC
  8
0
 10
18.14387784444024
 20
9.8613951524546302
 30
0.0
 11
18.143821608686189
 21
9.862490130002012
 31
0.0
  0
LINE
  5
A5CD
  8
0
 10
18.143821608686189
 20
9.862490130002012
 30
0.0
 11
18.143857815845209
 21
9.8635766702668661
 31
0.0
  0
LINE
  5
A5CE
  8
0
 10
18.143857815845209
 20
9.8635766702668661
 30
0.0
 11
18.14396458005891
 21
9.864652996531726
 31
0.0
  0
LINE
  5
A5CF
  8
0
 10
18.14396458005891
 20
9.864652996531726
 30
0.0
 11
18.14411100632045
 21
9.8657160130408101
 31
0.0
  0
LINE
  5
A5D0
  8
0
 10
18.14411100632045
 20
9.8657160130408101
 30
0.0
 11
18.14426619962294
 21
9.8667626240396622
 31
0.0
  0
LINE
  5
A5D1
  8
0
 10
18.14426619962294
 20
9.8667626240396622
 30
0.0
 11
18.144399264959521
 21
9.8677897337738543
 31
0.0
  0
LINE
  5
A5D2
  8
0
 10
18.144399264959521
 20
9.8677897337738543
 30
0.0
 11
18.144479307323358
 21
9.8687942464880472
 31
0.0
  0
LINE
  5
A5D3
  8
0
 10
18.144479307323358
 20
9.8687942464880472
 30
0.0
 11
18.144475431707551
 21
9.8697730664280243
 31
0.0
  0
LINE
  5
A5D4
  8
0
 10
18.144475431707551
 20
9.8697730664280243
 30
0.0
 11
18.144356743105231
 21
9.8707230978388836
 31
0.0
  0
LINE
  5
A5D5
  8
0
 10
18.144356743105231
 20
9.8707230978388836
 30
0.0
 11
18.144101137713871
 21
9.8716377607017822
 31
0.0
  0
LINE
  5
A5D6
  8
0
 10
18.144101137713871
 20
9.8716377607017822
 30
0.0
 11
18.143721676548289
 21
9.8724965379428742
 31
0.0
  0
LINE
  5
A5D7
  8
0
 10
18.143721676548289
 20
9.8724965379428742
 30
0.0
 11
18.143240211827639
 21
9.8732754282236783
 31
0.0
  0
LINE
  5
A5D8
  8
0
 10
18.143240211827639
 20
9.8732754282236783
 30
0.0
 11
18.142678595771081
 21
9.8739504302061505
 31
0.0
  0
LINE
  5
A5D9
  8
0
 10
18.142678595771081
 20
9.8739504302061505
 30
0.0
 11
18.142058680597788
 21
9.8744975425522554
 31
0.0
  0
LINE
  5
A5DA
  8
0
 10
18.142058680597788
 20
9.8744975425522554
 30
0.0
 11
18.14140231852689
 21
9.87489276392375
 31
0.0
  0
LINE
  5
A5DB
  8
0
 10
18.14140231852689
 20
9.87489276392375
 30
0.0
 11
18.140731361777551
 21
9.8751120929825902
 31
0.0
  0
LINE
  5
A5DC
  8
0
 10
18.140731361777551
 20
9.8751120929825902
 30
0.0
 11
18.140067662568949
 21
9.8751315283905061
 31
0.0
  0
LINE
  5
A5DD
  8
0
 10
18.140067662568949
 20
9.8751315283905061
 30
0.0
 11
18.139428824127151
 21
9.8749369901031496
 31
0.0
  0
LINE
  5
A5DE
  8
0
 10
18.139428824127151
 20
9.8749369901031496
 30
0.0
 11
18.138815453706119
 21
9.8745540832512582
 31
0.0
  0
LINE
  5
A5DF
  8
0
 10
18.138815453706119
 20
9.8745540832512582
 30
0.0
 11
18.138223909566712
 21
9.8740183342599703
 31
0.0
  0
LINE
  5
A5E0
  8
0
 10
18.138223909566712
 20
9.8740183342599703
 30
0.0
 11
18.137650549969841
 21
9.8733652695539078
 31
0.0
  0
LINE
  5
A5E1
  8
0
 10
18.137650549969841
 20
9.8733652695539078
 30
0.0
 11
18.137091733176359
 21
9.8726304155572961
 31
0.0
  0
LINE
  5
A5E2
  8
0
 10
18.137091733176359
 20
9.8726304155572961
 30
0.0
 11
18.136543817447151
 21
9.8718492986947641
 31
0.0
  0
LINE
  5
A5E3
  8
0
 10
18.136543817447151
 20
9.8718492986947641
 30
0.0
 11
18.136003161043071
 21
9.8710574453916706
 31
0.0
  0
LINE
  5
A5E4
  8
0
 10
18.136003161043071
 20
9.8710574453916706
 30
0.0
 11
18.13546612222504
 21
9.8702903820721914
 31
0.0
  0
LINE
  5
A5E5
  8
0
 10
18.13546612222504
 20
9.8702903820721914
 30
0.0
 11
18.13493232000576
 21
9.869575042090668
 31
0.0
  0
LINE
  5
A5E6
  8
0
 10
18.13493232000576
 20
9.869575042090668
 30
0.0
 11
18.13441441640521
 21
9.8689039865155284
 31
0.0
  0
LINE
  5
A5E7
  8
0
 10
18.13441441640521
 20
9.8689039865155284
 30
0.0
 11
18.133928334195272
 21
9.8682611833462435
 31
0.0
  0
LINE
  5
A5E8
  8
0
 10
18.133928334195272
 20
9.8682611833462435
 30
0.0
 11
18.133489996147759
 21
9.867630600580922
 31
0.0
  0
LINE
  5
A5E9
  8
0
 10
18.133489996147759
 20
9.867630600580922
 30
0.0
 11
18.133115325034488
 21
9.8669962062183441
 31
0.0
  0
LINE
  5
A5EA
  8
0
 10
18.133115325034488
 20
9.8669962062183441
 30
0.0
 11
18.132820243627361
 21
9.8663419682573021
 31
0.0
  0
LINE
  5
A5EB
  8
0
 10
18.132820243627361
 20
9.8663419682573021
 30
0.0
 11
18.132620674698192
 21
9.8656518546954342
 31
0.0
  0
LINE
  5
A5EC
  8
0
 10
18.132620674698192
 20
9.8656518546954342
 30
0.0
 11
18.132532541018801
 21
9.864909833532236
 31
0.0
  0
LINE
  5
A5ED
  8
0
 10
18.132532541018801
 20
9.864909833532236
 30
0.0
 11
18.132566805533511
 21
9.8641049405452961
 31
0.0
  0
LINE
  5
A5EE
  8
0
 10
18.132566805533511
 20
9.8641049405452961
 30
0.0
 11
18.132714591876489
 21
9.8632464826339383
 31
0.0
  0
LINE
  5
A5EF
  8
0
 10
18.132714591876489
 20
9.8632464826339383
 30
0.0
 11
18.132962063854421
 21
9.8623488344755881
 31
0.0
  0
LINE
  5
A5F0
  8
0
 10
18.132962063854421
 20
9.8623488344755881
 30
0.0
 11
18.133295385273922
 21
9.861426370748628
 31
0.0
  0
LINE
  5
A5F1
  8
0
 10
18.133295385273922
 20
9.861426370748628
 30
0.0
 11
18.133700719941672
 21
9.8604934661316221
 31
0.0
  0
LINE
  5
A5F2
  8
0
 10
18.133700719941672
 20
9.8604934661316221
 30
0.0
 11
18.1341642316643
 21
9.8595644953027204
 31
0.0
  0
LINE
  5
A5F3
  8
0
 10
18.1341642316643
 20
9.8595644953027204
 30
0.0
 11
18.134672084248471
 21
9.858653832939126
 31
0.0
  0
LINE
  5
A5F4
  8
0
 10
18.134672084248471
 20
9.858653832939126
 30
0.0
 11
18.135210441500789
 21
9.8577758537205682
 31
0.0
  0
LINE
  5
A5F5
  8
0
 10
18.135210441500789
 20
9.8577758537205682
 30
0.0
 11
18.135763373660239
 21
9.8569417584822041
 31
0.0
  0
LINE
  5
A5F6
  8
0
 10
18.135763373660239
 20
9.8569417584822041
 30
0.0
 11
18.136306576694508
 21
9.8561500526930086
 31
0.0
  0
LINE
  5
A5F7
  8
0
 10
18.136306576694508
 20
9.8561500526930086
 30
0.0
 11
18.136813653003561
 21
9.8553960679791981
 31
0.0
  0
LINE
  5
A5F8
  8
0
 10
18.136813653003561
 20
9.8553960679791981
 30
0.0
 11
18.137258204987511
 21
9.8546751359667688
 31
0.0
  0
LINE
  5
A5F9
  8
0
 10
18.137258204987511
 20
9.8546751359667688
 30
0.0
 11
18.137613835046281
 21
9.8539825882830883
 31
0.0
  0
LINE
  5
A5FA
  8
0
 10
18.137613835046281
 20
9.8539825882830883
 30
0.0
 11
18.137854145579912
 21
9.8533137565539164
 31
0.0
  0
LINE
  5
A5FB
  8
0
 10
18.137854145579912
 20
9.8533137565539164
 30
0.0
 11
18.13795273898835
 21
9.8526639724059262
 31
0.0
  0
LINE
  5
A5FC
  8
0
 10
18.13795273898835
 20
9.8526639724059262
 30
0.0
 11
18.137883217671622
 21
9.8520285674655881
 31
0.0
  0
LINE
  5
A5FD
  8
0
 10
18.137883217671622
 20
9.8520285674655881
 30
0.0
 11
18.137628681628041
 21
9.8514035812997864
 31
0.0
  0
LINE
  5
A5FE
  8
0
 10
18.137628681628041
 20
9.8514035812997864
 30
0.0
 11
18.13721022124918
 21
9.8507878852412833
 31
0.0
  0
LINE
  5
A5FF
  8
0
 10
18.13721022124918
 20
9.8507878852412833
 30
0.0
 11
18.136658424524871
 21
9.8501810585628302
 31
0.0
  0
LINE
  5
A600
  8
0
 10
18.136658424524871
 20
9.8501810585628302
 30
0.0
 11
18.136003879445031
 21
9.84958268053742
 31
0.0
  0
LINE
  5
A601
  8
0
 10
18.136003879445031
 20
9.84958268053742
 30
0.0
 11
18.135277173999469
 21
9.8489923304377882
 31
0.0
  0
LINE
  5
A602
  8
0
 10
18.135277173999469
 20
9.8489923304377882
 30
0.0
 11
18.13450889617808
 21
9.8484095875371622
 31
0.0
  0
LINE
  5
A603
  8
0
 10
18.13450889617808
 20
9.8484095875371622
 30
0.0
 11
18.133729633970759
 21
9.8478340311084995
 31
0.0
  0
LINE
  5
A604
  8
0
 10
18.133729633970759
 20
9.8478340311084995
 30
0.0
 11
18.132969975367359
 21
9.8472652404245764
 31
0.0
  0
LINE
  5
A605
  8
0
 10
18.185814838482401
 20
9.8475804369625113
 30
0.0
 11
18.187327553639282
 21
9.8480161689424222
 31
0.0
  0
LINE
  5
A606
  8
0
 10
18.186118122713449
 20
9.8691549791426461
 30
0.0
 11
18.185627937146531
 21
9.870448639803266
 31
0.0
  0
LINE
  5
A607
  8
0
 10
18.185756946826491
 20
9.8793861320550551
 30
0.0
 11
18.18648528780087
 21
9.8797930162820649
 31
0.0
  0
LINE
  5
A608
  8
0
 10
18.186300753528158
 20
9.8922931873248583
 30
0.0
 11
18.185454961495282
 21
9.8922495605886525
 31
0.0
  0
LINE
  5
A609
  8
0
 10
18.15728414488451
 20
9.6685000217983035
 30
0.0
 11
18.159851625705478
 21
9.6783871517400222
 31
0.0
  0
LINE
  5
A60A
  8
0
 10
18.159851625705478
 20
9.6783871517400222
 30
0.0
 11
18.160834080101282
 21
9.6968048968133118
 31
0.0
  0
LINE
  5
A60B
  8
0
 10
18.12785999960257
 20
9.6819414534209045
 30
0.0
 11
18.136671523916821
 21
9.6666966721743322
 31
0.0
  0
LINE
  5
A60C
  8
0
 10
18.136671523916821
 20
9.6666966721743322
 30
0.0
 11
18.140511101244361
 21
9.6561210964118729
 31
0.0
  0
LINE
  5
A60D
  8
0
 10
18.140511101244361
 20
9.6561210964118729
 30
0.0
 11
18.148033063196142
 21
9.6525245855789272
 31
0.0
  0
LINE
  5
A60E
  8
0
 10
18.148033063196142
 20
9.6525245855789272
 30
0.0
 11
18.150994981263441
 21
9.6558561975966697
 31
0.0
  0
LINE
  5
A60F
  8
0
 10
18.150994981263441
 20
9.6558561975966697
 30
0.0
 11
18.152416993033341
 21
9.6587657180962161
 31
0.0
  0
LINE
  5
A610
  8
0
 10
18.152416993033341
 20
9.6587657180962161
 30
0.0
 11
18.154009296898511
 21
9.6620245557141882
 31
0.0
  0
LINE
  5
A611
  8
0
 10
18.154009296898511
 20
9.6620245557141882
 30
0.0
 11
18.15637300940039
 21
9.6649879292695005
 31
0.0
  0
LINE
  5
A612
  8
0
 10
18.15637300940039
 20
9.6649879292695005
 30
0.0
 11
18.15728414488451
 21
9.6685000217983035
 31
0.0
  0
ARC
  5
A613
  8
0
 10
17.379768280568172
 20
9.7281211764868623
 30
0.0
 40
0.8044409367129516
 50
355.40189000000191
 51
1.126700999996852
  0
LINE
  5
A614
  8
0
 10
18.160834080101282
 20
9.6968048968133118
 30
0.0
 11
18.140547488444199
 21
9.714743786336383
 31
0.0
  0
LINE
  5
A615
  8
0
 10
18.103387424475439
 20
9.7145618503373043
 30
0.0
 11
18.12785999960257
 21
9.6819414534209045
 31
0.0
  0
LINE
  5
A616
  8
0
 10
18.362604014212678
 20
9.8498450928934744
 30
0.0
 11
18.383132216876721
 21
9.8351926952605027
 31
0.0
  0
LINE
  5
A617
  8
0
 10
18.383132216876721
 20
9.8351926952605027
 30
0.0
 11
18.373140291799551
 21
9.8193060438084103
 31
0.0
  0
ARC
  5
A618
  8
0
 10
18.398892240873192
 20
10.42993274378361
 30
0.0
 40
0.6904776822892869
 50
255.65818500000009
 51
263.46686500000021
  0
LINE
  5
A619
  8
0
 10
18.30261171008576
 20
9.8888740034462863
 30
0.0
 11
18.334840580731662
 21
9.8682191733266702
 31
0.0
  0
LINE
  5
A61A
  8
0
 10
18.353483926443761
 20
9.8095207980259076
 30
0.0
 11
18.350476888248672
 21
9.800598656624512
 31
0.0
  0
LINE
  5
A61B
  8
0
 10
18.350476888248672
 20
9.800598656624512
 30
0.0
 11
18.338914491626209
 21
9.8032854874609221
 31
0.0
  0
LINE
  5
A61C
  8
0
 10
18.338914491626209
 20
9.8032854874609221
 30
0.0
 11
18.319131498814961
 21
9.8007296505440902
 31
0.0
  0
LINE
  5
A61D
  8
0
 10
18.319131498814961
 20
9.8007296505440902
 30
0.0
 11
18.295868434210661
 21
9.8089327808765958
 31
0.0
  0
LINE
  5
A61E
  8
0
 10
18.295868434210661
 20
9.8089327808765958
 30
0.0
 11
18.257380965191562
 21
9.8282252742342262
 31
0.0
  0
LINE
  5
A61F
  8
0
 10
18.257380965191562
 20
9.8282252742342262
 30
0.0
 11
18.25166963030405
 21
9.8586609836715962
 31
0.0
  0
LINE
  5
A620
  8
0
 10
18.25166963030405
 20
9.8586609836715962
 30
0.0
 11
18.236175960610439
 21
9.881976445843744
 31
0.0
  0
LINE
  5
A621
  8
0
 10
18.32033227640984
 20
9.7439394200034641
 30
0.0
 11
18.3267786327342
 21
9.7432014875903388
 31
0.0
  0
LINE
  5
A622
  8
0
 10
18.3267786327342
 20
9.7432014875903388
 30
0.0
 11
18.333328328706141
 21
9.7434663864055437
 31
0.0
  0
LINE
  5
A623
  8
0
 10
18.333328328706141
 20
9.7434663864055437
 30
0.0
 11
18.339799428326401
 21
9.7439394200034641
 31
0.0
  0
ARC
  5
A624
  8
0
 10
18.336149064438061
 20
9.7938262709897117
 30
0.0
 40
0.0500207558816598
 50
274.18491599999982
 51
341.56505100000112
  0
LINE
  5
A625
  8
0
 10
18.334840580731662
 20
9.8682191733266702
 30
0.0
 11
18.362604014212678
 21
9.8498450928934744
 31
0.0
  0
LINE
  5
A626
  8
0
 10
18.373140291799551
 20
9.8193060438084103
 30
0.0
 11
18.353483926443761
 21
9.8095207980259076
 31
0.0
  0
LINE
  5
A627
  8
0
 10
18.221043251939289
 20
9.9887292127464136
 30
0.0
 11
18.27770831051248
 21
9.9962657295782265
 31
0.0
  0
LINE
  5
A628
  8
0
 10
18.23463750980105
 20
10.126197142781381
 30
0.0
 11
18.220568762853318
 21
10.11162916345164
 31
0.0
  0
LINE
  5
A629
  8
0
 10
18.207811410588
 20
9.9146259525198221
 30
0.0
 11
18.225676070223422
 21
9.9259685704553267
 31
0.0
  0
LINE
  5
A62A
  8
0
 10
18.220568762853318
 20
10.11162916345164
 30
0.0
 11
18.203607961261991
 21
10.1172415251558
 31
0.0
  0
LINE
  5
A62B
  8
0
 10
18.203607961261991
 20
10.1172415251558
 30
0.0
 11
18.20387868202884
 21
10.10228638602006
 31
0.0
  0
LINE
  5
A62C
  8
0
 10
18.20387868202884
 20
10.10228638602006
 30
0.0
 11
18.190574066277829
 21
10.094071611782731
 31
0.0
  0
LINE
  5
A62D
  8
0
 10
18.065237628670911
 20
10.08179748153133
 30
0.0
 11
18.073628516954962
 21
10.08860625436658
 31
0.0
  0
LINE
  5
A62E
  8
0
 10
18.171245185720672
 20
10.082369488313351
 30
0.0
 11
18.14983059086844
 21
10.06565903065688
 31
0.0
  0
LINE
  5
A62F
  8
0
 10
18.073628516954962
 20
10.08860625436658
 30
0.0
 11
18.081894233271552
 21
10.09221149812719
 31
0.0
  0
LINE
  5
A630
  8
0
 10
18.081894233271552
 20
10.09221149812719
 30
0.0
 11
18.094717082496601
 21
10.102348972003471
 31
0.0
  0
LINE
  5
A631
  8
0
 10
18.094717082496601
 20
10.102348972003471
 30
0.0
 11
18.13043184688755
 21
10.13288219913669
 31
0.0
  0
LINE
  5
A632
  8
0
 10
18.06308932839212
 20
10.012852470754961
 30
0.0
 11
18.074025865177241
 21
10.020035304004059
 31
0.0
  0
LINE
  5
A633
  8
0
 10
18.074025865177241
 20
10.020035304004059
 30
0.0
 11
18.083083366962441
 21
10.03932343089785
 31
0.0
  0
LINE
  5
A634
  8
0
 10
18.083083366962441
 20
10.03932343089785
 30
0.0
 11
18.070646222055721
 21
10.05279106130364
 31
0.0
  0
LINE
  5
A635
  8
0
 10
18.070646222055721
 20
10.05279106130364
 30
0.0
 11
18.066092000123241
 21
10.06987703486242
 31
0.0
  0
LINE
  5
A636
  8
0
 10
18.066092000123241
 20
10.06987703486242
 30
0.0
 11
18.065237628670911
 21
10.08179748153133
 31
0.0
  0
LINE
  5
A637
  8
0
 10
18.14983059086844
 20
10.06565903065688
 30
0.0
 11
18.123347986821919
 21
10.053103991222301
 31
0.0
  0
LINE
  5
A638
  8
0
 10
18.123347986821919
 20
10.053103991222301
 30
0.0
 11
18.109378213057781
 21
10.024547316784711
 31
0.0
  0
LINE
  5
A639
  8
0
 10
18.109378213057781
 20
10.024547316784711
 30
0.0
 11
18.087052482721418
 21
10.01223534384553
 31
0.0
  0
LINE
  5
A63A
  8
0
 10
18.087052482721418
 20
10.01223534384553
 30
0.0
 11
18.069788939627401
 21
10.00653856383814
 31
0.0
  0
LINE
  5
A63B
  8
0
 10
18.069788939627401
 20
10.00653856383814
 30
0.0
 11
18.070093136618109
 21
9.9903637257634728
 31
0.0
  0
LINE
  5
A63C
  8
0
 10
18.070093136618109
 20
9.9903637257634728
 30
0.0
 11
18.0665228245694
 21
9.9775292326344243
 31
0.0
  0
LINE
  5
A63D
  8
0
 10
18.190574066277829
 20
10.094071611782731
 30
0.0
 11
18.171245185720672
 21
10.082369488313351
 31
0.0
  0
LINE
  5
A63E
  8
0
 10
18.189550858218219
 20
9.9069249655449241
 30
0.0
 11
18.207811410588
 21
9.9146259525198221
 31
0.0
  0
LINE
  5
A63F
  8
0
 10
18.103821159897571
 20
9.9084124742744262
 30
0.0
 11
18.121859022604291
 21
9.9241724982712167
 31
0.0
  0
LINE
  5
A640
  8
0
 10
18.121859022604291
 20
9.9241724982712167
 30
0.0
 11
18.12988021693792
 21
9.9349416539368942
 31
0.0
  0
LINE
  5
A641
  8
0
 10
18.12988021693792
 20
9.9349416539368942
 30
0.0
 11
18.166276149709969
 21
9.9606892365463864
 31
0.0
  0
LINE
  5
A642
  8
0
 10
18.166276149709969
 20
9.9606892365463864
 30
0.0
 11
18.221043251939289
 21
9.9887292127464136
 31
0.0
  0
LINE
  5
A643
  8
0
 10
18.364107533310261
 20
10.062065430800191
 30
0.0
 11
18.377356840517479
 21
10.062551563790061
 31
0.0
  0
LINE
  5
A644
  8
0
 10
18.377356840517479
 20
10.062551563790061
 30
0.0
 11
18.389727032976481
 21
10.06941418968062
 31
0.0
  0
LINE
  5
A645
  8
0
 10
18.357254913899631
 20
9.9616604184911921
 30
0.0
 11
18.357693203407219
 21
9.9621184906957261
 31
0.0
  0
LINE
  5
A646
  8
0
 10
18.357693203407219
 20
9.9621184906957261
 30
0.0
 11
18.358118018279921
 21
9.9625816741647686
 31
0.0
  0
LINE
  5
A647
  8
0
 10
18.358118018279921
 20
9.9625816741647686
 30
0.0
 11
18.358530211342661
 21
9.9630507023282462
 31
0.0
  0
LINE
  5
A648
  8
0
 10
18.358530211342661
 20
9.9630507023282462
 30
0.0
 11
18.358930635420439
 21
9.9635263086149681
 31
0.0
  0
LINE
  5
A649
  8
0
 10
18.358930635420439
 20
9.9635263086149681
 30
0.0
 11
18.35932014333827
 21
9.9640092264544329
 31
0.0
  0
LINE
  5
A64A
  8
0
 10
18.35932014333827
 20
9.9640092264544329
 30
0.0
 11
18.359699587921121
 21
9.9645001892767997
 31
0.0
  0
LINE
  5
A64B
  8
0
 10
18.359699587921121
 20
9.9645001892767997
 30
0.0
 11
18.360071277482032
 21
9.9649954133813026
 31
0.0
  0
LINE
  5
A64C
  8
0
 10
18.360071277482032
 20
9.9649954133813026
 30
0.0
 11
18.360443342285969
 21
9.9654730465488157
 31
0.0
  0
LINE
  5
A64D
  8
0
 10
18.360443342285969
 20
9.9654730465488157
 30
0.0
 11
18.360825368085798
 21
9.965906719430448
 31
0.0
  0
LINE
  5
A64E
  8
0
 10
18.360825368085798
 20
9.965906719430448
 30
0.0
 11
18.361226940634602
 21
9.9662700626774878
 31
0.0
  0
LINE
  5
A64F
  8
0
 10
18.361226940634602
 20
9.9662700626774878
 30
0.0
 11
18.361657645685231
 21
9.9665367069403583
 31
0.0
  0
LINE
  5
A650
  8
0
 10
18.361657645685231
 20
9.9665367069403583
 30
0.0
 11
18.36212706899072
 21
9.9666802828714882
 31
0.0
  0
LINE
  5
A651
  8
0
 10
18.36212706899072
 20
9.9666802828714882
 30
0.0
 11
18.362644796304011
 21
9.9666744211210681
 31
0.0
  0
LINE
  5
A652
  8
0
 10
18.362644796304011
 20
9.9666744211210681
 30
0.0
 11
18.363220413378048
 21
9.9664927523404003
 31
0.0
  0
LINE
  5
A653
  8
0
 10
18.363220413378048
 20
9.9664927523404003
 30
0.0
 11
18.363860399313861
 21
9.966117545823856
 31
0.0
  0
LINE
  5
A654
  8
0
 10
18.363860399313861
 20
9.966117545823856
 30
0.0
 11
18.364558806604641
 21
9.9655656254396945
 31
0.0
  0
LINE
  5
A655
  8
0
 10
18.364558806604641
 20
9.9655656254396945
 30
0.0
 11
18.365306581091751
 21
9.9648624537000998
 31
0.0
  0
LINE
  5
A656
  8
0
 10
18.365306581091751
 20
9.9648624537000998
 30
0.0
 11
18.366094668616391
 21
9.9640334931163981
 31
0.0
  0
LINE
  5
A657
  8
0
 10
18.366094668616391
 20
9.9640334931163981
 30
0.0
 11
18.366914015019951
 21
9.9631042061998851
 31
0.0
  0
LINE
  5
A658
  8
0
 10
18.366914015019951
 20
9.9631042061998851
 30
0.0
 11
18.367755566143622
 21
9.9621000554620824
 31
0.0
  0
LINE
  5
A659
  8
0
 10
18.392496057190922
 20
10.01008050145149
 30
0.0
 11
18.391767889150511
 21
10.01084075987522
 31
0.0
  0
LINE
  5
A65A
  8
0
 10
18.391767889150511
 20
10.01084075987522
 30
0.0
 11
18.391171604810289
 21
10.011155371754271
 31
0.0
  0
LINE
  5
A65B
  8
0
 10
18.391171604810289
 20
10.011155371754271
 30
0.0
 11
18.39071452046112
 21
10.01096244189328
 31
0.0
  0
LINE
  5
A65C
  8
0
 10
18.39071452046112
 20
10.01096244189328
 30
0.0
 11
18.390381922976669
 21
10.01030292579116
 31
0.0
  0
LINE
  5
A65D
  8
0
 10
18.390381922976669
 20
10.01030292579116
 30
0.0
 11
18.390153591876281
 21
10.00924349162096
 31
0.0
  0
LINE
  5
A65E
  8
0
 10
18.390153591876281
 20
10.00924349162096
 30
0.0
 11
18.390009306679271
 21
10.00785080755484
 31
0.0
  0
LINE
  5
A65F
  8
0
 10
18.390009306679271
 20
10.00785080755484
 30
0.0
 11
18.389928846904969
 21
10.006191541766141
 31
0.0
  0
LINE
  5
A660
  8
0
 10
18.389928846904969
 20
10.006191541766141
 30
0.0
 11
18.389891992072759
 21
10.00433236242722
 31
0.0
  0
LINE
  5
A661
  8
0
 10
18.389891992072759
 20
10.00433236242722
 30
0.0
 11
18.389878521701959
 21
10.00233993771098
 31
0.0
  0
LINE
  5
A662
  8
0
 10
18.389878521701959
 20
10.00233993771098
 30
0.0
 11
18.389868215311878
 21
10.00028093579021
 31
0.0
  0
LINE
  5
A663
  8
0
 10
18.389868215311878
 20
10.00028093579021
 30
0.0
 11
18.389846063656361
 21
9.9982114791823662
 31
0.0
  0
LINE
  5
A664
  8
0
 10
18.389846063656361
 20
9.9982114791823662
 30
0.0
 11
18.389817902427421
 21
9.9961455077859664
 31
0.0
  0
LINE
  5
A665
  8
0
 10
18.389817902427421
 20
9.9961455077859664
 30
0.0
 11
18.38979477855144
 21
9.9940864158445422
 31
0.0
  0
LINE
  5
A666
  8
0
 10
18.38979477855144
 20
9.9940864158445422
 30
0.0
 11
18.38978773895488
 21
9.9920375976012021
 31
0.0
  0
LINE
  5
A667
  8
0
 10
18.38978773895488
 20
9.9920375976012021
 30
0.0
 11
18.389807830564202
 21
9.9900024473006361
 31
0.0
  0
LINE
  5
A668
  8
0
 10
18.389807830564202
 20
9.9900024473006361
 30
0.0
 11
18.389866100305881
 21
9.9879843591847859
 31
0.0
  0
LINE
  5
A669
  8
0
 10
18.389866100305881
 20
9.9879843591847859
 30
0.0
 11
18.389973595106341
 21
9.98598672749835
 31
0.0
  0
LINE
  5
A66A
  8
0
 10
18.389973595106341
 20
9.98598672749835
 30
0.0
 11
18.390141361892031
 21
9.9840129464839702
 31
0.0
  0
LINE
  5
A66B
  8
0
 10
18.390141361892031
 20
9.9840129464839702
 30
0.0
 11
18.390377753846892
 21
9.98206761902793
 31
0.0
  0
LINE
  5
A66C
  8
0
 10
18.390377753846892
 20
9.98206761902793
 30
0.0
 11
18.39068034918489
 21
9.9801601825868147
 31
0.0
  0
LINE
  5
A66D
  8
0
 10
18.39068034918489
 20
9.9801601825868147
 30
0.0
 11
18.391044032377351
 21
9.9783012832585882
 31
0.0
  0
LINE
  5
A66E
  8
0
 10
18.391044032377351
 20
9.9783012832585882
 30
0.0
 11
18.39146368789568
 21
9.9765015671425736
 31
0.0
  0
LINE
  5
A66F
  8
0
 10
18.39146368789568
 20
9.9765015671425736
 30
0.0
 11
18.39193420021132
 21
9.974771680337648
 31
0.0
  0
LINE
  5
A670
  8
0
 10
18.39193420021132
 20
9.974771680337648
 30
0.0
 11
18.392450453795639
 21
9.9731222689415464
 31
0.0
  0
LINE
  5
A671
  8
0
 10
18.238624091415961
 20
10.15787729445332
 30
0.0
 11
18.250110802662711
 21
10.138193274825881
 31
0.0
  0
LINE
  5
A672
  8
0
 10
18.250110802662711
 20
10.138193274825881
 30
0.0
 11
18.23463750980105
 21
10.126197142781381
 31
0.0
  0
LINE
  5
A673
  8
0
 10
18.27770831051248
 20
9.9962657295782265
 30
0.0
 11
18.314204671956102
 21
10.002141534608651
 31
0.0
  0
LINE
  5
A674
  8
0
 10
18.314204671956102
 20
10.002141534608651
 30
0.0
 11
18.328037629848801
 21
9.9999786794501144
 31
0.0
  0
LINE
  5
A675
  8
0
 10
18.328037629848801
 20
9.9999786794501144
 30
0.0
 11
18.33304159757137
 21
10.009926939887221
 31
0.0
  0
LINE
  5
A676
  8
0
 10
18.33304159757137
 20
10.009926939887221
 30
0.0
 11
18.339636413671119
 21
10.02657335607204
 31
0.0
  0
LINE
  5
A677
  8
0
 10
18.339636413671119
 20
10.02657335607204
 30
0.0
 11
18.35121190968551
 21
10.05054815430548
 31
0.0
  0
LINE
  5
A678
  8
0
 10
18.310597972707551
 20
9.9678254941798041
 30
0.0
 11
18.308193506541841
 21
9.9674441563254241
 31
0.0
  0
LINE
  5
A679
  8
0
 10
18.308193506541841
 20
9.9674441563254241
 30
0.0
 11
18.308384175469008
 21
9.96153633055882
 31
0.0
  0
LINE
  5
A67A
  8
0
 10
18.310597972707551
 20
9.9678254941798041
 30
0.0
 11
18.31152400657054
 21
9.9679540134852616
 31
0.0
  0
LINE
  5
A67B
  8
0
 10
18.31152400657054
 20
9.9679540134852616
 30
0.0
 11
18.312453193043261
 21
9.9680463985960142
 31
0.0
  0
LINE
  5
A67C
  8
0
 10
18.312453193043261
 20
9.9680463985960142
 30
0.0
 11
18.313384318271481
 21
9.9681017199320632
 31
0.0
  0
LINE
  5
A67D
  8
0
 10
18.313384318271481
 20
9.9681017199320632
 30
0.0
 11
18.314316168400929
 21
9.968119047914568
 31
0.0
  0
LINE
  5
A67E
  8
0
 10
18.314316168400929
 20
9.968119047914568
 30
0.0
 11
18.315247529577391
 21
9.9680974529644502
 31
0.0
  0
LINE
  5
A67F
  8
0
 10
18.315247529577391
 20
9.9680974529644502
 30
0.0
 11
18.316177187946639
 21
9.9680360055019701
 31
0.0
  0
LINE
  5
A680
  8
0
 10
18.316177187946639
 20
9.9680360055019701
 30
0.0
 11
18.31710392965438
 21
9.967933775948266
 31
0.0
  0
LINE
  5
A681
  8
0
 10
18.31710392965438
 20
9.967933775948266
 30
0.0
 11
18.318026540846361
 21
9.9677898347240408
 31
0.0
  0
LINE
  5
A682
  8
0
 10
18.318026540846361
 20
9.9677898347240408
 30
0.0
 11
18.318944814949479
 21
9.9676035976440183
 31
0.0
  0
LINE
  5
A683
  8
0
 10
18.318944814949479
 20
9.9676035976440183
 30
0.0
 11
18.31986257451485
 21
9.9673758620999688
 31
0.0
  0
LINE
  5
A684
  8
0
 10
18.31986257451485
 20
9.9673758620999688
 30
0.0
 11
18.32078464937468
 21
9.9671077708767282
 31
0.0
  0
LINE
  5
A685
  8
0
 10
18.32078464937468
 20
9.9671077708767282
 30
0.0
 11
18.321715869361231
 21
9.9668004667603327
 31
0.0
  0
LINE
  5
A686
  8
0
 10
18.321715869361231
 20
9.9668004667603327
 30
0.0
 11
18.322661064306718
 21
9.9664550925360782
 31
0.0
  0
LINE
  5
A687
  8
0
 10
18.322661064306718
 20
9.9664550925360782
 30
0.0
 11
18.323625064043391
 21
9.9660727909895286
 31
0.0
  0
LINE
  5
A688
  8
0
 10
18.323625064043391
 20
9.9660727909895286
 30
0.0
 11
18.324612698403449
 21
9.9656547049062247
 31
0.0
  0
LINE
  5
A689
  8
0
 10
18.324612698403449
 20
9.9656547049062247
 30
0.0
 11
18.325628797219121
 21
9.9652019770710467
 31
0.0
  0
LINE
  5
A68A
  8
0
 10
18.325628797219121
 20
9.9652019770710467
 30
0.0
 11
18.326675995719679
 21
9.9647168106162063
 31
0.0
  0
LINE
  5
A68B
  8
0
 10
18.326675995719679
 20
9.9647168106162063
 30
0.0
 11
18.327748150722371
 21
9.9642056500554101
 31
0.0
  0
LINE
  5
A68C
  8
0
 10
18.327748150722371
 20
9.9642056500554101
 30
0.0
 11
18.328836924441511
 21
9.9636760002488245
 31
0.0
  0
LINE
  5
A68D
  8
0
 10
18.328836924441511
 20
9.9636760002488245
 30
0.0
 11
18.329933979091351
 21
9.9631353660558943
 31
0.0
  0
LINE
  5
A68E
  8
0
 10
18.329933979091351
 20
9.9631353660558943
 30
0.0
 11
18.33103097688619
 21
9.9625912523374538
 31
0.0
  0
LINE
  5
A68F
  8
0
 10
18.33103097688619
 20
9.9625912523374538
 30
0.0
 11
18.33211958004032
 21
9.9620511639525304
 31
0.0
  0
LINE
  5
A690
  8
0
 10
18.33211958004032
 20
9.9620511639525304
 30
0.0
 11
18.33319145076803
 21
9.9615226057619513
 31
0.0
  0
LINE
  5
A691
  8
0
 10
18.35121190968551
 20
10.05054815430548
 30
0.0
 11
18.364107533310261
 21
10.062065430800191
 31
0.0
  0
LINE
  5
A692
  8
0
 10
18.37435085947137
 20
9.9289634453716644
 30
0.0
 11
18.37435085947137
 21
9.9289634453716644
 31
0.0
  0
LINE
  5
A693
  8
0
 10
18.36861026782876
 20
9.9610465034156661
 30
0.0
 11
18.369469065916611
 21
9.9599690125712641
 31
0.0
  0
LINE
  5
A694
  8
0
 10
18.369469065916611
 20
9.9599690125712641
 30
0.0
 11
18.370328828170511
 21
9.9588843129863545
 31
0.0
  0
LINE
  5
A695
  8
0
 10
18.370328828170511
 20
9.9588843129863545
 30
0.0
 11
18.371210110041801
 21
9.9577742049023037
 31
0.0
  0
LINE
  5
A696
  8
0
 10
18.371210110041801
 20
9.9577742049023037
 30
0.0
 11
18.372139388903921
 21
9.9566117561057581
 31
0.0
  0
LINE
  5
A697
  8
0
 10
18.372139388903921
 20
9.9566117561057581
 30
0.0
 11
18.3731431421302
 21
9.9553700343826641
 31
0.0
  0
LINE
  5
A698
  8
0
 10
18.3731431421302
 20
9.9553700343826641
 30
0.0
 11
18.37424784709405
 21
9.9540221075201281
 31
0.0
  0
LINE
  5
A699
  8
0
 10
18.37424784709405
 20
9.9540221075201281
 30
0.0
 11
18.375479981168841
 21
9.9525410433047838
 31
0.0
  0
LINE
  5
A69A
  8
0
 10
18.375479981168841
 20
9.9525410433047838
 30
0.0
 11
18.376866021728009
 21
9.9508999095232866
 31
0.0
  0
LINE
  5
A69B
  8
0
 10
18.376866021728009
 20
9.9508999095232866
 30
0.0
 11
18.37843244614487
 21
9.9490717739613501
 31
0.0
  0
LINE
  5
A69C
  8
0
 10
18.37843244614487
 20
9.9490717739613501
 30
0.0
 11
18.38019828378788
 21
9.9470350890494483
 31
0.0
  0
LINE
  5
A69D
  8
0
 10
18.38019828378788
 20
9.9470350890494483
 30
0.0
 11
18.3821527720056
 21
9.9447898457844968
 31
0.0
  0
LINE
  5
A69E
  8
0
 10
18.3821527720056
 20
9.9447898457844968
 30
0.0
 11
18.38427770014157
 21
9.9423414198065476
 31
0.0
  0
LINE
  5
A69F
  8
0
 10
18.38427770014157
 20
9.9423414198065476
 30
0.0
 11
18.386554857539391
 21
9.9396951867563441
 31
0.0
  0
LINE
  5
A6A0
  8
0
 10
18.386554857539391
 20
9.9396951867563441
 30
0.0
 11
18.388966033542641
 21
9.93685652227418
 31
0.0
  0
LINE
  5
A6A1
  8
0
 10
18.388966033542641
 20
9.93685652227418
 30
0.0
 11
18.391493017494891
 21
9.9338308020001023
 31
0.0
  0
LINE
  5
A6A2
  8
0
 10
18.391187524210221
 20
9.906849795654578
 30
0.0
 11
18.388815788046511
 21
9.9095749064886078
 31
0.0
  0
LINE
  5
A6A3
  8
0
 10
18.388815788046511
 20
9.9095749064886078
 30
0.0
 11
18.3865006368213
 21
9.9123231317228147
 31
0.0
  0
LINE
  5
A6A4
  8
0
 10
18.3865006368213
 20
9.9123231317228147
 30
0.0
 11
18.38428313405818
 21
9.9150458916024
 31
0.0
  0
LINE
  5
A6A5
  8
0
 10
18.38428313405818
 20
9.9150458916024
 30
0.0
 11
18.382204343280691
 21
9.9176946063735141
 31
0.0
  0
LINE
  5
A6A6
  8
0
 10
18.382204343280691
 20
9.9176946063735141
 30
0.0
 11
18.38029409678105
 21
9.9202301010452576
 31
0.0
  0
LINE
  5
A6A7
  8
0
 10
18.38029409678105
 20
9.9202301010452576
 30
0.0
 11
18.378537301925761
 21
9.9226508196868473
 31
0.0
  0
LINE
  5
A6A8
  8
0
 10
18.378537301925761
 20
9.9226508196868473
 30
0.0
 11
18.376907634849921
 21
9.9249646111297736
 31
0.0
  0
LINE
  5
A6A9
  8
0
 10
18.376907634849921
 20
9.9249646111297736
 30
0.0
 11
18.375378771688631
 21
9.9271793242075983
 31
0.0
  0
LINE
  5
A6AA
  8
0
 10
18.375378771688631
 20
9.9271793242075983
 30
0.0
 11
18.37392438857702
 21
9.9293028077524923
 31
0.0
  0
LINE
  5
A6AB
  8
0
 10
18.37392438857702
 20
9.9293028077524923
 30
0.0
 11
18.372518161650198
 21
9.9313429105977722
 31
0.0
  0
LINE
  5
A6AC
  8
0
 10
18.372518161650198
 20
9.9313429105977722
 30
0.0
 11
18.371133767043322
 21
9.933307481576092
 31
0.0
  0
LINE
  5
A6AD
  8
0
 10
18.371133767043322
 20
9.933307481576092
 30
0.0
 11
18.369744880891432
 21
9.9352043695196244
 31
0.0
  0
LINE
  5
A6AE
  8
0
 10
18.369744880891432
 20
9.9352043695196244
 30
0.0
 11
18.368330717480461
 21
9.9370387700284901
 31
0.0
  0
LINE
  5
A6AF
  8
0
 10
18.368330717480461
 20
9.9370387700284901
 30
0.0
 11
18.366892643699309
 21
9.9388052657679964
 31
0.0
  0
LINE
  5
A6B0
  8
0
 10
18.366892643699309
 20
9.9388052657679964
 30
0.0
 11
18.365437564587761
 21
9.9404957861711321
 31
0.0
  0
LINE
  5
A6B1
  8
0
 10
18.365437564587761
 20
9.9404957861711321
 30
0.0
 11
18.363972385185502
 21
9.9421022606713905
 31
0.0
  0
LINE
  5
A6B2
  8
0
 10
18.363972385185502
 20
9.9421022606713905
 30
0.0
 11
18.362504010532241
 21
9.9436166187008421
 31
0.0
  0
LINE
  5
A6B3
  8
0
 10
18.362504010532241
 20
9.9436166187008421
 30
0.0
 11
18.36103934566772
 21
9.9450307896925061
 31
0.0
  0
LINE
  5
A6B4
  8
0
 10
18.36103934566772
 20
9.9450307896925061
 30
0.0
 11
18.359585295631671
 21
9.9463367030791652
 31
0.0
  0
LINE
  5
A6B5
  8
0
 10
18.359585295631671
 20
9.9463367030791652
 30
0.0
 11
18.358148765463781
 21
9.9475262882936004
 31
0.0
  0
LINE
  5
A6B6
  8
0
 10
18.358148765463781
 20
9.9475262882936004
 30
0.0
 11
18.35673368289698
 21
9.9485943066213114
 31
0.0
  0
LINE
  5
A6B7
  8
0
 10
18.334238251283551
 20
9.9610130826249605
 30
0.0
 11
18.335254779828311
 21
9.9605291949337662
 31
0.0
  0
LINE
  5
A6B8
  8
0
 10
18.335254779828311
 20
9.9605291949337662
 30
0.0
 11
18.336248378751641
 21
9.9600739252066361
 31
0.0
  0
LINE
  5
A6B9
  8
0
 10
18.336248378751641
 20
9.9600739252066361
 30
0.0
 11
18.33722952642999
 21
9.9596493514941304
 31
0.0
  0
LINE
  5
A6BA
  8
0
 10
18.33722952642999
 20
9.9596493514941304
 30
0.0
 11
18.338208701239878
 21
9.9592575518458943
 31
0.0
  0
LINE
  5
A6BB
  8
0
 10
18.338208701239878
 20
9.9592575518458943
 30
0.0
 11
18.339196381557731
 21
9.9589006043127046
 31
0.0
  0
LINE
  5
A6BC
  8
0
 10
18.339196381557731
 20
9.9589006043127046
 30
0.0
 11
18.34020304576002
 21
9.9585805869446542
 31
0.0
  0
LINE
  5
A6BD
  8
0
 10
18.34020304576002
 20
9.9585805869446542
 30
0.0
 11
18.341239172223158
 21
9.9582995777918661
 31
0.0
  0
LINE
  5
A6BE
  8
0
 10
18.341239172223158
 20
9.9582995777918661
 30
0.0
 11
18.342315239323639
 21
9.9580596549042166
 31
0.0
  0
LINE
  5
A6BF
  8
0
 10
18.342315239323639
 20
9.9580596549042166
 30
0.0
 11
18.343436945827591
 21
9.9578629081779582
 31
0.0
  0
LINE
  5
A6C0
  8
0
 10
18.343436945827591
 20
9.9578629081779582
 30
0.0
 11
18.344590872059879
 21
9.9577114748860822
 31
0.0
  0
LINE
  5
A6C1
  8
0
 10
18.344590872059879
 20
9.9577114748860822
 30
0.0
 11
18.345758818735131
 21
9.9576075041479708
 31
0.0
  0
LINE
  5
A6C2
  8
0
 10
18.345758818735131
 20
9.9576075041479708
 30
0.0
 11
18.346922586567871
 21
9.957553145082322
 31
0.0
  0
LINE
  5
A6C3
  8
0
 10
18.346922586567871
 20
9.957553145082322
 30
0.0
 11
18.348063976272751
 21
9.9575505468089887
 31
0.0
  0
LINE
  5
A6C4
  8
0
 10
18.348063976272751
 20
9.9575505468089887
 30
0.0
 11
18.349164788564281
 21
9.9576018584464183
 31
0.0
  0
LINE
  5
A6C5
  8
0
 10
18.349164788564281
 20
9.9576018584464183
 30
0.0
 11
18.35020682415707
 21
9.9577092291137834
 31
0.0
  0
LINE
  5
A6C6
  8
0
 10
18.35020682415707
 20
9.9577092291137834
 30
0.0
 11
18.35117188376568
 21
9.957874807929322
 31
0.0
  0
LINE
  5
A6C7
  8
0
 10
18.35117188376568
 20
9.957874807929322
 30
0.0
 11
18.352046450113921
 21
9.9580991890286423
 31
0.0
  0
LINE
  5
A6C8
  8
0
 10
18.352046450113921
 20
9.9580991890286423
 30
0.0
 11
18.352835733962561
 21
9.958376746608792
 31
0.0
  0
LINE
  5
A6C9
  8
0
 10
18.352835733962561
 20
9.958376746608792
 30
0.0
 11
18.353549628081481
 21
9.9587002998844127
 31
0.0
  0
LINE
  5
A6CA
  8
0
 10
18.353549628081481
 20
9.9587002998844127
 30
0.0
 11
18.354198025240709
 21
9.959062668068098
 31
0.0
  0
LINE
  5
A6CB
  8
0
 10
18.354198025240709
 20
9.959062668068098
 30
0.0
 11
18.354790818210159
 21
9.9594566703738021
 31
0.0
  0
LINE
  5
A6CC
  8
0
 10
18.354790818210159
 20
9.9594566703738021
 30
0.0
 11
18.355337899759839
 21
9.9598751260148184
 31
0.0
  0
LINE
  5
A6CD
  8
0
 10
18.355337899759839
 20
9.9598751260148184
 30
0.0
 11
18.355849162659648
 21
9.9603108542048648
 31
0.0
  0
LINE
  5
A6CE
  8
0
 10
18.355849162659648
 20
9.9603108542048648
 30
0.0
 11
18.356334499679551
 21
9.9607566741569826
 31
0.0
  0
LINE
  5
A6CF
  8
0
 10
18.355332066436841
 20
9.9495468467589419
 30
0.0
 11
18.353932957282211
 21
9.9503928292560868
 31
0.0
  0
LINE
  5
A6D0
  8
0
 10
18.353932957282211
 20
9.9503928292560868
 30
0.0
 11
18.352525396631862
 21
9.9511411746620961
 31
0.0
  0
LINE
  5
A6D1
  8
0
 10
18.352525396631862
 20
9.9511411746620961
 30
0.0
 11
18.351098425684629
 21
9.9518008035263321
 31
0.0
  0
LINE
  5
A6D2
  8
0
 10
18.351098425684629
 20
9.9518008035263321
 30
0.0
 11
18.349641085639231
 21
9.9523806363990843
 31
0.0
  0
LINE
  5
A6D3
  8
0
 10
18.349641085639231
 20
9.9523806363990843
 30
0.0
 11
18.34814241769455
 21
9.9528895938283224
 31
0.0
  0
LINE
  5
A6D4
  8
0
 10
18.34814241769455
 20
9.9528895938283224
 30
0.0
 11
18.346591463049322
 21
9.9533365963648066
 31
0.0
  0
LINE
  5
A6D5
  8
0
 10
18.346591463049322
 20
9.9533365963648066
 30
0.0
 11
18.34498049463528
 21
9.953730330504408
 31
0.0
  0
LINE
  5
A6D6
  8
0
 10
18.34498049463528
 20
9.953730330504408
 30
0.0
 11
18.34331471231603
 21
9.9540785465308037
 31
0.0
  0
LINE
  5
A6D7
  8
0
 10
18.34331471231603
 20
9.9540785465308037
 30
0.0
 11
18.341602547687948
 21
9.9543887606757764
 31
0.0
  0
LINE
  5
A6D8
  8
0
 10
18.341602547687948
 20
9.9543887606757764
 30
0.0
 11
18.33985243234752
 21
9.9546684891697623
 31
0.0
  0
LINE
  5
A6D9
  8
0
 10
18.33985243234752
 20
9.9546684891697623
 30
0.0
 11
18.338072797891211
 21
9.9549252482436223
 31
0.0
  0
LINE
  5
A6DA
  8
0
 10
18.338072797891211
 20
9.9549252482436223
 30
0.0
 11
18.33627207591552
 21
9.9551665541289314
 31
0.0
  0
LINE
  5
A6DB
  8
0
 10
18.33627207591552
 20
9.9551665541289314
 30
0.0
 11
18.334458698016881
 21
9.9553999230558876
 31
0.0
  0
LINE
  5
A6DC
  8
0
 10
18.334458698016881
 20
9.9553999230558876
 30
0.0
 11
18.33264109579175
 21
9.9556328712562792
 31
0.0
  0
LINE
  5
A6DD
  8
0
 10
18.33264109579175
 20
9.9556328712562792
 30
0.0
 11
18.330828153781422
 21
9.9558717809397823
 31
0.0
  0
LINE
  5
A6DE
  8
0
 10
18.330828153781422
 20
9.9558717809397823
 30
0.0
 11
18.329030568306528
 21
9.9561184982367177
 31
0.0
  0
LINE
  5
A6DF
  8
0
 10
18.329030568306528
 20
9.9561184982367177
 30
0.0
 11
18.32725948863256
 21
9.9563737352548234
 31
0.0
  0
LINE
  5
A6E0
  8
0
 10
18.32725948863256
 20
9.9563737352548234
 30
0.0
 11
18.32552606402492
 21
9.9566382041039105
 31
0.0
  0
LINE
  5
A6E1
  8
0
 10
18.32552606402492
 20
9.9566382041039105
 30
0.0
 11
18.32384144374905
 21
9.9569126168921684
 31
0.0
  0
LINE
  5
A6E2
  8
0
 10
18.32384144374905
 20
9.9569126168921684
 30
0.0
 11
18.32221677707043
 21
9.9571976857287101
 31
0.0
  0
LINE
  5
A6E3
  8
0
 10
18.32221677707043
 20
9.9571976857287101
 30
0.0
 11
18.32066321325448
 21
9.9574941227231122
 31
0.0
  0
LINE
  5
A6E4
  8
0
 10
18.32066321325448
 20
9.9574941227231122
 30
0.0
 11
18.319191901566711
 21
9.9578026399831234
 31
0.0
  0
LINE
  5
A6E5
  8
0
 10
18.319191901566711
 20
9.9578026399831234
 30
0.0
 11
18.317811799038509
 21
9.9581234293946164
 31
0.0
  0
LINE
  5
A6E6
  8
0
 10
18.317811799038509
 20
9.9581234293946164
 30
0.0
 11
18.316523093765142
 21
9.9584546019504998
 31
0.0
  0
LINE
  5
A6E7
  8
0
 10
18.316523093765142
 20
9.9584546019504998
 30
0.0
 11
18.315323781607919
 21
9.9587937484200122
 31
0.0
  0
LINE
  5
A6E8
  8
0
 10
18.315323781607919
 20
9.9587937484200122
 30
0.0
 11
18.314211858428038
 21
9.9591384595732961
 31
0.0
  0
LINE
  5
A6E9
  8
0
 10
18.314211858428038
 20
9.9591384595732961
 30
0.0
 11
18.313185320086831
 21
9.9594863261784141
 31
0.0
  0
LINE
  5
A6EA
  8
0
 10
18.313185320086831
 20
9.9594863261784141
 30
0.0
 11
18.3122421624455
 21
9.9598349390057521
 31
0.0
  0
LINE
  5
A6EB
  8
0
 10
18.3122421624455
 20
9.9598349390057521
 30
0.0
 11
18.311380381365311
 21
9.9601818888243034
 31
0.0
  0
LINE
  5
A6EC
  8
0
 10
18.311380381365311
 20
9.9601818888243034
 30
0.0
 11
18.310597972707551
 21
9.9605247664032923
 31
0.0
  0
LINE
  5
A6ED
  8
0
 10
18.278693675884242
 20
9.9135430694525422
 30
0.0
 11
18.286058445132682
 21
9.9051973012963064
 31
0.0
  0
LINE
  5
A6EE
  8
0
 10
18.225676070223422
 20
9.9259685704553267
 30
0.0
 11
18.244248097023839
 21
9.9303990759083263
 31
0.0
  0
LINE
  5
A6EF
  8
0
 10
18.244248097023839
 20
9.9303990759083263
 30
0.0
 11
18.256114690636998
 21
9.9299798953659302
 31
0.0
  0
LINE
  5
A6F0
  8
0
 10
18.256114690636998
 20
9.9299798953659302
 30
0.0
 11
18.261926454196111
 21
9.9288882793709927
 31
0.0
  0
LINE
  5
A6F1
  8
0
 10
18.278693675884242
 20
9.9135430694525422
 30
0.0
 11
18.27368097523372
 21
9.9192238390924103
 31
0.0
  0
LINE
  5
A6F2
  8
0
 10
18.27368097523372
 20
9.9192238390924103
 30
0.0
 11
18.26937273077219
 21
9.9274895554087763
 31
0.0
  0
LINE
  5
A6F3
  8
0
 10
18.26937273077219
 20
9.9274895554087763
 30
0.0
 11
18.261926454196111
 21
9.9288882793709927
 31
0.0
  0
LINE
  5
A6F4
  8
0
 10
18.356334499679551
 20
9.9607566741569826
 30
0.0
 11
18.35680229693207
 21
9.9612067241209843
 31
0.0
  0
LINE
  5
A6F5
  8
0
 10
18.35673368289698
 20
9.9485943066213114
 30
0.0
 11
18.355332066436841
 21
9.9495468467589419
 31
0.0
  0
LINE
  5
A6F6
  8
0
 10
18.308384175469008
 20
9.96153633055882
 30
0.0
 11
18.310597972707551
 21
9.9605247664030685
 31
0.0
  0
LINE
  5
A6F7
  8
0
 10
18.33319145076803
 20
9.9615226057619513
 30
0.0
 11
18.334238251283551
 21
9.9610130826249605
 31
0.0
  0
LINE
  5
A6F8
  8
0
 10
18.35680229693207
 20
9.9612067241209843
 30
0.0
 11
18.357254913899631
 21
9.9616604184911921
 31
0.0
  0
LINE
  5
A6F9
  8
0
 10
18.367755566143622
 20
9.9621000554620824
 30
0.0
 11
18.36861026782876
 21
9.9610465034156661
 31
0.0
  0
LINE
  5
A6FA
  8
0
 10
18.413005285446371
 20
9.9060827117880326
 30
0.0
 11
18.41535088915705
 21
9.9031127018331482
 31
0.0
  0
ARC
  5
A6FB
  8
0
 10
18.49489186247785
 20
10.0174125146393
 30
0.0
 40
0.160466095824399
 50
282.4976340000004
 51
5.335775583912941
  0
ARC
  5
A6FC
  8
0
 10
18.434094619636159
 20
10.00365525312349
 30
0.0
 40
0.1583906795371874
 50
270.3585265090901
 51
281.74765214791682
  0
ARC
  5
A6FD
  8
0
 10
18.435089637603841
 20
9.8065255166948102
 30
0.0
 40
0.0387421580429976
 50
90.005767445201499
 51
152.781041066928
  0
LINE
  5
A6FE
  8
0
 10
18.40633925536752
 20
9.8928055175781502
 30
0.0
 11
18.40633925536752
 21
9.8928055175781502
 31
0.0
  0
LINE
  5
A6FF
  8
0
 10
18.41535088915705
 20
9.9031127018331482
 30
0.0
 11
18.417496530990821
 21
9.9005045654228017
 31
0.0
  0
LINE
  5
A700
  8
0
 10
18.417496530990821
 20
9.9005045654228017
 30
0.0
 11
18.419411659439781
 21
9.8983130809292561
 31
0.0
  0
LINE
  5
A701
  8
0
 10
18.419411659439781
 20
9.8983130809292561
 30
0.0
 11
18.42109273859673
 21
9.8965076816823458
 31
0.0
  0
LINE
  5
A702
  8
0
 10
18.42109273859673
 20
9.8965076816823458
 30
0.0
 11
18.422542986454669
 21
9.8950364647525841
 31
0.0
  0
LINE
  5
A703
  8
0
 10
18.422542986454669
 20
9.8950364647525841
 30
0.0
 11
18.423765621006631
 21
9.8938475272113902
 31
0.0
  0
LINE
  5
A704
  8
0
 10
18.423765621006631
 20
9.8938475272113902
 30
0.0
 11
18.42476386024552
 21
9.8928889661294743
 31
0.0
  0
LINE
  5
A705
  8
0
 10
18.42476386024552
 20
9.8928889661294743
 30
0.0
 11
18.425540922164348
 21
9.8921088785768863
 31
0.0
  0
LINE
  5
A706
  8
0
 10
18.425540922164348
 20
9.8921088785768863
 30
0.0
 11
18.426100024756121
 21
9.8914553616250434
 31
0.0
  0
LINE
  5
A707
  8
0
 10
18.426100024756121
 20
9.8914553616250434
 30
0.0
 11
18.42644438601382
 21
9.8908765123444482
 31
0.0
  0
LINE
  5
A708
  8
0
 10
18.42644438601382
 20
9.8908765123444482
 30
0.0
 11
18.426579542666811
 21
9.8903297439710478
 31
0.0
  0
LINE
  5
A709
  8
0
 10
18.426579542666811
 20
9.8903297439710478
 30
0.0
 11
18.426520306390149
 21
9.8898097344031122
 31
0.0
  0
LINE
  5
A70A
  8
0
 10
18.426520306390149
 20
9.8898097344031122
 30
0.0
 11
18.42628380759524
 21
9.889320477704814
 31
0.0
  0
LINE
  5
A70B
  8
0
 10
18.42628380759524
 20
9.889320477704814
 30
0.0
 11
18.425887176693521
 21
9.8888659679394042
 31
0.0
  0
LINE
  5
A70C
  8
0
 10
18.425887176693521
 20
9.8888659679394042
 30
0.0
 11
18.425347544096422
 21
9.8884501991710696
 31
0.0
  0
LINE
  5
A70D
  8
0
 10
18.425347544096422
 20
9.8884501991710696
 30
0.0
 11
18.424682040215352
 21
9.8880771654632902
 31
0.0
  0
LINE
  5
A70E
  8
0
 10
18.424682040215352
 20
9.8880771654632902
 30
0.0
 11
18.423907795461758
 21
9.8877508608795761
 31
0.0
  0
LINE
  5
A70F
  8
0
 10
18.423907795461758
 20
9.8877508608795761
 30
0.0
 11
18.42304194024706
 21
9.8874752794843062
 31
0.0
  0
LINE
  5
A710
  8
0
 10
18.42304194024706
 20
9.8874752794843062
 30
0.0
 11
18.422099465339521
 21
9.887255182409028
 31
0.0
  0
LINE
  5
A711
  8
0
 10
18.422099465339521
 20
9.887255182409028
 30
0.0
 11
18.421086802934759
 21
9.8870983990616423
 31
0.0
  0
LINE
  5
A712
  8
0
 10
18.421086802934759
 20
9.8870983990616423
 30
0.0
 11
18.420008245585301
 21
9.8870135259185101
 31
0.0
  0
LINE
  5
A713
  8
0
 10
18.420008245585301
 20
9.8870135259185101
 30
0.0
 11
18.418868085843599
 21
9.8870091594542302
 31
0.0
  0
LINE
  5
A714
  8
0
 10
18.418868085843599
 20
9.8870091594542302
 30
0.0
 11
18.417670616262161
 21
9.8870938961458688
 31
0.0
  0
LINE
  5
A715
  8
0
 10
18.417670616262161
 20
9.8870938961458688
 30
0.0
 11
18.41642012939343
 21
9.8872763324688968
 31
0.0
  0
LINE
  5
A716
  8
0
 10
18.41642012939343
 20
9.8872763324688968
 30
0.0
 11
18.41512091778992
 21
9.8875650648997127
 31
0.0
  0
LINE
  5
A717
  8
0
 10
18.41512091778992
 20
9.8875650648997127
 30
0.0
 11
18.41377727400409
 21
9.8879686899140342
 31
0.0
  0
LINE
  5
A718
  8
0
 10
18.41377727400409
 20
9.8879686899140342
 30
0.0
 11
18.412390512807821
 21
9.8884973404942684
 31
0.0
  0
LINE
  5
A719
  8
0
 10
18.412390512807821
 20
9.8884973404942684
 30
0.0
 11
18.41095003785054
 21
9.8891672956481145
 31
0.0
  0
LINE
  5
A71A
  8
0
 10
18.41095003785054
 20
9.8891672956481145
 30
0.0
 11
18.409442275001041
 21
9.8899963708895449
 31
0.0
  0
LINE
  5
A71B
  8
0
 10
18.409442275001041
 20
9.8899963708895449
 30
0.0
 11
18.407853650128128
 21
9.891002381733184
 31
0.0
  0
LINE
  5
A71C
  8
0
 10
18.407853650128128
 20
9.891002381733184
 30
0.0
 11
18.40617058910064
 21
9.8922031436927682
 31
0.0
  0
LINE
  5
A71D
  8
0
 10
18.40617058910064
 20
9.8922031436927682
 30
0.0
 11
18.404379517787351
 21
9.8936164722829218
 31
0.0
  0
LINE
  5
A71E
  8
0
 10
18.404379517787351
 20
9.8936164722829218
 30
0.0
 11
18.4024668620571
 21
9.8952601830176263
 31
0.0
  0
LINE
  5
A71F
  8
0
 10
18.4024668620571
 20
9.8952601830176263
 30
0.0
 11
18.400419047778669
 21
9.8971520914108169
 31
0.0
  0
LINE
  5
A720
  8
0
 10
18.400419047778669
 20
9.8971520914108169
 30
0.0
 11
18.398231607096641
 21
9.8992989470987123
 31
0.0
  0
LINE
  5
A721
  8
0
 10
18.398231607096641
 20
9.8992989470987123
 30
0.0
 11
18.395936497258841
 21
9.9016632362049624
 31
0.0
  0
LINE
  5
A722
  8
0
 10
18.395936497258841
 20
9.9016632362049624
 30
0.0
 11
18.393574781788871
 21
9.9041963789752501
 31
0.0
  0
ARC
  5
A723
  8
0
 10
18.42193116032648
 20
10.250115935082
 30
0.0
 40
0.4039823365729263
 50
276.3116059999997
 51
285.4594479999999
  0
LINE
  5
A724
  8
0
 10
18.561132576561999
 20
10.05886481270201
 30
0.0
 11
18.56575811740618
 21
10.080839770431551
 31
0.0
  0
LINE
  5
A725
  8
0
 10
18.56575811740618
 20
10.080839770431551
 30
0.0
 11
18.541669791109399
 21
10.102775429985741
 31
0.0
  0
LINE
  5
A726
  8
0
 10
18.531765195311831
 20
10.02218797074692
 30
0.0
 11
18.539349743247321
 21
10.013747595871081
 31
0.0
  0
LINE
  5
A727
  8
0
 10
18.539349743247321
 20
10.013747595871081
 30
0.0
 11
18.549255794532868
 21
10.022160316475031
 31
0.0
  0
LINE
  5
A728
  8
0
 10
18.549255794532868
 20
10.022160316475031
 30
0.0
 11
18.561378554032949
 21
10.03529027366676
 31
0.0
  0
LINE
  5
A729
  8
0
 10
18.561378554032949
 20
10.03529027366676
 30
0.0
 11
18.561132576561999
 21
10.05886481270201
 31
0.0
  0
LINE
  5
A72A
  8
0
 10
18.432810933079871
 20
10.06668951615619
 30
0.0
 11
18.448209996053869
 21
10.06538685440202
 31
0.0
  0
LINE
  5
A72B
  8
0
 10
18.448209996053869
 20
10.06538685440202
 30
0.0
 11
18.47879707624282
 21
10.053537726644651
 31
0.0
  0
LINE
  5
A72C
  8
0
 10
18.47879707624282
 20
10.053537726644651
 30
0.0
 11
18.50337153552951
 21
10.040746898155691
 31
0.0
  0
LINE
  5
A72D
  8
0
 10
18.50337153552951
 20
10.040746898155691
 30
0.0
 11
18.517198671470229
 21
10.032351643407299
 31
0.0
  0
LINE
  5
A72E
  8
0
 10
18.420382521101121
 20
10.075313282519559
 30
0.0
 11
18.421544000520122
 21
10.0649545744677
 31
0.0
  0
LINE
  5
A72F
  8
0
 10
18.44137356894716
 20
10.13993986041848
 30
0.0
 11
18.394505400060002
 21
10.147864992544321
 31
0.0
  0
LINE
  5
A730
  8
0
 10
18.526880577604761
 20
10.111274024381361
 30
0.0
 11
18.500165095479218
 21
10.129553498094751
 31
0.0
  0
LINE
  5
A731
  8
0
 10
18.500165095479218
 20
10.129553498094751
 30
0.0
 11
18.44137356894716
 21
10.13993986041848
 31
0.0
  0
LINE
  5
A732
  8
0
 10
18.40862654457548
 20
10.07577467221355
 30
0.0
 11
18.420382521101121
 21
10.075313282519559
 31
0.0
  0
LINE
  5
A733
  8
0
 10
18.396924421105641
 20
10.0769201412645
 30
0.0
 11
18.40862654457548
 21
10.07577467221355
 31
0.0
  0
LINE
  5
A734
  8
0
 10
18.421544000520122
 20
10.0649545744677
 30
0.0
 11
18.432810933079871
 21
10.06668951615619
 31
0.0
  0
LINE
  5
A735
  8
0
 10
18.443156553110502
 20
9.9614987494037432
 30
0.0
 11
18.442619458615368
 21
9.9634685823123164
 31
0.0
  0
LINE
  5
A736
  8
0
 10
18.442619458615368
 20
9.9634685823123164
 30
0.0
 11
18.441953095750009
 21
9.9653659620516901
 31
0.0
  0
LINE
  5
A737
  8
0
 10
18.441953095750009
 20
9.9653659620516901
 30
0.0
 11
18.4411447138332
 21
9.9671805580685469
 31
0.0
  0
LINE
  5
A738
  8
0
 10
18.4411447138332
 20
9.9671805580685469
 30
0.0
 11
18.440186493407261
 21
9.9689223143027395
 31
0.0
  0
LINE
  5
A739
  8
0
 10
18.440186493407261
 20
9.9689223143027395
 30
0.0
 11
18.4390718478205
 21
9.9706062433169702
 31
0.0
  0
LINE
  5
A73A
  8
0
 10
18.4390718478205
 20
9.9706062433169702
 30
0.0
 11
18.437794190421169
 21
9.972247357673039
 31
0.0
  0
LINE
  5
A73B
  8
0
 10
18.437794190421169
 20
9.972247357673039
 30
0.0
 11
18.436346934557591
 21
9.9738606699340782
 31
0.0
  0
LINE
  5
A73C
  8
0
 10
18.436346934557591
 20
9.9738606699340782
 30
0.0
 11
18.434723493578002
 21
9.9754611926634862
 31
0.0
  0
LINE
  5
A73D
  8
0
 10
18.434723493578002
 20
9.9754611926634862
 30
0.0
 11
18.432917280830701
 21
9.9770639384232638
 31
0.0
  0
LINE
  5
A73E
  8
0
 10
18.432917280830701
 20
9.9770639384232638
 30
0.0
 11
18.430921709663959
 21
9.9786839197761221
 31
0.0
  0
LINE
  5
A73F
  8
0
 10
18.430921709663959
 20
9.9786839197761221
 30
0.0
 11
18.428739108763811
 21
9.9803306111339207
 31
0.0
  0
LINE
  5
A740
  8
0
 10
18.428739108763811
 20
9.9803306111339207
 30
0.0
 11
18.426407468167302
 21
9.9819913343060236
 31
0.0
  0
LINE
  5
A741
  8
0
 10
18.426407468167302
 20
9.9819913343060236
 30
0.0
 11
18.423973693249231
 21
9.9836478729496321
 31
0.0
  0
LINE
  5
A742
  8
0
 10
18.423973693249231
 20
9.9836478729496321
 30
0.0
 11
18.421484689384371
 21
9.9852820107237221
 31
0.0
  0
LINE
  5
A743
  8
0
 10
18.421484689384371
 20
9.9852820107237221
 30
0.0
 11
18.418987361947611
 21
9.9868755312859321
 31
0.0
  0
LINE
  5
A744
  8
0
 10
18.418987361947611
 20
9.9868755312859321
 30
0.0
 11
18.416528616313631
 21
9.9884102182943444
 31
0.0
  0
LINE
  5
A745
  8
0
 10
18.416528616313631
 20
9.9884102182943444
 30
0.0
 11
18.414155357857311
 21
9.9898678554072742
 31
0.0
  0
LINE
  5
A746
  8
0
 10
18.414155357857311
 20
9.9898678554072742
 30
0.0
 11
18.4119144919534
 21
9.9912302262821342
 31
0.0
  0
LINE
  5
A747
  8
0
 10
18.4119144919534
 20
9.9912302262821342
 30
0.0
 11
18.409842248502951
 21
9.9924880066996504
 31
0.0
  0
LINE
  5
A748
  8
0
 10
18.409842248502951
 20
9.9924880066996504
 30
0.0
 11
18.407932155511801
 21
9.9936674409279878
 31
0.0
  0
LINE
  5
A749
  8
0
 10
18.407932155511801
 20
9.9936674409279878
 30
0.0
 11
18.40616706551203
 21
9.9948036653559011
 31
0.0
  0
LINE
  5
A74A
  8
0
 10
18.40616706551203
 20
9.9948036653559011
 30
0.0
 11
18.40452983103571
 21
9.9959318163741901
 31
0.0
  0
LINE
  5
A74B
  8
0
 10
18.40452983103571
 20
9.9959318163741901
 30
0.0
 11
18.40300330461492
 21
9.9970870303723078
 31
0.0
  0
LINE
  5
A74C
  8
0
 10
18.40300330461492
 20
9.9970870303723078
 30
0.0
 11
18.40157033878172
 21
9.9983044437399222
 31
0.0
  0
LINE
  5
A74D
  8
0
 10
18.40157033878172
 20
9.9983044437399222
 30
0.0
 11
18.40021378606821
 21
9.9996191928673799
 31
0.0
  0
LINE
  5
A74E
  8
0
 10
18.40021378606821
 20
9.9996191928673799
 30
0.0
 11
18.39891649900644
 21
10.001066414143899
 31
0.0
  0
LINE
  5
A74F
  8
0
 10
18.39891649900644
 20
10.001066414143899
 30
0.0
 11
18.397666325313981
 21
10.002660786583871
 31
0.0
  0
LINE
  5
A750
  8
0
 10
18.397666325313981
 20
10.002660786583871
 30
0.0
 11
18.39647109345055
 21
10.004335159693481
 31
0.0
  0
LINE
  5
A751
  8
0
 10
18.39647109345055
 20
10.004335159693481
 30
0.0
 11
18.395343627061362
 21
10.00600192560429
 31
0.0
  0
LINE
  5
A752
  8
0
 10
18.395343627061362
 20
10.00600192560429
 30
0.0
 11
18.39429674979155
 21
10.00757347644684
 31
0.0
  0
LINE
  5
A753
  8
0
 10
18.39429674979155
 20
10.00757347644684
 30
0.0
 11
18.39334328528636
 21
10.00896220435242
 31
0.0
  0
LINE
  5
A754
  8
0
 10
18.39300733312
 20
9.9715639790538262
 30
0.0
 11
18.393599722655878
 21
9.970107456772892
 31
0.0
  0
LINE
  5
A755
  8
0
 10
18.393599722655878
 20
9.970107456772892
 30
0.0
 11
18.394222844214251
 21
9.9687609290172023
 31
0.0
  0
LINE
  5
A756
  8
0
 10
18.394222844214251
 20
9.9687609290172023
 30
0.0
 11
18.394873268964918
 21
9.9675229459842232
 31
0.0
  0
LINE
  5
A757
  8
0
 10
18.394873268964918
 20
9.9675229459842232
 30
0.0
 11
18.395547905417232
 21
9.9663896386916786
 31
0.0
  0
LINE
  5
A758
  8
0
 10
18.395547905417232
 20
9.9663896386916786
 30
0.0
 11
18.396243662080551
 21
9.9653571381559161
 31
0.0
  0
LINE
  5
A759
  8
0
 10
18.396243662080551
 20
9.9653571381559161
 30
0.0
 11
18.396957447464281
 21
9.9644215753949084
 31
0.0
  0
LINE
  5
A75A
  8
0
 10
18.396957447464281
 20
9.9644215753949084
 30
0.0
 11
18.397686170077861
 21
9.9635790814258982
 31
0.0
  0
LINE
  5
A75B
  8
0
 10
18.397686170077861
 20
9.9635790814258982
 30
0.0
 11
18.398426738430629
 21
9.9628257872659578
 31
0.0
  0
LINE
  5
A75C
  8
0
 10
18.398426738430629
 20
9.9628257872659578
 30
0.0
 11
18.399176061031991
 21
9.9621578239321025
 31
0.0
  0
LINE
  5
A75D
  8
0
 10
18.517198671470229
 20
10.032351643407299
 30
0.0
 11
18.531765195311831
 21
10.02218797074692
 31
0.0
  0
LINE
  5
A75E
  8
0
 10
18.541669791109399
 20
10.102775429985741
 30
0.0
 11
18.526880577604761
 21
10.111274024381361
 31
0.0
  0
LINE
  5
A75F
  8
0
 10
18.40550597831686
 20
9.9532240386265567
 30
0.0
 11
18.403545435989241
 21
9.9563023957332462
 31
0.0
  0
LINE
  5
A760
  8
0
 10
18.403545435989241
 20
9.9563023957332462
 30
0.0
 11
18.401980786395971
 21
9.9598232211901561
 31
0.0
  0
LINE
  5
A761
  8
0
 10
18.394117598739751
 20
9.9306234015741666
 30
0.0
 11
18.396821566620751
 21
9.9272396966366561
 31
0.0
  0
LINE
  5
A762
  8
0
 10
18.396821566620751
 20
9.9272396966366561
 30
0.0
 11
18.399583528022841
 21
9.9236968526595302
 31
0.0
  0
LINE
  5
A763
  8
0
 10
18.399583528022841
 20
9.9236968526595302
 30
0.0
 11
18.402369359996641
 21
9.920059194442274
 31
0.0
  0
LINE
  5
A764
  8
0
 10
18.463253919957399
 20
9.9229862755560081
 30
0.0
 11
18.4518661818942
 21
9.91900697138135
 31
0.0
  0
LINE
  5
A765
  8
0
 10
18.4518661818942
 20
9.91900697138135
 30
0.0
 11
18.454807723129601
 21
9.9295243276237581
 31
0.0
  0
LINE
  5
A766
  8
0
 10
18.454807723129601
 20
9.9295243276237581
 30
0.0
 11
18.454176041340322
 21
9.933755431221698
 31
0.0
  0
LINE
  5
A767
  8
0
 10
18.454176041340322
 20
9.933755431221698
 30
0.0
 11
18.454176041340322
 21
9.9361890071475045
 31
0.0
  0
LINE
  5
A768
  8
0
 10
18.460051846371119
 20
9.9384843117136281
 30
0.0
 11
18.45817281137117
 21
9.9394289234216942
 31
0.0
  0
LINE
  5
A769
  8
0
 10
18.45817281137117
 20
9.9394289234216942
 30
0.0
 11
18.454176041340322
 21
9.93829218729865
 31
0.0
  0
LINE
  5
A76A
  8
0
 10
18.454176041340322
 20
9.93829218729865
 30
0.0
 11
18.454176041340322
 21
9.9361890071475045
 31
0.0
  0
LINE
  5
A76B
  8
0
 10
18.402369359996641
 20
9.920059194442274
 30
0.0
 11
18.405141757133961
 21
9.9164028366155819
 31
0.0
  0
LINE
  5
A76C
  8
0
 10
18.405141757133961
 20
9.9164028366155819
 30
0.0
 11
18.40786341402676
 21
9.9128038938104002
 31
0.0
  0
LINE
  5
A76D
  8
0
 10
18.40786341402676
 20
9.9128038938104002
 30
0.0
 11
18.41049702526692
 21
9.9093384806574178
 31
0.0
  0
LINE
  5
A76E
  8
0
 10
18.41049702526692
 20
9.9093384806574178
 30
0.0
 11
18.413005285446371
 21
9.9060827117880326
 31
0.0
  0
LINE
  5
A76F
  8
0
 10
18.40550597831686
 20
9.9532240386265567
 30
0.0
 11
18.40658152258824
 21
9.9515754113558561
 31
0.0
  0
LINE
  5
A770
  8
0
 10
18.40658152258824
 20
9.9515754113558561
 30
0.0
 11
18.407681942343348
 21
9.9499739111943182
 31
0.0
  0
LINE
  5
A771
  8
0
 10
18.407681942343348
 20
9.9499739111943182
 30
0.0
 11
18.408810894780121
 21
9.9484174060801198
 31
0.0
  0
LINE
  5
A772
  8
0
 10
18.408810894780121
 20
9.9484174060801198
 30
0.0
 11
18.409972037096399
 21
9.9469037639494182
 31
0.0
  0
LINE
  5
A773
  8
0
 10
18.409972037096399
 20
9.9469037639494182
 30
0.0
 11
18.411169026489961
 21
9.9454308527410742
 31
0.0
  0
LINE
  5
A774
  8
0
 10
18.411169026489961
 20
9.9454308527410742
 30
0.0
 11
18.412405520158799
 21
9.9439965403921562
 31
0.0
  0
LINE
  5
A775
  8
0
 10
18.412405520158799
 20
9.9439965403921562
 30
0.0
 11
18.413685175300671
 21
9.9425986948397096
 31
0.0
  0
LINE
  5
A776
  8
0
 10
18.413685175300671
 20
9.9425986948397096
 30
0.0
 11
18.41501164911347
 21
9.9412351840219326
 31
0.0
  0
LINE
  5
A777
  8
0
 10
18.41501164911347
 20
9.9412351840219326
 30
0.0
 11
18.416385400227512
 21
9.9399055497815425
 31
0.0
  0
LINE
  5
A778
  8
0
 10
18.416385400227512
 20
9.9399055497815425
 30
0.0
 11
18.417794093003032
 21
9.9386160295866741
 31
0.0
  0
LINE
  5
A779
  8
0
 10
18.417794093003032
 20
9.9386160295866741
 30
0.0
 11
18.41922219323272
 21
9.9373745348098002
 31
0.0
  0
LINE
  5
A77A
  8
0
 10
18.41922219323272
 20
9.9373745348098002
 30
0.0
 11
18.420654166709291
 21
9.936188976824722
 31
0.0
  0
LINE
  5
A77B
  8
0
 10
18.420654166709291
 20
9.936188976824722
 30
0.0
 11
18.42207447922539
 21
9.9350672670041096
 31
0.0
  0
LINE
  5
A77C
  8
0
 10
18.42207447922539
 20
9.9350672670041096
 30
0.0
 11
18.423467596573701
 21
9.9340173167217927
 31
0.0
  0
LINE
  5
A77D
  8
0
 10
18.423467596573701
 20
9.9340173167217927
 30
0.0
 11
18.424817984547001
 21
9.933047037350434
 31
0.0
  0
LINE
  5
A77E
  8
0
 10
18.424817984547001
 20
9.933047037350434
 30
0.0
 11
18.426110108937891
 21
9.9321643402633981
 31
0.0
  0
LINE
  5
A77F
  8
0
 10
18.426110108937891
 20
9.9321643402633981
 30
0.0
 11
18.427333140053449
 21
9.9313768786173515
 31
0.0
  0
LINE
  5
A780
  8
0
 10
18.427333140053449
 20
9.9313768786173515
 30
0.0
 11
18.42849506625803
 21
9.9306912727038181
 31
0.0
  0
LINE
  5
A781
  8
0
 10
18.42849506625803
 20
9.9306912727038181
 30
0.0
 11
18.42960858043028
 21
9.9301138845962598
 31
0.0
  0
LINE
  5
A782
  8
0
 10
18.42960858043028
 20
9.9301138845962598
 30
0.0
 11
18.43068637544896
 21
9.9296510763701882
 31
0.0
  0
LINE
  5
A783
  8
0
 10
18.43068637544896
 20
9.9296510763701882
 30
0.0
 11
18.431741144192721
 21
9.9293092100992837
 31
0.0
  0
LINE
  5
A784
  8
0
 10
18.431741144192721
 20
9.9293092100992837
 30
0.0
 11
18.432785579540301
 21
9.9290946478586104
 31
0.0
  0
LINE
  5
A785
  8
0
 10
18.432785579540301
 20
9.9290946478586104
 30
0.0
 11
18.433832374370361
 21
9.9290137517220902
 31
0.0
  0
LINE
  5
A786
  8
0
 10
18.433832374370361
 20
9.9290137517220902
 30
0.0
 11
18.434894221561599
 21
9.9290728837645421
 31
0.0
  0
LINE
  5
A787
  8
0
 10
18.434894221561599
 20
9.9290728837645421
 30
0.0
 11
18.435978265892331
 21
9.9292774414204761
 31
0.0
  0
LINE
  5
A788
  8
0
 10
18.435978265892331
 20
9.9292774414204761
 30
0.0
 11
18.437069459739281
 21
9.9296289635656123
 31
0.0
  0
LINE
  5
A789
  8
0
 10
18.437069459739281
 20
9.9296289635656123
 30
0.0
 11
18.43814720737878
 21
9.9301280244348984
 31
0.0
  0
LINE
  5
A78A
  8
0
 10
18.43814720737878
 20
9.9301280244348984
 30
0.0
 11
18.439190913087199
 21
9.9307751982639676
 31
0.0
  0
LINE
  5
A78B
  8
0
 10
18.439190913087199
 20
9.9307751982639676
 30
0.0
 11
18.440179981140808
 21
9.9315710592884408
 31
0.0
  0
LINE
  5
A78C
  8
0
 10
18.440179981140808
 20
9.9315710592884408
 30
0.0
 11
18.441093815816039
 21
9.9325161817437202
 31
0.0
  0
LINE
  5
A78D
  8
0
 10
18.441093815816039
 20
9.9325161817437202
 30
0.0
 11
18.441911821389152
 21
9.9336111398656541
 31
0.0
  0
LINE
  5
A78E
  8
0
 10
18.441911821389152
 20
9.9336111398656541
 30
0.0
 11
18.442613402136519
 21
9.9348565078892062
 31
0.0
  0
LINE
  5
A78F
  8
0
 10
18.442613402136519
 20
9.9348565078892062
 30
0.0
 11
18.44318359571735
 21
9.9362503551133141
 31
0.0
  0
LINE
  5
A790
  8
0
 10
18.44318359571735
 20
9.9362503551133141
 30
0.0
 11
18.443629973322501
 21
9.9377807310918342
 31
0.0
  0
LINE
  5
A791
  8
0
 10
18.443629973322501
 20
9.9377807310918342
 30
0.0
 11
18.443965739525598
 21
9.9394331804396643
 31
0.0
  0
LINE
  5
A792
  8
0
 10
18.443965739525598
 20
9.9394331804396643
 30
0.0
 11
18.44420409890035
 21
9.9411932477739757
 31
0.0
  0
LINE
  5
A793
  8
0
 10
18.44420409890035
 20
9.9411932477739757
 30
0.0
 11
18.444358256020511
 21
9.9430464777108227
 31
0.0
  0
LINE
  5
A794
  8
0
 10
18.444358256020511
 20
9.9430464777108227
 30
0.0
 11
18.444441415459679
 21
9.9449784148666804
 31
0.0
  0
LINE
  5
A795
  8
0
 10
18.444441415459679
 20
9.9449784148666804
 30
0.0
 11
18.444466781791629
 21
9.9469746038580489
 31
0.0
  0
LINE
  5
A796
  8
0
 10
18.444466781791629
 20
9.9469746038580489
 30
0.0
 11
18.44444755959001
 21
9.9490205893005061
 31
0.0
  0
LINE
  5
A797
  8
0
 10
18.44444755959001
 20
9.9490205893005061
 30
0.0
 11
18.444392422085041
 21
9.9511017585123192
 31
0.0
  0
LINE
  5
A798
  8
0
 10
18.444392422085041
 20
9.9511017585123192
 30
0.0
 11
18.444291917133
 21
9.953202869615092
 31
0.0
  0
LINE
  5
A799
  8
0
 10
18.444291917133
 20
9.953202869615092
 30
0.0
 11
18.444132061246719
 21
9.955308523431988
 31
0.0
  0
LINE
  5
A79A
  8
0
 10
18.444132061246719
 20
9.955308523431988
 30
0.0
 11
18.443898870939002
 21
9.9574033207873001
 31
0.0
  0
LINE
  5
A79B
  8
0
 10
18.443898870939002
 20
9.9574033207873001
 30
0.0
 11
18.443578362722668
 21
9.9594718625035021
 31
0.0
  0
LINE
  5
A79C
  8
0
 10
18.460051846371119
 20
9.9384843117136281
 30
0.0
 11
18.463383458388861
 21
9.9368075895447401
 31
0.0
  0
LINE
  5
A79D
  8
0
 10
18.463383458388861
 20
9.9368075895447401
 30
0.0
 11
18.467461735747388
 21
9.9335734952223902
 31
0.0
  0
LINE
  5
A79E
  8
0
 10
18.467461735747388
 20
9.9335734952223902
 30
0.0
 11
18.470561925174081
 21
9.9252393709703046
 31
0.0
  0
LINE
  5
A79F
  8
0
 10
18.470561925174081
 20
9.9252393709703046
 30
0.0
 11
18.463253919957399
 21
9.9229862755560081
 31
0.0
  0
LINE
  5
A7A0
  8
0
 10
18.401980786395971
 20
9.9598232211901561
 30
0.0
 11
18.399176061031991
 21
9.9621578239321025
 31
0.0
  0
LINE
  5
A7A1
  8
0
 10
18.443578362722668
 20
9.9594718625035021
 30
0.0
 11
18.443156553110502
 21
9.9614987494037432
 31
0.0
  0
ARC
  5
A7A2
  8
0
 10
18.537412633640031
 20
10.03554339005427
 30
0.0
 40
0.1157877381489796
 50
26.136799622363959
 51
50.830632613623422
  0
ARC
  5
A7A3
  8
0
 10
18.49180254477529
 20
10.02111491287426
 30
0.0
 40
0.1632461015583798
 50
3.9409786127344719
 51
23.630412125361509
  0
ARC
  5
A7A4
  8
0
 10
18.33621909726071
 20
10.26643367835366
 30
0.0
 40
0.103082026182291
 50
3.061415527924586
 51
61.359892000001032
  0
ARC
  5
A7A5
  8
0
 10
18.366608577809391
 20
10.263787771545131
 30
0.0
 40
0.032864329862301
 50
5.5567561112016941
 51
42.59127294653382
  0
ARC
  5
A7A6
  8
0
 10
18.321780486963629
 20
10.22260284553613
 30
0.0
 40
0.0937392487503252
 50
42.568796895839697
 51
104.4247059999998
  0
ARC
  5
A7A7
  8
0
 10
-18.41847891220425
 20
10.44207760297672
 30
0.0
 40
0.1606174665757504
210
0.0
220
0.0
230
-1.0
 50
344.17384599999849
 51
6.6578431552748611
  0
ARC
  5
A7A8
  8
0
 10
18.135649384074881
 20
10.408772874282
 30
0.0
 40
0.0581785108152356
 50
116.54869068684521
 51
184.07575243617029
  0
ARC
  5
A7A9
  8
0
 10
14.825444164576311
 20
10.06838218879146
 30
0.0
 40
3.4201217066346001
 50
5.4171073892208561
 51
7.2630351398035851
  0
LINE
  5
A7AA
  8
0
 10
18.204632624809602
 20
10.227520939467
 30
0.0
 11
18.22775014061456
 21
10.239090613529459
 31
0.0
  0
LINE
  5
A7AB
  8
0
 10
18.2290891895688
 20
10.30939505009246
 30
0.0
 11
18.21180526964288
 21
10.32310283601735
 31
0.0
  0
LINE
  5
A7AC
  8
0
 10
18.239635655571622
 20
10.18116364686602
 30
0.0
 11
18.215053918844959
 21
10.17789607631971
 31
0.0
  0
LINE
  5
A7AD
  8
0
 10
18.21180526964288
 20
10.32310283601735
 30
0.0
 11
18.206664486048911
 21
10.304820451327711
 31
0.0
  0
LINE
  5
A7AE
  8
0
 10
18.139713340315289
 20
10.383605148917461
 30
0.0
 11
18.139335794689391
 21
10.3825866896718
 31
0.0
  0
LINE
  5
A7AF
  8
0
 10
18.139335794689391
 20
10.3825866896718
 30
0.0
 11
18.139098615529679
 21
10.381564032632239
 31
0.0
  0
LINE
  5
A7B0
  8
0
 10
18.139098615529679
 20
10.381564032632239
 30
0.0
 11
18.138979859648941
 21
10.380539860406079
 31
0.0
  0
LINE
  5
A7B1
  8
0
 10
18.138979859648941
 20
10.380539860406079
 30
0.0
 11
18.138948740064802
 21
10.37951243038923
 31
0.0
  0
LINE
  5
A7B2
  8
0
 10
18.138948740064802
 20
10.37951243038923
 30
0.0
 11
18.13897446979497
 21
10.378479999974831
 31
0.0
  0
LINE
  5
A7B3
  8
0
 10
18.13897446979497
 20
10.378479999974831
 30
0.0
 11
18.139026261856991
 21
10.3774408265574
 31
0.0
  0
LINE
  5
A7B4
  8
0
 10
18.139026261856991
 20
10.3774408265574
 30
0.0
 11
18.139073329268498
 21
10.376393167531431
 31
0.0
  0
LINE
  5
A7B5
  8
0
 10
18.139073329268498
 20
10.376393167531431
 30
0.0
 11
18.139084885047239
 21
10.375335280290971
 31
0.0
  0
LINE
  5
A7B6
  8
0
 10
18.139084885047239
 20
10.375335280290971
 30
0.0
 11
18.139030142210711
 21
10.374265422230559
 31
0.0
  0
LINE
  5
A7B7
  8
0
 10
18.139030142210711
 20
10.374265422230559
 30
0.0
 11
18.138883598448839
 21
10.37318535727581
 31
0.0
  0
LINE
  5
A7B8
  8
0
 10
18.138883598448839
 20
10.37318535727581
 30
0.0
 11
18.13864089014039
 21
10.37211087548234
 31
0.0
  0
LINE
  5
A7B9
  8
0
 10
18.13864089014039
 20
10.37211087548234
 30
0.0
 11
18.13830293833632
 21
10.37106127343668
 31
0.0
  0
LINE
  5
A7BA
  8
0
 10
18.13830293833632
 20
10.37106127343668
 30
0.0
 11
18.137870664087671
 21
10.370055847725761
 31
0.0
  0
LINE
  5
A7BB
  8
0
 10
18.137870664087671
 20
10.370055847725761
 30
0.0
 11
18.137344988445442
 21
10.369113894936611
 31
0.0
  0
LINE
  5
A7BC
  8
0
 10
18.137344988445442
 20
10.369113894936611
 30
0.0
 11
18.136726832460582
 21
10.36825471165591
 31
0.0
  0
LINE
  5
A7BD
  8
0
 10
18.136726832460582
 20
10.36825471165591
 30
0.0
 11
18.136017117184121
 21
10.36749759447116
 31
0.0
  0
LINE
  5
A7BE
  8
0
 10
18.136017117184121
 20
10.36749759447116
 30
0.0
 11
18.13521676366706
 21
10.3668618399688
 31
0.0
  0
LINE
  5
A7BF
  8
0
 10
18.13521676366706
 20
10.3668618399688
 30
0.0
 11
18.13432806269207
 21
10.36635873244469
 31
0.0
  0
LINE
  5
A7C0
  8
0
 10
18.13432806269207
 20
10.36635873244469
 30
0.0
 11
18.133358783968681
 21
10.36596750703211
 31
0.0
  0
LINE
  5
A7C1
  8
0
 10
18.133358783968681
 20
10.36596750703211
 30
0.0
 11
18.132318066938112
 21
10.3656593865728
 31
0.0
  0
LINE
  5
A7C2
  8
0
 10
18.132318066938112
 20
10.3656593865728
 30
0.0
 11
18.131215051041519
 21
10.36540559390799
 31
0.0
  0
LINE
  5
A7C3
  8
0
 10
18.131215051041519
 20
10.36540559390799
 30
0.0
 11
18.130058875720191
 21
10.36517735188043
 31
0.0
  0
LINE
  5
A7C4
  8
0
 10
18.130058875720191
 20
10.36517735188043
 30
0.0
 11
18.128858680415291
 21
10.36494588333175
 31
0.0
  0
LINE
  5
A7C5
  8
0
 10
18.128858680415291
 20
10.36494588333175
 30
0.0
 11
18.127623604568061
 21
10.364682411103759
 31
0.0
  0
LINE
  5
A7C6
  8
0
 10
18.127623604568061
 20
10.364682411103759
 30
0.0
 11
18.126362787619652
 21
10.364358158038151
 31
0.0
  0
LINE
  5
A7C7
  8
0
 10
18.126362787619652
 20
10.364358158038151
 30
0.0
 11
18.125086908360469
 21
10.363949053149311
 31
0.0
  0
LINE
  5
A7C8
  8
0
 10
18.125086908360469
 20
10.363949053149311
 30
0.0
 11
18.123812802977241
 21
10.363449850142841
 31
0.0
  0
LINE
  5
A7C9
  8
0
 10
18.123812802977241
 20
10.363449850142841
 30
0.0
 11
18.122558847005958
 21
10.362860008895019
 31
0.0
  0
LINE
  5
A7CA
  8
0
 10
18.122558847005958
 20
10.362860008895019
 30
0.0
 11
18.12134341598248
 21
10.362178989284979
 31
0.0
  0
LINE
  5
A7CB
  8
0
 10
18.12134341598248
 20
10.362178989284979
 30
0.0
 11
18.1201848854428
 21
10.361406251188519
 31
0.0
  0
LINE
  5
A7CC
  8
0
 10
18.1201848854428
 20
10.361406251188519
 30
0.0
 11
18.119101630922781
 21
10.36054125448435
 31
0.0
  0
LINE
  5
A7CD
  8
0
 10
18.119101630922781
 20
10.36054125448435
 30
0.0
 11
18.11811202795835
 21
10.35958345904962
 31
0.0
  0
LINE
  5
A7CE
  8
0
 10
18.11811202795835
 20
10.35958345904962
 30
0.0
 11
18.117234452085441
 21
10.35853232476185
 31
0.0
  0
LINE
  5
A7CF
  8
0
 10
18.117234452085441
 20
10.35853232476185
 30
0.0
 11
18.116482090821261
 21
10.357389639236761
 31
0.0
  0
LINE
  5
A7D0
  8
0
 10
18.116482090821261
 20
10.357389639236761
 30
0.0
 11
18.115847379608049
 21
10.356166501044269
 31
0.0
  0
LINE
  5
A7D1
  8
0
 10
18.115847379608049
 20
10.356166501044269
 30
0.0
 11
18.115317565869422
 21
10.35487633649244
 31
0.0
  0
LINE
  5
A7D2
  8
0
 10
18.115317565869422
 20
10.35487633649244
 30
0.0
 11
18.114879897028871
 21
10.35353257188966
 31
0.0
  0
LINE
  5
A7D3
  8
0
 10
18.114879897028871
 20
10.35353257188966
 30
0.0
 11
18.114521620509962
 21
10.352148633544161
 31
0.0
  0
LINE
  5
A7D4
  8
0
 10
18.114521620509962
 20
10.352148633544161
 30
0.0
 11
18.114229983736319
 21
10.350737947764159
 31
0.0
  0
LINE
  5
A7D5
  8
0
 10
18.114229983736319
 20
10.350737947764159
 30
0.0
 11
18.11399223413143
 21
10.349313940857421
 31
0.0
  0
LINE
  5
A7D6
  8
0
 10
18.11399223413143
 20
10.349313940857421
 30
0.0
 11
18.113795619118861
 21
10.34789003913259
 31
0.0
  0
LINE
  5
A7D7
  8
0
 10
18.113795619118861
 20
10.34789003913259
 30
0.0
 11
18.11363356649753
 21
10.34647948933069
 31
0.0
  0
LINE
  5
A7D8
  8
0
 10
18.11363356649753
 20
10.34647948933069
 30
0.0
 11
18.113524225567829
 21
10.345094819924491
 31
0.0
  0
LINE
  5
A7D9
  8
0
 10
18.113524225567829
 20
10.345094819924491
 30
0.0
 11
18.113491926005558
 21
10.343748379820219
 31
0.0
  0
LINE
  5
A7DA
  8
0
 10
18.113491926005558
 20
10.343748379820219
 30
0.0
 11
18.113560997486509
 21
10.34245251792389
 31
0.0
  0
LINE
  5
A7DB
  8
0
 10
18.113560997486509
 20
10.34245251792389
 30
0.0
 11
18.113755769686421
 21
10.34121958314131
 31
0.0
  0
LINE
  5
A7DC
  8
0
 10
18.113755769686421
 20
10.34121958314131
 30
0.0
 11
18.11410057228105
 21
10.340061924378221
 31
0.0
  0
LINE
  5
A7DD
  8
0
 10
18.11410057228105
 20
10.340061924378221
 30
0.0
 11
18.11461973494616
 21
10.338991890540671
 31
0.0
  0
LINE
  5
A7DE
  8
0
 10
18.11461973494616
 20
10.338991890540671
 30
0.0
 11
18.115337587357551
 21
10.33802183053489
 31
0.0
  0
LINE
  5
A7DF
  8
0
 10
18.13294838562879
 20
10.34259036476621
 30
0.0
 11
18.132869789277109
 21
10.33956440522703
 31
0.0
  0
ARC
  5
A7E0
  8
0
 10
17.937211123921259
 20
10.401204206811579
 30
0.0
 40
0.1404488633495502
 50
346.67496717791983
 51
1.400873055739229
  0
LINE
  5
A7E1
  8
0
 10
18.129033497966471
 20
10.365225168096231
 30
0.0
 11
18.129033497966471
 21
10.365225168096231
 31
0.0
  0
LINE
  5
A7E2
  8
0
 10
18.13294838562879
 20
10.34259036476621
 30
0.0
 11
18.132998642132009
 21
10.34387388367915
 31
0.0
  0
LINE
  5
A7E3
  8
0
 10
18.132998642132009
 20
10.34387388367915
 30
0.0
 11
18.13307535042388
 21
10.345095079562491
 31
0.0
  0
LINE
  5
A7E4
  8
0
 10
18.13307535042388
 20
10.345095079562491
 30
0.0
 11
18.1331722138132
 21
10.346267564925251
 31
0.0
  0
LINE
  5
A7E5
  8
0
 10
18.1331722138132
 20
10.346267564925251
 30
0.0
 11
18.13328293560868
 21
10.347404952274911
 31
0.0
  0
LINE
  5
A7E6
  8
0
 10
18.13328293560868
 20
10.347404952274911
 30
0.0
 11
18.133401219119119
 21
10.348520854120119
 31
0.0
  0
LINE
  5
A7E7
  8
0
 10
18.133401219119119
 20
10.348520854120119
 30
0.0
 11
18.133520767653309
 21
10.34962888296922
 31
0.0
  0
LINE
  5
A7E8
  8
0
 10
18.133520767653309
 20
10.34962888296922
 30
0.0
 11
18.133635284520022
 21
10.35074265133083
 31
0.0
  0
LINE
  5
A7E9
  8
0
 10
18.133635284520022
 20
10.35074265133083
 30
0.0
 11
18.13373847302806
 21
10.35187577171291
 31
0.0
  0
LINE
  5
A7EA
  8
0
 10
18.13373847302806
 20
10.35187577171291
 30
0.0
 11
18.13382807887664
 21
10.35303436739898
 31
0.0
  0
LINE
  5
A7EB
  8
0
 10
18.13382807887664
 20
10.35303436739898
 30
0.0
 11
18.133918017326941
 21
10.354194604773051
 31
0.0
  0
LINE
  5
A7EC
  8
0
 10
18.133918017326941
 20
10.354194604773051
 30
0.0
 11
18.1340262460307
 21
10.35532516099488
 31
0.0
  0
LINE
  5
A7ED
  8
0
 10
18.1340262460307
 20
10.35532516099488
 30
0.0
 11
18.134170722639521
 21
10.356394713223141
 31
0.0
  0
LINE
  5
A7EE
  8
0
 10
18.134170722639521
 20
10.356394713223141
 30
0.0
 11
18.134369404805149
 21
10.357371938617231
 31
0.0
  0
LINE
  5
A7EF
  8
0
 10
18.134369404805149
 20
10.357371938617231
 30
0.0
 11
18.134640250179189
 21
10.358225514336249
 31
0.0
  0
LINE
  5
A7F0
  8
0
 10
18.134640250179189
 20
10.358225514336249
 30
0.0
 11
18.135001216413361
 21
10.35892411754002
 31
0.0
  0
LINE
  5
A7F1
  8
0
 10
18.135001216413361
 20
10.35892411754002
 30
0.0
 11
18.135470261159291
 21
10.359436425387219
 31
0.0
  0
LINE
  5
A7F2
  8
0
 10
18.135470261159291
 20
10.359436425387219
 30
0.0
 11
18.136061810899442
 21
10.35974176184685
 31
0.0
  0
LINE
  5
A7F3
  8
0
 10
18.136061810899442
 20
10.35974176184685
 30
0.0
 11
18.136776167439031
 21
10.3598620381249
 31
0.0
  0
LINE
  5
A7F4
  8
0
 10
18.136776167439031
 20
10.3598620381249
 30
0.0
 11
18.13761010141414
 21
10.359829812237191
 31
0.0
  0
LINE
  5
A7F5
  8
0
 10
18.13761010141414
 20
10.359829812237191
 30
0.0
 11
18.138560383460721
 21
10.35967764219958
 31
0.0
  0
LINE
  5
A7F6
  8
0
 10
18.138560383460721
 20
10.35967764219958
 30
0.0
 11
18.139623784214841
 21
10.359438086026771
 31
0.0
  0
LINE
  5
A7F7
  8
0
 10
18.139623784214841
 20
10.359438086026771
 30
0.0
 11
18.140797074312481
 21
10.359143701735521
 31
0.0
  0
LINE
  5
A7F8
  8
0
 10
18.140797074312481
 20
10.359143701735521
 30
0.0
 11
18.142077024389671
 21
10.35882704734035
 31
0.0
  0
LINE
  5
A7F9
  8
0
 10
18.142077024389671
 20
10.35882704734035
 30
0.0
 11
18.143460405082379
 21
10.358520680857961
 31
0.0
  0
LINE
  5
A7FA
  8
0
 10
18.143460405082379
 20
10.358520680857961
 30
0.0
 11
18.14493787558802
 21
10.35825526039843
 31
0.0
  0
LINE
  5
A7FB
  8
0
 10
18.14493787558802
 20
10.35825526039843
 30
0.0
 11
18.146475649349121
 21
10.35805384445483
 31
0.0
  0
LINE
  5
A7FC
  8
0
 10
18.146475649349121
 20
10.35805384445483
 30
0.0
 11
18.14803382836968
 21
10.357937591615141
 31
0.0
  0
LINE
  5
A7FD
  8
0
 10
18.14803382836968
 20
10.357937591615141
 30
0.0
 11
18.149572514653521
 21
10.35792766046824
 31
0.0
  0
LINE
  5
A7FE
  8
0
 10
18.149572514653521
 20
10.35792766046824
 30
0.0
 11
18.15105181020467
 21
10.358045209601411
 31
0.0
  0
LINE
  5
A7FF
  8
0
 10
18.15105181020467
 20
10.358045209601411
 30
0.0
 11
18.152431817026962
 21
10.358311397603741
 31
0.0
  0
LINE
  5
A800
  8
0
 10
18.152431817026962
 20
10.358311397603741
 30
0.0
 11
18.153672637124352
 21
10.35874738306233
 31
0.0
  0
LINE
  5
A801
  8
0
 10
18.153672637124352
 20
10.35874738306233
 30
0.0
 11
18.154734372500759
 21
10.35937432456601
 31
0.0
  0
LINE
  5
A802
  8
0
 10
18.154734372500759
 20
10.35937432456601
 30
0.0
 11
18.155587461399062
 21
10.360204777119851
 31
0.0
  0
LINE
  5
A803
  8
0
 10
18.155587461399062
 20
10.360204777119851
 30
0.0
 11
18.156243687017952
 21
10.361216881398359
 31
0.0
  0
LINE
  5
A804
  8
0
 10
18.156243687017952
 20
10.361216881398359
 30
0.0
 11
18.156725168795081
 21
10.3623801744918
 31
0.0
  0
LINE
  5
A805
  8
0
 10
18.156725168795081
 20
10.3623801744918
 30
0.0
 11
18.157054026168151
 21
10.36366419349177
 31
0.0
  0
LINE
  5
A806
  8
0
 10
18.157054026168151
 20
10.36366419349177
 30
0.0
 11
18.157252378574761
 21
10.36503847548942
 31
0.0
  0
LINE
  5
A807
  8
0
 10
18.157252378574761
 20
10.36503847548942
 30
0.0
 11
18.157342345452591
 21
10.36647255757566
 31
0.0
  0
LINE
  5
A808
  8
0
 10
18.157342345452591
 20
10.36647255757566
 30
0.0
 11
18.157346046239262
 21
10.36793597684207
 31
0.0
  0
LINE
  5
A809
  8
0
 10
18.157346046239262
 20
10.36793597684207
 30
0.0
 11
18.1572856003725
 21
10.36939827037917
 31
0.0
  0
LINE
  5
A80A
  8
0
 10
18.1572856003725
 20
10.36939827037917
 30
0.0
 11
18.157179229879642
 21
10.37083319107659
 31
0.0
  0
LINE
  5
A80B
  8
0
 10
18.157179229879642
 20
10.37083319107659
 30
0.0
 11
18.157029567147241
 21
10.37223135501676
 31
0.0
  0
LINE
  5
A80C
  8
0
 10
18.157029567147241
 20
10.37223135501676
 30
0.0
 11
18.156835347151532
 21
10.37358759408059
 31
0.0
  0
LINE
  5
A80D
  8
0
 10
18.156835347151532
 20
10.37358759408059
 30
0.0
 11
18.156595304868791
 21
10.374896740147721
 31
0.0
  0
LINE
  5
A80E
  8
0
 10
18.156595304868791
 20
10.374896740147721
 30
0.0
 11
18.156308175275232
 21
10.376153625098819
 31
0.0
  0
LINE
  5
A80F
  8
0
 10
18.156308175275232
 20
10.376153625098819
 30
0.0
 11
18.15597269334712
 21
10.37735308081505
 31
0.0
  0
LINE
  5
A810
  8
0
 10
18.15597269334712
 20
10.37735308081505
 30
0.0
 11
18.15558759406073
 21
10.37848993917645
 31
0.0
  0
LINE
  5
A811
  8
0
 10
18.15558759406073
 20
10.37848993917645
 30
0.0
 11
18.155151612392281
 21
10.37955903206352
 31
0.0
  0
LINE
  5
A812
  8
0
 10
18.155151612392281
 20
10.37955903206352
 30
0.0
 11
18.154664777716921
 21
10.38055710547564
 31
0.0
  0
LINE
  5
A813
  8
0
 10
18.154664777716921
 20
10.38055710547564
 30
0.0
 11
18.154132297004988
 21
10.38148856188398
 31
0.0
  0
LINE
  5
A814
  8
0
 10
18.154132297004988
 20
10.38148856188398
 30
0.0
 11
18.153560671625751
 21
10.382359717879799
 31
0.0
  0
LINE
  5
A815
  8
0
 10
18.153560671625751
 20
10.382359717879799
 30
0.0
 11
18.15295640294838
 21
10.38317689005361
 31
0.0
  0
LINE
  5
A816
  8
0
 10
18.15295640294838
 20
10.38317689005361
 30
0.0
 11
18.152325992342121
 21
10.383946394995521
 31
0.0
  0
LINE
  5
A817
  8
0
 10
18.152325992342121
 20
10.383946394995521
 30
0.0
 11
18.15167594117619
 21
10.3846745492958
 31
0.0
  0
LINE
  5
A818
  8
0
 10
18.15167594117619
 20
10.3846745492958
 30
0.0
 11
18.151012750819831
 21
10.385367669545071
 31
0.0
  0
LINE
  5
A819
  8
0
 10
18.151012750819831
 20
10.385367669545071
 30
0.0
 11
18.150342922642238
 21
10.386032072334251
 31
0.0
  0
LINE
  5
A81A
  8
0
 10
18.150342922642238
 20
10.386032072334251
 30
0.0
 11
18.149671273209481
 21
10.38666935813171
 31
0.0
  0
LINE
  5
A81B
  8
0
 10
18.149671273209481
 20
10.38666935813171
 30
0.0
 11
18.14899587987502
 21
10.387262262915771
 31
0.0
  0
LINE
  5
A81C
  8
0
 10
18.14899587987502
 20
10.387262262915771
 30
0.0
 11
18.148313135189071
 21
10.387788806544441
 31
0.0
  0
LINE
  5
A81D
  8
0
 10
18.148313135189071
 20
10.387788806544441
 30
0.0
 11
18.147619431701902
 21
10.38822700887475
 31
0.0
  0
LINE
  5
A81E
  8
0
 10
18.147619431701902
 20
10.38822700887475
 30
0.0
 11
18.146911161963828
 21
10.38855488976264
 31
0.0
  0
LINE
  5
A81F
  8
0
 10
18.146911161963828
 20
10.38855488976264
 30
0.0
 11
18.14618471852507
 21
10.388750469066951
 31
0.0
  0
LINE
  5
A820
  8
0
 10
18.14618471852507
 20
10.388750469066951
 30
0.0
 11
18.14543649393589
 21
10.38879176664363
 31
0.0
  0
LINE
  5
A821
  8
0
 10
18.14543649393589
 20
10.38879176664363
 30
0.0
 11
18.144662880746559
 21
10.388656802350161
 31
0.0
  0
LINE
  5
A822
  8
0
 10
18.144662880746559
 20
10.388656802350161
 30
0.0
 11
18.143864585380499
 21
10.38833139418033
 31
0.0
  0
LINE
  5
A823
  8
0
 10
18.143864585380499
 20
10.38833139418033
 30
0.0
 11
18.143059569753451
 21
10.3878325526764
 31
0.0
  0
LINE
  5
A824
  8
0
 10
18.143059569753451
 20
10.3878325526764
 30
0.0
 11
18.142270109654341
 21
10.387185086518
 31
0.0
  0
LINE
  5
A825
  8
0
 10
18.142270109654341
 20
10.387185086518
 30
0.0
 11
18.141518480872062
 21
10.38641380438342
 31
0.0
  0
LINE
  5
A826
  8
0
 10
18.141518480872062
 20
10.38641380438342
 30
0.0
 11
18.140826959195518
 21
10.385543514952801
 31
0.0
  0
LINE
  5
A827
  8
0
 10
18.140826959195518
 20
10.385543514952801
 30
0.0
 11
18.140217820413621
 21
10.384599026904411
 31
0.0
  0
LINE
  5
A828
  8
0
 10
18.140217820413621
 20
10.384599026904411
 30
0.0
 11
18.139713340315289
 21
10.383605148917461
 31
0.0
  0
LINE
  5
A829
  8
0
 10
18.116275550110188
 20
10.33716172193952
 30
0.0
 11
18.117443407475712
 21
10.33641205702336
 31
0.0
  0
LINE
  5
A82A
  8
0
 10
18.117443407475712
 20
10.33641205702336
 30
0.0
 11
18.118848034644959
 21
10.335770956729901
 31
0.0
  0
LINE
  5
A82B
  8
0
 10
18.118848034644959
 20
10.335770956729901
 30
0.0
 11
18.120496306808789
 21
10.335236542000059
 31
0.0
  0
LINE
  5
A82C
  8
0
 10
18.120496306808789
 20
10.335236542000059
 30
0.0
 11
18.122395099158052
 21
10.33480693377714
 31
0.0
  0
LINE
  5
A82D
  8
0
 10
18.122395099158052
 20
10.33480693377714
 30
0.0
 11
18.124551286883591
 21
10.33448025300321
 31
0.0
  0
LINE
  5
A82E
  8
0
 10
18.124551286883591
 20
10.33448025300321
 30
0.0
 11
18.126971745176231
 21
10.334254620620181
 31
0.0
  0
LINE
  5
A82F
  8
0
 10
18.126971745176231
 20
10.334254620620181
 30
0.0
 11
18.12966334922686
 21
10.334128157570371
 31
0.0
  0
LINE
  5
A830
  8
0
 10
18.13268785327789
 20
10.33404519475469
 30
0.0
 11
18.12966334922686
 21
10.334128157570371
 31
0.0
  0
LINE
  5
A831
  8
0
 10
18.175495210662461
 20
10.29741347292792
 30
0.0
 11
18.154748684799351
 21
10.262841266611741
 31
0.0
  0
LINE
  5
A832
  8
0
 10
18.154748684799351
 20
10.262841266611741
 30
0.0
 11
18.125180446206048
 21
10.2506253558804
 31
0.0
  0
LINE
  5
A833
  8
0
 10
18.125180446206048
 20
10.2506253558804
 30
0.0
 11
18.099847677674621
 21
10.22294051875085
 31
0.0
  0
LINE
  5
A834
  8
0
 10
18.115337587357551
 20
10.33802183053489
 30
0.0
 11
18.116275550110188
 21
10.33716172193952
 31
0.0
  0
LINE
  5
A835
  8
0
 10
18.132869789277109
 20
10.33956440522703
 30
0.0
 11
18.13268785327789
 21
10.33404519475469
 31
0.0
  0
LINE
  5
A836
  8
0
 10
18.206664486048911
 20
10.304820451327711
 30
0.0
 11
18.175495210662461
 21
10.29741347292792
 31
0.0
  0
LINE
  5
A837
  8
0
 10
18.215053918844959
 20
10.17789607631971
 30
0.0
 11
18.195147209554261
 21
10.170331905216219
 31
0.0
  0
LINE
  5
A838
  8
0
 10
18.191924759136061
 20
10.163381950046171
 30
0.0
 11
18.217366689267031
 21
10.16426979772222
 31
0.0
  0
LINE
  5
A839
  8
0
 10
18.170574205755528
 20
10.17397790264044
 30
0.0
 11
18.166098580174712
 21
10.18876566065725
 31
0.0
  0
LINE
  5
A83A
  8
0
 10
18.166098580174712
 20
10.18876566065725
 30
0.0
 11
18.183267516549162
 21
10.20138037509876
 31
0.0
  0
LINE
  5
A83B
  8
0
 10
18.097173946230079
 20
10.206954894115141
 30
0.0
 11
18.07740696378676
 21
10.210229742101079
 31
0.0
  0
LINE
  5
A83C
  8
0
 10
18.07740696378676
 20
10.210229742101079
 30
0.0
 11
18.062946690568719
 21
10.194968950486761
 31
0.0
  0
LINE
  5
A83D
  8
0
 10
18.195147209554261
 20
10.170331905216219
 30
0.0
 11
18.170574205755528
 21
10.17397790264044
 31
0.0
  0
LINE
  5
A83E
  8
0
 10
18.183267516549162
 20
10.20138037509876
 30
0.0
 11
18.204632624809602
 21
10.227520939467
 31
0.0
  0
LINE
  5
A83F
  8
0
 10
18.099847677674621
 20
10.22294051875085
 30
0.0
 11
18.097173946230079
 21
10.206954894115141
 31
0.0
  0
ARC
  5
A840
  8
0
 10
-18.415374186914558
 20
10.4273579855228
 30
0.0
 40
0.1885715689839664
210
0.0
220
0.0
230
-1.0
 50
329.9239329999981
 51
348.9639769999971
  0
ARC
  5
A841
  8
0
 10
-18.281659960415521
 20
10.33819915748902
 30
0.0
 40
0.0299481209596716
210
0.0
220
0.0
230
-1.0
 50
235.944996
 51
349.72231199999862
  0
LINE
  5
A842
  8
0
 10
18.2441680451842
 20
10.25344609161197
 30
0.0
 11
18.25832848787552
 21
10.25804980013617
 31
0.0
  0
LINE
  5
A843
  8
0
 10
18.25832848787552
 20
10.25804980013617
 30
0.0
 11
18.266429734048788
 21
10.28107562019748
 31
0.0
  0
LINE
  5
A844
  8
0
 10
18.266429734048788
 20
10.28107562019748
 30
0.0
 11
18.24696258213223
 21
10.29954721832631
 31
0.0
  0
LINE
  5
A845
  8
0
 10
18.22775014061456
 20
10.239090613529459
 30
0.0
 11
18.2441680451842
 21
10.25344609161197
 31
0.0
  0
LINE
  5
A846
  8
0
 10
18.24696258213223
 20
10.29954721832631
 30
0.0
 11
18.2290891895688
 21
10.30939505009246
 31
0.0
  0
ARC
  5
A847
  8
0
 10
-18.29338554109227
 20
10.39696329712228
 30
0.0
 40
0.0294648989457422
210
0.0
220
0.0
230
-1.0
 50
251.1909500000001
 51
2.5488450000021312
  0
LINE
  5
A848
  8
0
 10
18.3546701491587
 20
10.165891211347111
 30
0.0
 11
18.336814222451199
 21
10.1793617527296
 31
0.0
  0
LINE
  5
A849
  8
0
 10
18.336814222451199
 20
10.1793617527296
 30
0.0
 11
18.317581404101631
 21
10.17598065412016
 31
0.0
  0
LINE
  5
A84A
  8
0
 10
18.317581404101631
 20
10.17598065412016
 30
0.0
 11
18.315034300112519
 21
10.198901679045539
 31
0.0
  0
LINE
  5
A84B
  8
0
 10
18.315034300112519
 20
10.198901679045539
 30
0.0
 11
18.26530464182963
 21
10.19314522403055
 31
0.0
  0
LINE
  5
A84C
  8
0
 10
18.26530464182963
 20
10.19314522403055
 30
0.0
 11
18.255379669200138
 21
10.186675579898059
 31
0.0
  0
LINE
  5
A84D
  8
0
 10
18.255379669200138
 20
10.186675579898059
 30
0.0
 11
18.239635655571622
 21
10.18116364686602
 31
0.0
  0
ARC
  5
A84E
  8
0
 10
18.32740427583089
 20
10.24840156787511
 30
0.0
 40
0.1231360796950428
 50
61.781831376361247
 51
101.4854784804825
  0
ARC
  5
A84F
  8
0
 10
18.159789039721758
 20
10.467773976133451
 30
0.0
 40
0.1113200882269908
 50
49.067058000001552
 51
72.217435000000492
  0
ARC
  5
A850
  8
0
 10
18.201959690886561
 20
10.55424516250581
 30
0.0
 40
0.0308545625078438
 50
355.59419036477749
 51
64.085314639206516
  0
ARC
  5
A851
  8
0
 10
18.183871798259261
 20
10.504818628673521
 30
0.0
 40
0.0833866858056544
 50
38.259234046839168
 51
103.3732192694921
  0
ARC
  5
A852
  8
0
 10
18.19378778376808
 20
10.49468594913832
 30
0.0
 40
0.025083880084515
 50
14.036242999997681
 51
67.166345999999052
  0
LINE
  5
A853
  8
0
 10
18.189849233256961
 20
10.57503907481007
 30
0.0
 11
18.19378778376808
 21
10.57377571123151
 31
0.0
  0
ARC
  5
A854
  8
0
 10
-18.170668812475121
 20
10.56769177141765
 30
0.0
 40
0.020720327079213
210
0.0
220
0.0
230
-1.0
 50
266.63353899999942
 51
356.63353899999748
  0
ARC
  5
A855
  8
0
 10
-18.171750240054511
 20
10.552010343772491
 30
0.0
 40
0.026134742416012
210
0.0
220
0.0
230
-1.0
 50
33.607863999999189
 51
112.1866780000003
  0
ARC
  5
A856
  8
0
 10
-18.057508987424011
 20
10.8122632409613
 30
0.0
 40
0.250370133711158
210
0.0
220
0.0
230
-1.0
 50
244.6803130000001
 51
254.2075959999994
  0
LINE
  5
A857
  8
0
 10
18.171137543435599
 20
10.57785135501851
 30
0.0
 11
18.171137543435599
 21
10.57785135501851
 31
0.0
  0
LINE
  5
A858
  8
0
 10
18.18161990414022
 20
10.57620928715686
 30
0.0
 11
18.185449293051779
 21
10.57464754853981
 31
0.0
  0
LINE
  5
A859
  8
0
 10
18.060457806099379
 20
10.549584045286791
 30
0.0
 11
18.055075411498471
 21
10.551874983389091
 31
0.0
  0
ARC
  5
A85A
  8
0
 10
-18.221469709921461
 20
10.568985700243941
 30
0.0
 40
0.0542358491115982
210
0.0
220
0.0
230
-1.0
 50
289.32416899999902
 51
336.09461099999959
  0
LINE
  5
A85B
  8
0
 10
18.185449293051779
 20
10.57464754853981
 30
0.0
 11
18.189849233256961
 21
10.57503907481007
 31
0.0
  0
ARC
  5
A85C
  8
0
 10
18.184859989813319
 20
10.51467734410584
 30
0.0
 40
0.0768381221667468
 50
3.9347819999985312
 51
32.93511599999924
  0
ARC
  5
A85D
  8
0
 10
17.708500789622232
 20
10.514278332349701
 30
0.0
 40
0.5530452836628448
 50
354.4404940156054
 51
0.5876029673891453
  0
ARC
  5
A85E
  8
0
 10
18.140791320837319
 20
10.243774628158221
 30
0.0
 40
0.2996890421519972
 50
359.74307375487302
 51
5.3925213306160691
  0
ARC
  5
A85F
  8
0
 10
18.426189918196211
 20
10.253766298970501
 30
0.0
 40
0.0070955039695956
 50
120.9637570000009
 51
210.96375700000019
  0
ARC
  5
A860
  8
0
 10
-18.462587306456271
 20
10.216628067321819
 30
0.0
 40
0.0309494966993808
210
0.0
220
0.0
230
-1.0
 50
233.6197979999985
 51
325.30484599999869
  0
LINE
  5
A861
  8
0
 10
18.427406706159001
 20
10.20874514434761
 30
0.0
 11
18.426482471282981
 21
10.20563476650476
 31
0.0
  0
LINE
  5
A862
  8
0
 10
18.426482471282981
 20
10.20563476650476
 30
0.0
 11
18.419148267282392
 21
10.20585600067988
 31
0.0
  0
LINE
  5
A863
  8
0
 10
18.419148267282392
 20
10.20585600067988
 30
0.0
 11
18.41767385794472
 21
10.20874514434761
 31
0.0
  0
ARC
  5
A864
  8
0
 10
-18.581694255449879
 20
10.29245899179702
 30
0.0
 40
0.18414834097092
210
0.0
220
0.0
230
-1.0
 50
332.96088100000031
 51
352.04385489126952
  0
ARC
  5
A865
  8
0
 10
18.49572952139949
 20
10.245010445788459
 30
0.0
 40
0.0553123603852414
 50
182.67315462523041
 51
254.49653585089101
  0
ARC
  5
A866
  8
0
 10
18.353792489898449
 20
10.21117872027321
 30
0.0
 40
0.084232001175064
 50
351.69432399999738
 51
35.297143000000069
  0
ARC
  5
A867
  8
0
 10
-18.382387007023919
 20
10.22212981193818
 30
0.0
 40
0.0469685975587384
210
0.0
220
0.0
230
-1.0
 50
143.42696899999839
 51
196.55707099999711
  0
ARC
  5
A868
  8
0
 10
17.829256482775289
 20
10.650414292510019
 30
0.0
 40
0.1510058064112368
 50
97.267335394170019
 51
159.71996028223811
  0
ARC
  5
A869
  8
0
 10
17.825428515842511
 20
10.671449144028641
 30
0.0
 40
0.1003835514418542
 50
48.43557500000211
 51
97.847627999999531
  0
ARC
  5
A86A
  8
0
 10
17.81837855845918
 20
10.67022904777445
 30
0.0
 40
0.1302379061430622
 50
42.804549694953323
 51
93.620483886717864
  0
ARC
  5
A86B
  8
0
 10
-17.807202895184609
 20
10.77993248615596
 30
0.0
 40
0.0101054531406978
210
0.0
220
0.0
230
-1.0
 50
243.4349489999997
 51
3.945186000002348
  0
ARC
  5
A86C
  8
0
 10
17.781302486335591
 20
10.80861287707307
 30
0.0
 40
0.0300514606072288
 50
301.75948000000051
 51
343.75679324223017
  0
LINE
  5
A86D
  8
0
 10
17.797120729851802
 20
10.78062675392901
 30
0.0
 11
17.79717603839558
 21
10.781436005253671
 31
0.0
  0
LINE
  5
A86E
  8
0
 10
17.79717603839558
 20
10.781436005253671
 30
0.0
 11
17.796430828542771
 21
10.782633871872561
 31
0.0
  0
LINE
  5
A86F
  8
0
 10
17.796430828542771
 20
10.782633871872561
 30
0.0
 11
17.797120729851802
 21
10.78306032985482
 31
0.0
  0
LINE
  5
A870
  8
0
 10
17.751433962095369
 20
10.711020206671259
 30
0.0
 11
17.751433962095369
 21
10.711020206671259
 31
0.0
  0
ARC
  5
A871
  8
0
 10
-17.76529794035617
 20
10.69095996058536
 30
0.0
 40
0.0588264582439272
210
0.0
220
0.0
230
-1.0
 50
142.10902499999841
 51
185.1118939999991
  0
ARC
  5
A872
  8
0
 10
17.842140428986909
 20
10.691802688133739
 30
0.0
 40
0.019238640301562
 50
198.43494899999851
 51
235.30484599999841
  0
ARC
  5
A873
  8
0
 10
-17.783736062261141
 20
10.71370487146396
 30
0.0
 40
0.025581656978382
210
0.0
220
0.0
230
-1.0
 50
25.34617599999936
 51
98.826550009906882
  0
ARC
  5
A874
  8
0
 10
17.817806125219171
 20
10.76967566226425
 30
0.0
 40
0.043019858631659
 50
225.5154962313826
 51
261.86989799999952
  0
ARC
  5
A875
  8
0
 10
17.91149734286569
 20
10.753858874235659
 30
0.0
 40
0.0054420696086806
 50
63.434948999999889
 51
153.4349489999976
  0
ARC
  5
A876
  8
0
 10
17.951649890149639
 20
10.72100559924047
 30
0.0
 40
0.0572006781548938
 50
141.91122700000059
 51
156.1612599999996
  0
ARC
  5
A877
  8
0
 10
-17.896895887312262
 20
10.74899172238451
 30
0.0
 40
0.0054420696086806
210
0.0
220
0.0
230
-1.0
 50
243.4349489999997
 51
333.43494899999757
  0
LINE
  5
A878
  8
0
 10
19.388516370520641
 20
9.4032446123751416
 30
0.0
 11
19.388516370520641
 21
8.6658812953426079
 31
0.0
  0
ARC
  5
A879
  8
0
 10
-18.164538297045421
 20
9.0558560154636325
 30
0.0
 40
0.6036287137014368
210
0.0
220
0.0
230
-1.0
 50
171.01236299999761
 51
178.90273499999901
  0
LINE
  5
A87A
  8
0
 10
18.836148488471551
 20
8.7267206934818642
 30
0.0
 11
18.836148488471551
 21
9.3623599546306178
 31
0.0
  0
LINE
  5
A87B
  8
0
 10
18.887253582908549
 20
9.3813424290449277
 30
0.0
 11
18.887253582908549
 21
8.7220456660461423
 31
0.0
  0
LINE
  5
A87C
  8
0
 10
18.977247861050941
 20
8.6877834786730546
 30
0.0
 11
18.977247861050941
 21
9.3789088531193521
 31
0.0
  0
LINE
  5
A87D
  8
0
 10
19.035617296064821
 20
9.3946965313875808
 30
0.0
 11
19.364203899072798
 21
8.825801583169774
 31
0.0
  0
LINE
  5
A87E
  8
0
 10
19.001560332498752
 20
9.3388480015792066
 30
0.0
 11
19.001560332498752
 21
8.6902170545984063
 31
0.0
  0
LINE
  5
A87F
  8
0
 10
19.364203899072798
 20
8.825801583169774
 30
0.0
 11
19.364203899072798
 21
9.4008110364497881
 31
0.0
  0
LINE
  5
A880
  8
0
 10
19.388516370520641
 20
8.6658812953426079
 30
0.0
 11
19.001560332498752
 21
9.3388480015792066
 31
0.0
  0
LINE
  5
A881
  8
0
 10
18.819114912480519
 20
8.6683148712684162
 30
0.0
 11
18.901855038461989
 21
8.6683148712684162
 31
0.0
  0
ARC
  5
A882
  8
0
 10
-18.702710804691321
 20
8.7339530133231165
 30
0.0
 40
0.1336356301473682
210
0.0
220
0.0
230
-1.0
 50
183.1026619999983
 51
209.41774699999741
  0
ARC
  5
A883
  8
0
 10
18.993240763126391
 20
8.7220456660461423
 30
0.0
 40
0.1060104680257426
 50
180.0
 51
210.45326099999829
  0
LINE
  5
A884
  8
0
 10
18.962646405497502
 20
8.6683148712684162
 30
0.0
 11
19.013728212126608
 21
8.6683148712684162
 31
0.0
  0
ARC
  5
A885
  8
0
 10
18.858004096185869
 20
8.7620060889148537
 30
0.0
 40
0.1404560468861426
 50
318.16036199999797
 51
328.09984299999712
  0
ARC
  5
A886
  8
0
 10
-19.048319339786371
 20
8.7018638695246864
 30
0.0
 40
0.0481868410095182
210
0.0
220
0.0
230
-1.0
 50
315.87690799999848
 51
346.0138840000003
  0
ARC
  5
A887
  8
0
 10
-18.125602537724241
 20
9.0503804696313601
 30
0.0
 40
0.6426794565741034
210
0.0
220
0.0
230
-1.0
 50
178.48115000000081
 51
185.21407099999681
  0
ARC
  5
A888
  8
0
 10
-18.977294436666721
 20
9.3728249133055161
 30
0.0
 40
0.0904425684444514
210
0.0
220
0.0
230
-1.0
 50
5.4037910000000497
 51
33.476277999999901
  0
ARC
  5
A889
  8
0
 10
18.816026366957761
 20
9.3104659857005956
 30
0.0
 40
0.1751490587054822
 50
23.00259699999771
 51
39.856534999998651
  0
ARC
  5
A88A
  8
0
 10
-18.70425071098872
 20
9.3623599546306178
 30
0.0
 40
0.1319123323627526
210
0.0
220
0.0
230
-1.0
 50
152.77314599999701
 51
180.0
  0
ARC
  5
A88B
  8
0
 10
-18.206082290851398
 20
9.0582022621094822
 30
0.0
 40
0.5622433680867739
210
0.0
220
0.0
230
-1.0
 50
162.1588269999971
 51
170.58718400000211
  0
LINE
  5
A88C
  8
0
 10
18.821548488406108
 20
9.4227117642917602
 30
0.0
 11
18.901855038461989
 21
9.4227117642917602
 31
0.0
  0
ARC
  5
A88D
  8
0
 10
19.085192672620391
 20
9.41767140936917
 30
0.0
 40
0.0546404747738644
 50
174.70655800000009
 51
204.8639990000004
  0
LINE
  5
A88E
  8
0
 10
18.950478525869642
 20
9.4227117642917602
 30
0.0
 11
19.030786531413511
 21
9.4227117642917602
 31
0.0
  0
ARC
  5
A88F
  8
0
 10
-19.448137525209152
 20
9.37951724710069
 30
0.0
 40
0.064169554669032
210
0.0
220
0.0
230
-1.0
 50
21.700536999999041
 51
42.310230000000203
  0
ARC
  5
A890
  8
0
 10
19.215758678588919
 20
9.3326709105335741
 30
0.0
 40
0.1633377736360938
 50
24.655898999999469
 51
33.453308999999557
  0
LINE
  5
A891
  8
0
 10
19.35203601944497
 20
9.4227117642917602
 30
0.0
 11
19.40068425014848
 21
9.4227117642917602
 31
0.0
  0
LINE
  5
A892
  8
0
 10
19.619656596858182
 20
9.3935103086728304
 30
0.0
 11
19.619656596858182
 21
8.7194199657053524
 31
0.0
  0
LINE
  5
A893
  8
0
 10
19.670760235807201
 20
8.7165803086297728
 30
0.0
 11
19.670760235807201
 21
9.3935103086728304
 31
0.0
  0
LINE
  5
A894
  8
0
 10
19.60505514130476
 20
8.6683148712684162
 30
0.0
 11
19.68536169136064
 21
8.6683148712684162
 31
0.0
  0
ARC
  5
A895
  8
0
 10
19.444846666855241
 20
8.741726774697776
 30
0.0
 40
0.176226119820867
 50
335.38143000000059
 51
352.72777799999682
  0
ARC
  5
A896
  8
0
 10
-19.757556806827289
 20
8.7165803086297728
 30
0.0
 40
0.086843146635875
210
0.0
220
0.0
230
-1.0
 50
326.23571499999832
 51
0.0
  0
LINE
  5
A897
  8
0
 10
19.42984058563955
 20
9.4227117642917602
 30
0.0
 11
19.858142671100278
 21
9.4227117642917602
 31
0.0
  0
LINE
  5
A898
  8
0
 10
19.670760235807201
 20
9.3935103086728304
 30
0.0
 11
19.828939759993421
 21
9.3935103086728304
 31
0.0
  0
ARC
  5
A899
  8
0
 10
-19.476077072737439
 20
9.3557898818264622
 30
0.0
 40
0.0404480113466794
210
0.0
220
0.0
230
-1.0
 50
15.708638000001001
 51
68.838739999999788
  0
ARC
  5
A89A
  8
0
 10
-20.329032335258479
 20
9.5115358300872668
 30
0.0
 40
0.9035698575041822
210
0.0
220
0.0
230
-1.0
 50
350.77868099999978
 51
354.35850299999771
  0
LINE
  5
A89B
  8
0
 10
19.619656596858182
 20
9.3935103086728304
 30
0.0
 11
19.461475617183989
 21
9.3935103086728304
 31
0.0
  0
ARC
  5
A89C
  8
0
 10
-19.809297949517561
 20
9.3550941585656329
 30
0.0
 40
0.0431450305991226
210
0.0
220
0.0
230
-1.0
 50
117.0812150000009
 51
164.339970999998
  0
ARC
  5
A89D
  8
0
 10
19.566024775264001
 20
9.4323529167625058
 30
0.0
 40
0.2922779995155818
 50
347.02738699999958
 51
358.1097970000003
  0
TEXT
  5
A89E
  8
0
 10
21.669328232630122
 20
584.14806785389828
 30
0.0
 40
0.0625
  1

 72
     1
 11
21.669328232630122
 21
584.1793178538984
 31
0.0
 73
     2
  0
TEXT
  5
A89F
  8
0
 10
17.054353860017699
 20
7.5188156906813202
 30
0.0
 40
0.125
  1
ANACONDA DRIVE
 72
     4
 11
17.875782431446272
 21
7.5813156906813202
 31
0.0
  0
TEXT
  5
A8A0
  8
0
 10
17.456139574303421
 20
7.2688156906813202
 30
0.0
 40
0.125
  1
TARBORO
 72
     4
 11
17.875782431446272
 21
7.3313156906813202
 31
0.0
  0
TEXT
  5
A8A1
  8
0
 10
17.063282431446279
 20
7.0188156906813202
 30
0.0
 40
0.125
  1
NORTH CAROLINA
 72
     4
 11
17.875782431446272
 21
7.0813156906813202
 31
0.0
  0
TEXT
  5
A8A2
  8
0
 10
17.59899671716056
 20
6.7688156906813202
 30
0.0
 40
0.125
  1
27886
 72
     4
 11
17.875782431446272
 21
6.8313156906813202
 31
0.0
  0
TEXT
  5
A8A3
  8
0
 10
17.238877669541509
 20
6.2688156906813202
 30
0.0
 40
0.125
  1
800.662.5550
 72
     4
 11
17.875782431446272
 21
6.3313156906813202
 31
0.0
  0
TEXT
  5
A8A4
  8
0
 10
21.669328232630122
 20
584.02676125358312
 30
0.0
 40
0.0625
  1

 72
     4
 11
21.669328232630122
 21
584.02676125358312
 31
0.0
  0
TEXT
  5
A8A5
  8
0
 10
17.09602052668437
 20
5.7896490240146532
 30
0.0
 40
0.125
  1
focalpointap.com
 72
     4
 11
17.875782431446272
 21
5.8313156906813202
 31
0.0
  0
LINE
  5
A8A6
  8
0
 10
0.0
 20
1.0625
 30
0.0
 11
20.0
 21
1.0625
 31
0.0
  0
LINE
  5
A8A7
  8
0
 10
17.395523052287231
 20
9.756247445702936
 30
0.0
 11
17.48618147150718
 21
9.8469058649228902
 31
0.0
  0
LINE
  5
A8A8
  8
0
 10
18.242369664935961
 20
9.7574298716993901
 30
0.0
 11
18.14499072727655
 21
9.8548088093588024
 31
0.0
  0
LINE
  5
A8A9
  8
0
 10
18.190184888790981
 20
9.7530461053494637
 30
0.0
 11
18.112376967104641
 21
9.8308540270357945
 31
0.0
  0
LINE
  5
A8AA
  8
0
 10
18.183812185917279
 20
9.7028502657282392
 30
0.0
 11
18.125206310166561
 21
9.761456141478936
 31
0.0
  0
LINE
  5
A8AB
  8
0
 10
18.178640829636119
 20
9.6514530795144715
 30
0.0
 11
18.158172585425952
 21
9.6719213237246482
 31
0.0
  0
LINE
  5
A8AC
  8
0
 10
18.157226098020399
 20
9.6162992686352702
 30
0.0
 11
17.91453602686018
 21
9.8589893397954889
 31
0.0
  0
LINE
  5
A8AD
  8
0
 10
18.11994505682128
 20
9.5970117673394562
 30
0.0
 11
17.878790782860129
 21
9.8381660413006067
 31
0.0
  0
LINE
  5
A8AE
  8
0
 10
18.06018998488187
 20
9.6001982967839616
 30
0.0
 11
17.86097258424239
 21
9.7994156974234397
 31
0.0
  0
LINE
  5
A8AF
  8
0
 10
17.980583230050609
 20
9.6232365091202876
 30
0.0
 11
17.853597661551941
 21
9.7502220776189592
 31
0.0
  0
LINE
  5
A8B0
  8
0
 10
17.920502148959262
 20
9.6267490477167037
 30
0.0
 11
17.846656916805191
 21
9.700594279870792
 31
0.0
  0
LINE
  5
A8B1
  8
0
 10
17.880582362447871
 20
9.6101002917331702
 30
0.0
 11
17.841276899469459
 21
9.6494057547115943
 31
0.0
  0
LINE
  5
A8B2
  8
0
 10
17.836896888146711
 20
9.5972172235394115
 30
0.0
 11
17.718143947619339
 21
9.7159701640667944
 31
0.0
  0
LINE
  5
A8B3
  8
0
 10
17.77011209440435
 20
9.6074334747868502
 30
0.0
 11
17.622333592063011
 21
9.7552119771281696
 31
0.0
  0
LINE
  5
A8B4
  8
0
 10
17.686337753091699
 20
9.6346392736045754
 30
0.0
 11
17.593570120113512
 21
9.7274069065827682
 31
0.0
  0
LINE
  5
A8B5
  8
0
 10
17.647361797076421
 20
9.6170466871249403
 30
0.0
 11
17.57164608259507
 21
9.6927624016062861
 31
0.0
  0
LINE
  5
A8B6
  8
0
 10
17.603779396640441
 20
9.6040605450659964
 30
0.0
 11
17.337083394220219
 21
9.8707565474862022
 31
0.0
  0
LINE
  5
A8B7
  8
0
 10
17.55403115190736
 20
9.597240247304148
 30
0.0
 11
17.459683682824839
 21
9.6915877163866622
 31
0.0
  0
LINE
  5
A8B8
  8
0
 10
17.347476067876379
 20
9.7472267888401944
 30
0.0
 11
16.980604704983691
 21
10.11409815173289
 31
0.0
  0
LINE
  5
A8B9
  8
0
 10
17.2920780823769
 20
9.7460562318447543
 30
0.0
 11
17.259051808981571
 21
9.7790825052400834
 31
0.0
  0
LINE
  5
A8BA
  8
0
 10
18.311339694647231
 20
9.7450283844830601
 30
0.0
 11
18.185448090619879
 21
9.8709199885103924
 31
0.0
  0
LINE
  5
A8BB
  8
0
 10
18.361958391861631
 20
9.7509782297635841
 30
0.0
 11
18.308435188119351
 21
9.8045014335058696
 31
0.0
  0
LINE
  5
A8BC
  8
0
 10
18.3857702977628
 20
9.7837348663573422
 30
0.0
 11
18.35782387292776
 21
9.8116812911923716
 31
0.0
  0
LINE
  5
A8BD
  8
0
 10
18.401049287653361
 20
9.8250244189616787
 30
0.0
 11
18.23543091801935
 21
9.9906427885956823
 31
0.0
  0
LINE
  5
A8BE
  8
0
 10
18.43734433467473
 20
9.8452979144352604
 30
0.0
 11
18.3260901000688
 21
9.9565521490411708
 31
0.0
  0
LINE
  5
A8BF
  8
0
 10
18.48768936994551
 20
9.85152142165939
 30
0.0
 11
18.331784016509818
 21
10.00742677509508
 31
0.0
  0
LINE
  5
A8C0
  8
0
 10
18.533995467224742
 20
9.8617838668750881
 30
0.0
 11
18.470545138535972
 21
9.9252341955638475
 31
0.0
  0
LINE
  5
A8C1
  8
0
 10
18.574348471680342
 20
9.8779994049144122
 30
0.0
 11
18.38535767864138
 21
10.066990197953359
 31
0.0
  0
LINE
  5
A8C2
  8
0
 10
18.606651902298449
 20
9.9022645167912344
 30
0.0
 11
18.443097041603281
 21
10.065819377486379
 31
0.0
  0
LINE
  5
A8C3
  8
0
 10
18.631789182200681
 20
9.9336957793839105
 30
0.0
 11
18.546048468696611
 21
10.01943649288796
 31
0.0
  0
LINE
  5
A8C4
  8
0
 10
18.64908141091756
 20
9.9729720931619763
 30
0.0
 11
18.561490112832711
 21
10.0605633912468
 31
0.0
  0
LINE
  5
A8C5
  8
0
 10
18.655247148945762
 20
10.023374897628671
 30
0.0
 11
18.48931627851784
 21
10.189305768056601
 31
0.0
  0
LINE
  5
A8C6
  8
0
 10
18.629637868533859
 20
10.10555272053549
 30
0.0
 11
18.607247884779511
 21
10.127942704289859
 31
0.0
  0
LINE
  5
A8C7
  8
0
 10
18.232384965791422
 20
10.55937416577285
 30
0.0
 11
18.20675514332882
 21
10.58500398823548
 31
0.0
  0
LINE
  5
A8C8
  8
0
 10
17.450859146335581
 20
9.7550149972563673
 30
0.0
 11
17.518284791411411
 21
9.8224406423322073
 31
0.0
  0
LINE
  5
A8C9
  8
0
 10
17.459138254737219
 20
9.7067255631630722
 30
0.0
 11
17.541595856022859
 21
9.7891831644487262
 31
0.0
  0
LINE
  5
A8CA
  8
0
 10
17.463497859173302
 20
9.654516625104236
 30
0.0
 11
17.532235163302069
 21
9.723253929232996
 31
0.0
  0
LINE
  5
A8CB
  8
0
 10
17.483879439057191
 20
9.6183296624932062
 30
0.0
 11
17.537591233722061
 21
9.6720414571580662
 31
0.0
  0
LINE
  5
A8CC
  8
0
 10
17.519410484387151
 20
9.5972921653282501
 30
0.0
 11
17.66473603807032
 21
9.7426177190114061
 31
0.0
  0
LINE
  5
A8CD
  8
0
 10
17.578224829016438
 20
9.599537967462604
 30
0.0
 11
17.698888131865822
 21
9.7202012703120086
 31
0.0
  0
LINE
  5
A8CE
  8
0
 10
17.655532856685831
 20
9.6202774526370902
 30
0.0
 11
17.740519203770418
 21
9.7052637997216582
 31
0.0
  0
LINE
  5
A8CF
  8
0
 10
17.719867873658259
 20
9.6280439271145788
 30
0.0
 11
17.76891065938975
 21
9.677086712846064
 31
0.0
  0
LINE
  5
A8D0
  8
0
 10
17.759556810681531
 20
9.6111643216429261
 30
0.0
 11
17.800710358332651
 21
9.6523178692940554
 31
0.0
  0
LINE
  5
A8D1
  8
0
 10
17.802817003756878
 20
9.5978559722233676
 30
0.0
 11
18.030750628615461
 21
9.8257895970819398
 31
0.0
  0
LINE
  5
A8D2
  8
0
 10
17.866989579969939
 20
9.6054600059415112
 30
0.0
 11
18.04394075570244
 21
9.7824111816739912
 31
0.0
  0
LINE
  5
A8D3
  8
0
 10
17.95366632874072
 20
9.6355682122173416
 30
0.0
 11
18.068935422786911
 21
9.7508373062635361
 31
0.0
  0
LINE
  5
A8D4
  8
0
 10
17.992821592975211
 20
9.6181549339568981
 30
0.0
 11
18.096490485378968
 21
9.7218238263606782
 31
0.0
  0
LINE
  5
A8D5
  8
0
 10
18.036030276146501
 20
9.6047950746332997
 30
0.0
 11
18.121566068096559
 21
9.6903308665833503
 31
0.0
  0
LINE
  5
A8D6
  8
0
 10
18.085276351296962
 20
9.5974726072888021
 30
0.0
 11
18.142820592546801
 21
9.6550168485386436
 31
0.0
  0
LINE
  5
A8D7
  8
0
 10
18.29213096223442
 20
9.7477586757313563
 30
0.0
 11
18.469188100202789
 21
9.9248158136997304
 31
0.0
  0
LINE
  5
A8D8
  8
0
 10
18.34565860023579
 20
9.7447177712377862
 30
0.0
 11
18.386431400569471
 21
9.7854905715714686
 31
0.0
  0
LINE
  5
A8D9
  8
0
 10
18.514358277306389
 20
9.8568489058134716
 30
0.0
 11
18.653986405284289
 21
9.9964770337913702
 31
0.0
  0
LINE
  5
A8DA
  8
0
 10
17.327168605274132
 20
9.7444615411847515
 30
0.0
 11
17.40722565802357
 21
9.8245185939342115
 31
0.0
  0
LINE
  5
A8DB
  8
0
 10
17.278676455677338
 20
9.7525379340828966
 30
0.0
 11
17.389569098359861
 21
9.863430576765408
 31
0.0
  0
LINE
  5
A8DC
  8
0
 10
17.256202366286988
 20
9.7866323871874723
 30
0.0
 11
17.358191611026442
 21
9.8886216319269273
 31
0.0
  0
LINE
  5
A8DD
  8
0
 10
17.24106487149739
 20
9.8280634348927904
 30
0.0
 11
17.28530732589811
 21
9.872305889293516
 31
0.0
  0
LINE
  5
A8DE
  8
0
 10
17.221228715409591
 20
9.8647958212999161
 30
0.0
 11
17.27154439458786
 21
9.9151115004781882
 31
0.0
  0
LINE
  5
A8DF
  8
0
 10
17.178183685471769
 20
9.8783193338570339
 30
0.0
 11
17.290745771004111
 21
9.990881419389364
 31
0.0
  0
LINE
  5
A8E0
  8
0
 10
17.13345435988883
 20
9.8901585507690086
 30
0.0
 11
17.190044394066401
 21
9.9467485849465902
 31
0.0
  0
LINE
  5
A8E1
  8
0
 10
17.094698831046792
 20
9.9079715644218904
 30
0.0
 11
17.259412953154499
 21
10.07268568652958
 31
0.0
  0
LINE
  5
A8E2
  8
0
 10
17.060881550702842
 20
9.9307228265728646
 30
0.0
 11
17.20804272551575
 21
10.077884001385771
 31
0.0
  0
LINE
  5
A8E3
  8
0
 10
17.031553501773072
 20
9.9579633201380169
 30
0.0
 11
17.10426518346879
 21
10.03067500183373
 31
0.0
  0
LINE
  5
A8E4
  8
0
 10
17.00663631519712
 20
9.9896146760569842
 30
0.0
 11
17.060246904330231
 21
10.043225265190101
 31
0.0
  0
LINE
  5
A8E5
  8
0
 10
16.989480678272258
 20
10.02902758162702
 30
0.0
 11
17.040139050160811
 21
10.0796859535156
 31
0.0
  0
LINE
  5
A8E6
  8
0
 10
16.978635810262031
 20
10.07475125611176
 30
0.0
 11
17.121481461041149
 21
10.21759690689086
 31
0.0
  0
LINE
  5
A8E7
  8
0
 10
17.391279395896731
 20
10.54396338424135
 30
0.0
 11
17.409628192934719
 21
10.56231218127934
 31
0.0
  0
LINE
  5
A8E8
  8
0
 10
17.967328555519391
 20
10.6547249485601
 30
0.0
 11
17.85453240135131
 21
10.76752110272821
 31
0.0
  0
LINE
  5
A8E9
  8
0
 10
17.662820197682471
 20
10.645798558542319
 30
0.0
 11
17.797098473038432
 21
10.780076833898271
 31
0.0
  0
LINE
  5
A8EA
  8
0
 10
17.379130272821651
 20
10.47524571867134
 30
0.0
 11
17.481168317558382
 21
10.577283763408079
 31
0.0
  0
LINE
  5
A8EB
  8
0
 10
17.38440513170843
 20
10.42395203506323
 30
0.0
 11
17.436968477619128
 21
10.47651538097394
 31
0.0
  0
LINE
  5
A8EC
  8
0
 10
17.228389196325949
 20
10.32450464217567
 30
0.0
 11
17.238764798976561
 21
10.33488024482625
 31
0.0
  0
LINE
  5
A8ED
  8
0
 10
17.154658756445251
 20
9.8834755577764088
 30
0.0
 11
16.982391725180779
 21
10.05574258904087
 31
0.0
  0
LINE
  5
A8EE
  8
0
 10
18.446708469718381
 20
9.8457676407203838
 30
0.0
 11
18.65223481471067
 21
10.05129398571267
 31
0.0
  0
LINE
  5
A8EF
  8
0
 10
18.428461306240742
 20
10.25016074033371
 30
0.0
 11
18.42055009869253
 21
10.258071947881909
 31
0.0
  0
LINE
  5
A8F0
  8
0
 10
18.159891081938511
 20
10.575299507130829
 30
0.0
 11
18.153969648727351
 21
10.58122094034198
 31
0.0
  0
LINE
  5
A8F1
  8
0
 10
18.223646325912341
 20
10.45497572066208
 30
0.0
 11
18.10882089035016
 21
10.56980115622428
 31
0.0
  0
LINE
  5
A8F2
  8
0
 10
17.505041164222671
 20
10.14860827011298
 30
0.0
 11
17.56019559760459
 21
10.20376270349492
 31
0.0
  0
LINE
  5
A8F3
  8
0
 10
17.467184727261291
 20
10.16732037564652
 30
0.0
 11
17.530369244801602
 21
10.230504893186851
 31
0.0
  0
LINE
  5
A8F4
  8
0
 10
17.43370818973316
 20
10.19041238061333
 30
0.0
 11
17.50065713623988
 21
10.257361327120041
 31
0.0
  0
LINE
  5
A8F5
  8
0
 10
17.40232027943388
 20
10.215593012808981
 30
0.0
 11
17.471059202254821
 21
10.28433193562994
 31
0.0
  0
LINE
  5
A8F6
  8
0
 10
17.372237661743341
 20
10.242078937613361
 30
0.0
 11
17.441575378802579
 21
10.311416654672581
 31
0.0
  0
LINE
  5
A8F7
  8
0
 10
17.257314114985991
 20
10.233368539195061
 30
0.0
 11
17.206776874737692
 21
10.283905779443341
 31
0.0
  0
LINE
  5
A8F8
  8
0
 10
17.27053697415317
 20
10.2767142225228
 30
0.0
 11
17.225824380982178
 21
10.321426815693791
 31
0.0
  0
LINE
  5
A8F9
  8
0
 10
17.343448980536142
 20
10.269858798901071
 30
0.0
 11
17.412205607444111
 21
10.33861542580903
 31
0.0
  0
LINE
  5
A8FA
  8
0
 10
17.361995558394732
 20
10.34497391925458
 30
0.0
 11
17.426995532349771
 21
10.40997389320964
 31
0.0
  0
LINE
  5
A8FB
  8
0
 10
17.225360315848881
 20
10.20875379583725
 30
0.0
 11
17.203298777416599
 21
10.23081533426952
 31
0.0
  0
LINE
  5
A8FC
  8
0
 10
17.168724280506702
 20
10.20882128868449
 30
0.0
 11
17.153645870605679
 21
10.223899698585511
 31
0.0
  0
LINE
  5
A8FD
  8
0
 10
17.225811450812841
 20
10.208789811672711
 30
0.0
 11
17.259174275647819
 21
10.24215263650769
 31
0.0
  0
LINE
  5
A8FE
  8
0
 10
17.124690960348811
 20
10.196286066347451
 30
0.0
 11
17.107540078605702
 21
10.213436948090569
 31
0.0
  0
LINE
  5
A8FF
  8
0
 10
17.09166690136621
 20
10.17274158283514
 30
0.0
 11
17.068025087531701
 21
10.19638339666964
 31
0.0
  0
LINE
  5
A900
  8
0
 10
17.062569290708989
 20
10.14527065099743
 30
0.0
 11
17.033806567380111
 21
10.17403337432631
 31
0.0
  0
LINE
  5
A901
  8
0
 10
17.169291908424299
 20
10.20883881177909
 30
0.0
 11
17.28282357128462
 21
10.322370474639399
 31
0.0
  0
LINE
  5
A902
  8
0
 10
17.043965843380079
 20
10.107305555831431
 30
0.0
 11
17.004339855910121
 21
10.146931543301379
 31
0.0
  0
LINE
  5
A903
  8
0
 10
17.28733576585369
 20
10.0336412608426
 30
0.0
 11
17.243785958134879
 21
10.077191068561399
 31
0.0
  0
LINE
  5
A904
  8
0
 10
17.28944000663131
 20
9.9749684775700462
 30
0.0
 11
17.18705175908212
 21
10.07735672511923
 31
0.0
  0
LINE
  5
A905
  8
0
 10
17.336227539784559
 20
9.9797946456748878
 30
0.0
 11
17.375543904037752
 21
10.01911100992808
 31
0.0
  0
LINE
  5
A906
  8
0
 10
17.278013864102331
 20
9.9298260776041047
 30
0.0
 11
17.145013549044979
 21
10.06282639266143
 31
0.0
  0
LINE
  5
A907
  8
0
 10
17.377024283814752
 20
9.9640228472101686
 30
0.0
 11
17.425142265964581
 21
10.01214082936
 31
0.0
  0
LINE
  5
A908
  8
0
 10
17.358806917354912
 20
9.9621701093413701
 30
0.0
 11
17.337373929410742
 21
9.9836030972855401
 31
0.0
  0
LINE
  5
A909
  8
0
 10
17.468273853755999
 20
9.9421353321615502
 30
0.0
 11
17.50869662365583
 21
9.9825581020613896
 31
0.0
  0
LINE
  5
A90A
  8
0
 10
17.427172986072222
 20
9.9576030069727022
 30
0.0
 11
17.469456205447141
 21
9.9998862263476234
 31
0.0
  0
LINE
  5
A90B
  8
0
 10
17.41773226761741
 20
9.9598133015737957
 30
0.0
 11
17.357980978191168
 21
10.01956459100002
 31
0.0
  0
LINE
  5
A90C
  8
0
 10
17.503285066254971
 20
9.9205780021656036
 30
0.0
 11
17.543302002432291
 21
9.9605949383429202
 31
0.0
  0
LINE
  5
A90D
  8
0
 10
17.534198836980831
 20
9.8949232303965502
 30
0.0
 11
17.57371606586862
 21
9.9344404592843265
 31
0.0
  0
LINE
  5
A90E
  8
0
 10
17.556946875250208
 20
9.861102726171012
 30
0.0
 11
17.600075226807402
 21
9.9042310777281841
 31
0.0
  0
LINE
  5
A90F
  8
0
 10
17.56687916911465
 20
9.8144664775405062
 30
0.0
 11
17.622045959177211
 21
9.86963326760306
 31
0.0
  0
LINE
  5
A910
  8
0
 10
17.54120844690728
 20
9.7797685797889944
 30
0.0
 11
17.47249578516978
 21
9.8484812415264962
 31
0.0
  0
LINE
  5
A911
  8
0
 10
17.57592141013567
 20
9.7669401760666208
 30
0.0
 11
17.612615498093639
 21
9.8036342640245682
 31
0.0
  0
LINE
  5
A912
  8
0
 10
17.522124588105619
 20
9.7422838960957137
 30
0.0
 11
17.439418983995171
 21
9.8249895002061596
 31
0.0
  0
LINE
  5
A913
  8
0
 10
17.615061279923761
 20
9.8190528317623542
 30
0.0
 11
17.42107759623709
 21
10.013036515449031
 31
0.0
  0
LINE
  5
A914
  8
0
 10
17.62222268957602
 20
9.8684599646050302
 30
0.0
 11
17.507470909206042
 21
9.9832117449749944
 31
0.0
  0
LINE
  5
A915
  8
0
 10
17.781139708716982
 20
9.9721584746479301
 30
0.0
 11
17.83016870718663
 21
10.021187473117561
 31
0.0
  0
LINE
  5
A916
  8
0
 10
17.28257459826019
 20
10.32124514091069
 30
0.0
 11
17.256543937581
 21
10.3472758015899
 31
0.0
  0
LINE
  5
A917
  8
0
 10
17.516039172904659
 20
10.14434910876116
 30
0.0
 11
17.354478092179249
 21
10.305910189486561
 31
0.0
  0
LINE
  5
A918
  8
0
 10
17.819557617550839
 20
10.067144925976679
 30
0.0
 11
17.900312029326741
 21
10.147899337752611
 31
0.0
  0
LINE
  5
A919
  8
0
 10
17.789200519922879
 20
10.09335637084366
 30
0.0
 11
17.825303619885119
 21
10.12945947080588
 31
0.0
  0
LINE
  5
A91A
  8
0
 10
17.725387645171541
 20
10.08611203858724
 30
0.0
 11
17.775707132359742
 21
10.136431525775439
 31
0.0
  0
LINE
  5
A91B
  8
0
 10
17.631141288345471
 20
10.04843422425609
 30
0.0
 11
17.677702854316632
 21
10.09499579022725
 31
0.0
  0
LINE
  5
A91C
  8
0
 10
17.606228799295021
 20
10.08009027770057
 30
0.0
 11
17.650360902784112
 21
10.124222381189661
 31
0.0
  0
LINE
  5
A91D
  8
0
 10
17.585689243687501
 20
10.116119264587979
 30
0.0
 11
17.620191342799451
 21
10.150621363699919
 31
0.0
  0
LINE
  5
A91E
  8
0
 10
17.547722179985051
 20
10.13472074338044
 30
0.0
 11
17.590136269951071
 21
10.17713483334648
 31
0.0
  0
LINE
  5
A91F
  8
0
 10
17.580970710575532
 20
10.337674901455721
 30
0.0
 11
17.686646892888682
 21
10.443351083768841
 31
0.0
  0
LINE
  5
A920
  8
0
 10
17.425841145586642
 20
10.40425276356393
 30
0.0
 11
17.384081422088592
 21
10.44601248706199
 31
0.0
  0
LINE
  5
A921
  8
0
 10
17.557879193684862
 20
10.371151927059961
 30
0.0
 11
17.604637201068918
 21
10.417909934443999
 31
0.0
  0
LINE
  5
A922
  8
0
 10
17.407373776913769
 20
10.366151589741881
 30
0.0
 11
17.379845251422822
 21
10.393680115232851
 31
0.0
  0
LINE
  5
A923
  8
0
 10
17.53706133846234
 20
10.406902614332351
 30
0.0
 11
17.577569000084321
 21
10.44741027595434
 31
0.0
  0
LINE
  5
A924
  8
0
 10
17.542248561292791
 20
10.468658379657731
 30
0.0
 11
17.5912611318433
 21
10.517670950208251
 31
0.0
  0
LINE
  5
A925
  8
0
 10
17.44115636052431
 20
10.502074633616131
 30
0.0
 11
17.394571259260839
 21
10.548659734879591
 31
0.0
  0
LINE
  5
A926
  8
0
 10
17.433343340554948
 20
10.45331911109057
 30
0.0
 11
17.380674593123
 21
10.5059878585225
 31
0.0
  0
LINE
  5
A927
  8
0
 10
17.516257900420278
 20
10.49923626128014
 30
0.0
 11
17.547648200463371
 21
10.530626561323221
 31
0.0
  0
LINE
  5
A928
  8
0
 10
17.525889867966882
 20
10.56543677132167
 30
0.0
 11
17.5304049901473
 21
10.569951893502081
 31
0.0
  0
LINE
  5
A929
  8
0
 10
17.45498276597835
 20
10.544816770657
 30
0.0
 11
17.427496708951541
 21
10.572302827683821
 31
0.0
  0
LINE
  5
A92A
  8
0
 10
17.487076295948039
 20
10.569291783182241
 30
0.0
 11
17.478567103505512
 21
10.577800975624781
 31
0.0
  0
LINE
  5
A92B
  8
0
 10
17.55206466796616
 20
10.56087195365903
 30
0.0
 11
17.543606807448789
 21
10.569329814176401
 31
0.0
  0
LINE
  5
A92C
  8
0
 10
17.575433456860871
 20
10.558411817720719
 30
0.0
 11
17.587081334116771
 21
10.57005969497663
 31
0.0
  0
LINE
  5
A92D
  8
0
 10
17.632220527411771
 20
10.558630345776701
 30
0.0
 11
17.723267920999511
 21
10.64967773936446
 31
0.0
  0
LINE
  5
A92E
  8
0
 10
17.61195614667519
 20
10.55754901744494
 30
0.0
 11
17.596859355077822
 21
10.57264580904231
 31
0.0
  0
LINE
  5
A92F
  8
0
 10
17.824051256940582
 20
10.693892532810599
 30
0.0
 11
17.883493708333219
 21
10.75333498420323
 31
0.0
  0
LINE
  5
A930
  8
0
 10
17.816102714492072
 20
10.629375447867149
 30
0.0
 11
17.835910783031348
 21
10.649183516406451
 31
0.0
  0
LINE
  5
A931
  8
0
 10
17.729157714380442
 20
10.6666216197194
 30
0.0
 11
17.689117415621219
 21
10.7066619184786
 31
0.0
  0
LINE
  5
A932
  8
0
 10
17.747611044246671
 20
10.704736832348059
 30
0.0
 11
17.709695356439259
 21
10.742652520155479
 31
0.0
  0
LINE
  5
A933
  8
0
 10
17.802908013234411
 20
10.72931783159934
 30
0.0
 11
17.843738819912399
 21
10.77014863827733
 31
0.0
  0
LINE
  5
A934
  8
0
 10
17.772318954440099
 20
10.73659746464957
 30
0.0
 11
17.738108089951659
 21
10.77080832913801
 31
0.0
  0
LINE
  5
A935
  8
0
 10
17.71710946770957
 20
10.622101323895331
 30
0.0
 11
17.673174475825441
 21
10.66603631577947
 31
0.0
  0
LINE
  5
A936
  8
0
 10
17.810705016268638
 20
10.56740920714881
 30
0.0
 11
17.859734287246422
 21
10.61643847812657
 31
0.0
  0
LINE
  5
A937
  8
0
 10
17.695897010976019
 20
10.586745238133959
 30
0.0
 11
17.653101962447789
 21
10.629540286662181
 31
0.0
  0
LINE
  5
A938
  8
0
 10
17.662212714704921
 20
10.56386099191011
 30
0.0
 11
17.62952729582609
 21
10.59654641078896
 31
0.0
  0
LINE
  5
A939
  8
0
 10
17.666934756865491
 20
10.50257040725462
 30
0.0
 11
17.641408757322331
 21
10.5280964067978
 31
0.0
  0
LINE
  5
A93A
  8
0
 10
17.81275783849977
 20
10.512893486885011
 30
0.0
 11
17.862994537546381
 21
10.563130185931641
 31
0.0
  0
LINE
  5
A93B
  8
0
 10
17.815768038847551
 20
10.459335144737871
 30
0.0
 11
17.865656645242922
 21
10.50922375113324
 31
0.0
  0
LINE
  5
A93C
  8
0
 10
17.690045128426171
 20
10.422891493199019
 30
0.0
 11
17.59620413221564
 21
10.51673248940955
 31
0.0
  0
LINE
  5
A93D
  8
0
 10
17.819708627675649
 20
10.406707191071019
 30
0.0
 11
17.862370846997461
 21
10.449369410392871
 31
0.0
  0
LINE
  5
A93E
  8
0
 10
17.706235331376661
 20
10.35013274775363
 30
0.0
 11
17.607797708111161
 21
10.44857037101913
 31
0.0
  0
LINE
  5
A93F
  8
0
 10
17.82453630987192
 20
10.354966330772401
 30
0.0
 11
17.851092858865201
 21
10.38152287976567
 31
0.0
  0
LINE
  5
A940
  8
0
 10
17.830211874238891
 20
10.304073352644441
 30
0.0
 11
17.875714022678402
 21
10.34957550108396
 31
0.0
  0
LINE
  5
A941
  8
0
 10
17.723005487620231
 20
10.27679404901512
 30
0.0
 11
17.543099438865671
 21
10.456700097769691
 31
0.0
  0
LINE
  5
A942
  8
0
 10
17.834916238338579
 20
10.252209174249179
 30
0.0
 11
17.946145239009731
 21
10.363438174920351
 31
0.0
  0
LINE
  5
A943
  8
0
 10
17.845605642565399
 20
10.2063300359811
 30
0.0
 11
17.93472904125364
 21
10.29545343466933
 31
0.0
  0
LINE
  5
A944
  8
0
 10
17.738962579079761
 20
10.20426841506066
 30
0.0
 11
17.53749673991393
 21
10.405734254226511
 31
0.0
  0
LINE
  5
A945
  8
0
 10
17.667147687483151
 20
10.04980913667756
 30
0.0
 11
17.387245252129169
 21
10.32971157203157
 31
0.0
  0
LINE
  5
A946
  8
0
 10
17.74327755674296
 20
10.086816352407631
 30
0.0
 11
17.720061365433491
 21
10.1100325437171
 31
0.0
  0
LINE
  5
A947
  8
0
 10
17.67732862513521
 20
10.09619674152046
 30
0.0
 11
17.642067294888541
 21
10.13145807176711
 31
0.0
  0
LINE
  5
A948
  8
0
 10
17.85645738909151
 20
10.047476155022441
 30
0.0
 11
17.924017956135419
 21
10.11503672206635
 31
0.0
  0
LINE
  5
A949
  8
0
 10
17.819294243086759
 20
10.067368208558751
 30
0.0
 11
17.678060286008051
 21
10.20860216563743
 31
0.0
  0
LINE
  5
A94A
  8
0
 10
17.888147934427892
 20
10.0225981578639
 30
0.0
 11
17.96390276679368
 21
10.098352990229669
 31
0.0
  0
LINE
  5
A94B
  8
0
 10
17.7626972884878
 20
9.9542595356729464
 30
0.0
 11
17.747459728936452
 21
9.9694970952242716
 31
0.0
  0
LINE
  5
A94C
  8
0
 10
17.80436302080513
 20
9.9388132442411425
 30
0.0
 11
17.869044553987148
 21
10.00349477742316
 31
0.0
  0
LINE
  5
A94D
  8
0
 10
17.824161208363961
 20
9.9020428893050561
 30
0.0
 11
17.901648107332971
 21
9.9795297882740517
 31
0.0
  0
LINE
  5
A94E
  8
0
 10
17.856240993577181
 20
9.8775541320233415
 30
0.0
 11
17.995314293097781
 21
10.016627431543951
 31
0.0
  0
LINE
  5
A94F
  8
0
 10
17.866008336605191
 20
9.830752932556436
 30
0.0
 11
17.87035995453294
 21
9.8351045504841821
 31
0.0
  0
LINE
  5
A950
  8
0
 10
17.853373443100718
 20
9.7615494965570342
 30
0.0
 11
18.066667561798241
 21
9.9748436152545743
 31
0.0
  0
LINE
  5
A951
  8
0
 10
17.847445279787941
 20
9.6990527907493274
 30
0.0
 11
18.069560335041452
 21
9.9211678460028612
 31
0.0
  0
LINE
  5
A952
  8
0
 10
17.604939183333371
 20
10.30507483171861
 30
0.0
 11
17.639281397996911
 21
10.339417046382151
 31
0.0
  0
LINE
  5
A953
  8
0
 10
17.629772609545949
 20
10.273339715436281
 30
0.0
 11
17.706296130056831
 21
10.349863235947151
 31
0.0
  0
LINE
  5
A954
  8
0
 10
17.655461549530258
 20
10.242460112925659
 30
0.0
 11
17.71678183862155
 21
10.30378040201693
 31
0.0
  0
LINE
  5
A955
  8
0
 10
17.678101174845882
 20
10.20853119574635
 30
0.0
 11
17.72728096992218
 21
10.25771099082265
 31
0.0
  0
LINE
  5
A956
  8
0
 10
17.699372118221181
 20
10.173233596626719
 30
0.0
 11
17.737438604650791
 21
10.211300083056351
 31
0.0
  0
LINE
  5
A957
  8
0
 10
17.72180469018441
 20
10.13909762609503
 30
0.0
 11
17.747454624355392
 21
10.164747560265999
 31
0.0
  0
LINE
  5
A958
  8
0
 10
18.025818466537022
 20
10.27340577496285
 30
0.0
 11
18.22195726341981
 21
10.46954457184567
 31
0.0
  0
LINE
  5
A959
  8
0
 10
17.904193825501281
 20
10.20874279612393
 30
0.0
 11
17.833260187162171
 21
10.27967643446304
 31
0.0
  0
LINE
  5
A95A
  8
0
 10
17.916289449523742
 20
10.253215714596401
 30
0.0
 11
17.825702370847981
 21
10.34380279327214
 31
0.0
  0
LINE
  5
A95B
  8
0
 10
18.076086982270049
 20
10.38024283319082
 30
0.0
 11
18.209820973471
 21
10.51397682439176
 31
0.0
  0
LINE
  5
A95C
  8
0
 10
17.93379042498719
 20
10.29228328162784
 30
0.0
 11
17.876725476705921
 21
10.34934822990912
 31
0.0
  0
LINE
  5
A95D
  8
0
 10
17.94117301768927
 20
10.34146923142071
 30
0.0
 11
17.89503061367666
 21
10.3876116354333
 31
0.0
  0
LINE
  5
A95E
  8
0
 10
18.10398998570173
 20
10.46471437911744
 30
0.0
 11
18.177087893490381
 21
10.53781228690608
 31
0.0
  0
LINE
  5
A95F
  8
0
 10
17.95504415946931
 20
10.384166632135599
 30
0.0
 11
17.905563758045759
 21
10.433647033559151
 31
0.0
  0
LINE
  5
A960
  8
0
 10
17.972035165750771
 20
10.423744168349071
 30
0.0
 11
17.911000263012951
 21
10.48477907108688
 31
0.0
  0
LINE
  5
A961
  8
0
 10
18.053781053275291
 20
10.471073989185911
 30
0.0
 11
18.169699137769801
 21
10.58699207368042
 31
0.0
  0
LINE
  5
A962
  8
0
 10
17.97856270273871
 20
10.473785173856021
 30
0.0
 11
17.907984208406582
 21
10.54436366818816
 31
0.0
  0
LINE
  5
A963
  8
0
 10
18.04252817514244
 20
10.46638824394725
 30
0.0
 11
18.005560025160651
 21
10.503356393929
 31
0.0
  0
LINE
  5
A964
  8
0
 10
17.858389430209691
 20
10.424252818900261
 30
0.0
 11
17.815250874118419
 21
10.467391374991561
 31
0.0
  0
LINE
  5
A965
  8
0
 10
17.90603179609224
 20
10.43646181699272
 30
0.0
 11
17.984291079199519
 21
10.51472110010001
 31
0.0
  0
LINE
  5
A966
  8
0
 10
17.864326162755891
 20
10.47488462884899
 30
0.0
 11
17.812128995863031
 21
10.52708179574185
 31
0.0
  0
LINE
  5
A967
  8
0
 10
17.910703588124932
 20
10.497702151520331
 30
0.0
 11
17.95791268388443
 21
10.544911247279821
 31
0.0
  0
LINE
  5
A968
  8
0
 10
17.864865349044539
 20
10.530913985055291
 30
0.0
 11
17.811187167999261
 21
10.58459216610057
 31
0.0
  0
LINE
  5
A969
  8
0
 10
17.907530062947551
 20
10.55109716883789
 30
0.0
 11
17.943970798628001
 21
10.58753790451834
 31
0.0
  0
LINE
  5
A96A
  8
0
 10
17.861291408359129
 20
10.591056468235619
 30
0.0
 11
17.817473493638531
 21
10.6348743829562
 31
0.0
  0
LINE
  5
A96B
  8
0
 10
17.901373872492051
 20
10.6015095208773
 30
0.0
 11
17.964826580343949
 21
10.664962228729181
 31
0.0
  0
LINE
  5
A96C
  8
0
 10
17.850752777617618
 20
10.37532092899742
 30
0.0
 11
17.819740090447471
 21
10.406333616167579
 31
0.0
  0
LINE
  5
A96D
  8
0
 10
17.978439989960751
 20
10.169458755891659
 30
0.0
 11
18.22758700820604
 21
10.418605774136971
 31
0.0
  0
LINE
  5
A96E
  8
0
 10
17.997859056371752
 20
10.13230927980776
 30
0.0
 11
18.235692200712109
 21
10.37014242414814
 31
0.0
  0
LINE
  5
A96F
  8
0
 10
18.230652191000789
 20
10.308533871941879
 30
0.0
 11
18.252697475492312
 21
10.33057915643341
 31
0.0
  0
LINE
  5
A970
  8
0
 10
17.970812197650719
 20
10.08555588147957
 30
0.0
 11
17.939619647637731
 21
10.116748431492519
 31
0.0
  0
LINE
  5
A971
  8
0
 10
18.16641315303168
 20
10.187726291477841
 30
0.0
 11
18.171202798857902
 21
10.19251593730406
 31
0.0
  0
LINE
  5
A972
  8
0
 10
18.07900025503546
 20
10.04374485098668
 30
0.0
 11
18.198880073888908
 21
10.163624669840139
 31
0.0
  0
LINE
  5
A973
  8
0
 10
18.032421893855648
 20
10.13708327026449
 30
0.0
 11
17.98237765339789
 21
10.18712751072224
 31
0.0
  0
LINE
  5
A974
  8
0
 10
18.050211451625952
 20
10.175862254989079
 30
0.0
 11
18.00264941429403
 21
10.22342429232101
 31
0.0
  0
LINE
  5
A975
  8
0
 10
18.074976996691341
 20
10.207665252418639
 30
0.0
 11
18.0207771224817
 21
10.26186512662828
 31
0.0
  0
LINE
  5
A976
  8
0
 10
18.107694689948719
 20
10.231516101656171
 30
0.0
 11
18.040476764822351
 21
10.29873402678256
 31
0.0
  0
LINE
  5
A977
  8
0
 10
18.13931456571472
 20
10.25646476838509
 30
0.0
 11
18.06149836260753
 21
10.334280971492291
 31
0.0
  0
LINE
  5
A978
  8
0
 10
18.167784164199599
 20
10.284563712395141
 30
0.0
 11
18.075527168557151
 21
10.376820708037579
 31
0.0
  0
LINE
  5
A979
  8
0
 10
18.204589145756302
 20
10.30432727333338
 30
0.0
 11
18.150884504117279
 21
10.358031914972401
 31
0.0
  0
LINE
  5
A97A
  8
0
 10
18.261610619741511
 20
10.190737256853231
 30
0.0
 11
18.218091262882311
 21
10.23425661371243
 31
0.0
  0
LINE
  5
A97B
  8
0
 10
18.224014066842582
 20
10.11519672476232
 30
0.0
 11
18.181165370146051
 21
10.158045421458841
 31
0.0
  0
LINE
  5
A97C
  8
0
 10
18.365810857592461
 20
10.16084982605893
 30
0.0
 11
18.416350933412829
 21
10.21138990187931
 31
0.0
  0
LINE
  5
A97D
  8
0
 10
18.15577560285303
 20
10.07029810376198
 30
0.0
 11
18.11035531449404
 21
10.11571839212098
 31
0.0
  0
LINE
  5
A97E
  8
0
 10
18.121065985314509
 20
10.04843917880561
 30
0.0
 11
18.078690871136281
 21
10.09081429298382
 31
0.0
  0
LINE
  5
A97F
  8
0
 10
18.325821789732021
 20
10.17742930069342
 30
0.0
 11
18.401746004082352
 21
10.25335351504372
 31
0.0
  0
LINE
  5
A980
  8
0
 10
18.069203261246319
 20
9.9871648178839578
 30
0.0
 11
18.044937570504221
 21
10.011430508626059
 31
0.0
  0
LINE
  5
A981
  8
0
 10
18.09584981306007
 20
10.017086808565139
 30
0.0
 11
18.08005728702868
 21
10.03287933459651
 31
0.0
  0
LINE
  5
A982
  8
0
 10
18.189326151809521
 20
10.093316097300431
 30
0.0
 11
18.14335187176205
 21
10.139290377347921
 31
0.0
  0
LINE
  5
A983
  8
0
 10
18.239635886970738
 20
10.15614344712907
 30
0.0
 11
18.237591528398919
 21
10.15818780570091
 31
0.0
  0
LINE
  5
A984
  8
0
 10
18.287543419587191
 20
10.195719473043511
 30
0.0
 11
18.384285239464798
 21
10.292461292921111
 31
0.0
  0
LINE
  5
A985
  8
0
 10
18.40724104397648
 20
10.14571146994801
 30
0.0
 11
18.449919434011989
 21
10.188389859983531
 31
0.0
  0
LINE
  5
A986
  8
0
 10
18.33064007208829
 20
10.178276347001381
 30
0.0
 11
18.31566183476891
 21
10.19325458432076
 31
0.0
  0
LINE
  5
A987
  8
0
 10
18.422323916868539
 20
10.14316104471602
 30
0.0
 11
18.054446917482071
 21
10.51103804410252
 31
0.0
  0
LINE
  5
A988
  8
0
 10
18.502572763729528
 20
10.12790610471122
 30
0.0
 11
18.542972858108641
 21
10.168306199090321
 31
0.0
  0
LINE
  5
A989
  8
0
 10
18.455535984149002
 20
10.13743786762562
 30
0.0
 11
18.502989896127641
 21
10.18489177960425
 31
0.0
  0
LINE
  5
A98A
  8
0
 10
18.536805746059311
 20
10.10557054454608
 30
0.0
 11
18.579178096071121
 21
10.147942894557911
 31
0.0
  0
LINE
  5
A98B
  8
0
 10
18.49085529724271
 20
10.1311982068368
 30
0.0
 11
18.30690003040468
 21
10.31515347367484
 31
0.0
  0
LINE
  5
A98C
  8
0
 10
18.564988839572869
 20
10.077185095564721
 30
0.0
 11
18.611951573690511
 21
10.12414782968235
 31
0.0
  0
LINE
  5
A98D
  8
0
 10
18.07400339928617
 20
9.8690423677526322
 30
0.0
 11
18.164136893826839
 21
9.9591758622933142
 31
0.0
  0
LINE
  5
A98E
  8
0
 10
18.035358850805199
 20
9.8513036008403141
 30
0.0
 11
17.90975112869301
 21
9.9769113229525104
 31
0.0
  0
LINE
  5
A98F
  8
0
 10
18.12284100880505
 20
9.8613114347766064
 30
0.0
 11
18.25474056787877
 21
9.9932109938503118
 31
0.0
  0
LINE
  5
A990
  8
0
 10
18.118313606558761
 20
9.8002154900353862
 30
0.0
 11
18.137912910013231
 21
9.8198147934898472
 31
0.0
  0
LINE
  5
A991
  8
0
 10
18.12594874029703
 20
9.7512820812787062
 30
0.0
 11
18.244347005860881
 21
9.8696803468425927
 31
0.0
  0
LINE
  5
A992
  8
0
 10
18.03718183766194
 20
9.7929120714886562
 30
0.0
 11
17.811539852447751
 21
10.01855405670285
 31
0.0
  0
LINE
  5
A993
  8
0
 10
18.143430031897442
 20
9.7121948303842363
 30
0.0
 11
18.258766135669379
 21
9.8275309341561758
 31
0.0
  0
LINE
  5
A994
  8
0
 10
17.946195643281222
 20
10.61928931830337
 30
0.0
 11
17.774386491992122
 21
10.79109846959248
 31
0.0
  0
LINE
  5
A995
  8
0
 10
17.99962269103602
 20
10.5866212544314
 30
0.0
 11
18.005216916955732
 21
10.592215480351131
 31
0.0
  0
LINE
  5
A996
  8
0
 10
18.03038353138782
 20
10.56081355228827
 30
0.0
 11
18.040027302034702
 21
10.570457322935191
 31
0.0
  0
LINE
  5
A997
  8
0
 10
18.054819405494001
 20
10.52868088389957
 30
0.0
 11
18.09509872896119
 21
10.568960207366731
 31
0.0
  0
LINE
  5
A998
  8
0
 10
18.207586139655142
 20
10.56831053307083
 30
0.0
 11
18.21949072843217
 21
10.58021512184788
 31
0.0
  0
LINE
  5
A999
  8
0
 10
18.230238375972789
 20
10.391815128106719
 30
0.0
 11
18.053367923196241
 21
10.568685580883271
 31
0.0
  0
LINE
  5
A99A
  8
0
 10
18.389922217536601
 20
10.005857116563231
 30
0.0
 11
18.34926453016352
 21
10.04651480393629
 31
0.0
  0
LINE
  5
A99B
  8
0
 10
18.444029910348171
 20
9.9562261663400342
 30
0.0
 11
18.518940229540981
 21
10.031136485532819
 31
0.0
  0
LINE
  5
A99C
  8
0
 10
18.418447623761342
 20
9.9872124222481116
 30
0.0
 11
18.482727283617951
 21
10.051492082104719
 31
0.0
  0
LINE
  5
A99D
  8
0
 10
18.313275194122411
 20
9.8820399926092062
 30
0.0
 11
18.368305252329471
 21
9.9370700508162422
 31
0.0
  0
LINE
  5
A99E
  8
0
 10
18.240096487783038
 20
9.9294086763370881
 30
0.0
 11
18.194411188492481
 21
9.9750939756276296
 31
0.0
  0
LINE
  5
A99F
  8
0
 10
18.283154601036021
 20
9.9084879420177181
 30
0.0
 11
18.33057340415828
 21
9.9559067451399805
 31
0.0
  0
LINE
  5
A9A0
  8
0
 10
18.248352216779761
 20
9.9302541002563878
 30
0.0
 11
18.384752677046482
 21
10.066654560523091
 31
0.0
  0
LINE
  5
A9A1
  8
0
 10
18.347587136481231
 20
9.8597833924730889
 30
0.0
 11
18.392829025174809
 21
9.9050252811666724
 31
0.0
  0
LINE
  5
A9A2
  8
0
 10
18.24650756267669
 20
9.8664290589485049
 30
0.0
 11
18.223803042709001
 21
9.889133578916196
 31
0.0
  0
LINE
  5
A9A3
  8
0
 10
17.200920366542899
 20
9.9576245574230722
 30
0.0
 11
17.285039031178769
 21
10.04174322205894
 31
0.0
  0
LINE
  5
A9A4
  8
0
 10
17.186459072409239
 20
9.9648123268022637
 30
0.0
 11
17.11644351775082
 21
10.03482788146068
 31
0.0
  0
LINE
  5
A9A5
  8
0
 10
17.371366555613459
 20
10.34559026854726
 30
0.0
 11
17.3576436980665
 21
10.359313126094239
 31
0.0
  0
LINE
  5
A9A6
  8
0
 10
17.309099312175341
 20
10.351288969490479
 30
0.0
 11
17.299312847501351
 21
10.36107543416446
 31
0.0
  0
LINE
  5
A9A7
  8
0
 10
17.31273273411621
 20
10.352279637471
 30
0.0
 11
17.322331644750172
 21
10.36187854810497
 31
0.0
  0
LINE
  5
A9A8
  8
0
 10
17.64704234426701
 20
10.34717799265227
 30
0.0
 11
17.69595672097163
 21
10.396092369356881
 31
0.0
  0
LINE
  5
A9A9
  8
0
 10
17.834299722116459
 20
10.674616696973221
 30
0.0
 11
17.824290532703461
 21
10.68462588638622
 31
0.0
  0
LINE
  5
A9AA
  8
0
 10
17.84916923979873
 20
10.6624419731738
 30
0.0
 11
17.92807390592899
 21
10.741346639304091
 31
0.0
  0
LINE
  5
A9AB
  8
0
 10
17.952913356540211
 20
10.556003062549451
 30
0.0
 11
17.89935962720995
 21
10.60955679187972
 31
0.0
  0
LINE
  5
A9AC
  8
0
 10
17.876147562265121
 20
10.63276885682455
 30
0.0
 11
17.850874999455129
 21
10.658041419634539
 31
0.0
  0
LINE
  5
A9AD
  8
0
 10
17.875895200680961
 20
10.63259939156112
 30
0.0
 11
17.949405524058012
 21
10.70610971493819
 31
0.0
  0
LINE
  5
A9AE
  8
0
 10
17.88250356505754
 20
10.356365043463081
 30
0.0
 11
17.977579436863898
 21
10.45144091526946
 31
0.0
  0
LINE
  5
A9AF
  8
0
 10
17.995333475880081
 20
10.46919495428563
 30
0.0
 11
18.024390029953
 21
10.49825150835856
 31
0.0
  0
LINE
  5
A9B0
  8
0
 10
18.13816830019822
 20
10.37074811889147
 30
0.0
 11
18.0807857731944
 21
10.42813064589526
 31
0.0
  0
LINE
  5
A9B1
  8
0
 10
18.429303459235442
 20
10.224342427701931
 30
0.0
 11
18.43571767003203
 21
10.230756638498489
 31
0.0
  0
LINE
  5
A9B2
  8
0
 10
18.217551290292398
 20
10.178228043807421
 30
0.0
 11
18.188273749698151
 21
10.207505584401661
 31
0.0
  0
LINE
  5
A9B3
  8
0
 10
18.211985563769151
 20
10.17673015972041
 30
0.0
 11
18.347888381269652
 21
10.3126329772209
 31
0.0
  0
LINE
  5
A9B4
  8
0
 10
18.18641628686753
 20
9.8683181703441516
 30
0.0
 11
18.213184497766129
 21
9.8950863812427396
 31
0.0
  0
LINE
  5
A9B5
  8
0
 10
18.174857017754761
 20
9.8815110613755142
 30
0.0
 11
18.126271475938339
 21
9.9300966031919433
 31
0.0
  0
LINE
  5
A9B6
  8
0
 10
18.133018346279169
 20
9.8667811903561944
 30
0.0
 11
18.095498383652281
 21
9.9043011529830682
 31
0.0
  0
LINE
  5
A9B7
  8
0
 10
18.148311827919681
 20
9.8302137113963202
 30
0.0
 11
18.172473396333888
 21
9.8543752798105242
 31
0.0
  0
LINE
  5
A9B8
  8
0
 10
18.379302951028262
 20
9.9480677495150562
 30
0.0
 11
18.396394558643639
 21
9.965159357130414
 31
0.0
  0
LINE
  5
A9B9
  8
0
 10
18.404738462764449
 20
9.9169347187563162
 30
0.0
 11
18.42252868779369
 21
9.9347249437855396
 31
0.0
  0
LINE
  5
A9BA
  8
0
 10
18.314528115493982
 20
9.9681141336159964
 30
0.0
 11
18.285174487386641
 21
9.9974677617233461
 31
0.0
  0
LINE
  5
A9BB
  8
0
 10
18.33521485768285
 20
9.9605481986645437
 30
0.0
 11
18.44068968352542
 21
10.066023024507111
 31
0.0
  0
LINE
  5
A9BC
  8
0
 10
18.06904359958282
 20
9.9307559370525347
 30
0.0
 11
17.854126955236762
 21
10.145672581398591
 31
0.0
  0
LINE
  5
A9BD
  8
0
 10
18.05779915692132
 20
9.8854318372191301
 30
0.0
 11
17.815086615395959
 21
10.12814437874448
 31
0.0
  0
LINE
  5
A9BE
  8
0
 10
18.178717084294821
 20
10.08689313775113
 30
0.0
 11
18.24270612655296
 21
10.150882180009271
 31
0.0
  0
LINE
  5
A9BF
  8
0
 10
18.310535498663022
 20
10.198380920426651
 30
0.0
 11
18.252697358280209
 21
10.25621906080945
 31
0.0
  0
LINE
  5
A9C0
  8
0
 10
17.884720583168331
 20
10.17164749596196
 30
0.0
 11
17.83763152994521
 21
10.218736549185079
 31
0.0
  0
LINE
  5
A9C1
  8
0
 10
17.86051872469714
 20
10.164674575617919
 30
0.0
 11
17.904096415900231
 21
10.208252266821001
 31
0.0
  0
LINE
  5
A9C2
  8
0
 10
17.9082493519449
 20
9.8729939478961448
 30
0.0
 11
18.046834514390621
 21
10.011579110341881
 31
0.0
  0
LINE
  5
A9C3
  8
0
 10
17.901160299967319
 20
9.872365066688344
 30
0.0
 11
17.780851263669351
 21
9.9926741029863262
 31
0.0
  0
LINE
  5
A9C4
  8
0
 10
18.157628028100561
 20
9.6698242840924316
 30
0.0
 11
18.183557799106861
 21
9.6957540550987122
 31
0.0
  0
LINE
  5
A9C5
  8
0
 10
18.456753953332289
 20
9.9390253807675482
 30
0.0
 11
18.444378096757148
 21
9.9514012373426901
 31
0.0
  0
LINE
  5
A9C6
  8
0
 10
18.470304278763368
 20
9.9259319922603186
 30
0.0
 11
18.637732309171721
 21
10.09336002266866
 31
0.0
  0
LINE
  5
A9C7
  8
0
 10
17.593542230723578
 20
10.463383506593591
 30
0.0
 11
17.65509992874366
 21
10.52494120461367
 31
0.0
  0
LINE
  5
A9C8
  8
0
 10
17.61491718678807
 20
10.42818992016317
 30
0.0
 11
17.673670635095039
 21
10.48694336847014
 31
0.0
  0
LINE
  5
A9C9
  8
0
 10
17.591959612190269
 20
10.46440846694002
 30
0.0
 11
17.518380071275061
 21
10.53798800785523
 31
0.0
  0
LINE
  5
A9CA
  8
0
 10
18.07427198466452
 20
9.8689590094758941
 30
0.0
 11
18.073684005157311
 21
9.8695469889831422
 31
0.0
  0
LINE
  5
A9CB
  8
0
 10
17.605736733898919
 20
9.7718088352922887
 30
0.0
 11
17.567323193282039
 21
9.8102223759091718
 31
0.0
  0
LINE
  5
A9CC
  8
0
 10
17.593940073340551
 20
9.7283902967765616
 30
0.0
 11
17.619705074574959
 21
9.7541552980109678
 31
0.0
  0
LINE
  5
A9CD
  8
0
 10
17.395115406940079
 20
9.7561559922714114
 30
0.0
 11
17.211452088359341
 21
9.9398193108521742
 31
0.0
  0
LINE
  5
A9CE
  8
0
 10
17.11615167003049
 20
10.042561488395419
 30
0.0
 11
17.133138347215841
 21
10.059548165580759
 31
0.0
  0
LINE
  5
A9CF
  8
0
 10
18.244696331928601
 20
9.7568925879204542
 30
0.0
 11
18.296510216589311
 21
9.8087064725811608
 31
0.0
  0
LINE
  5
A9D0
  8
0
 10
18.201128879745269
 20
9.9118077418799206
 30
0.0
 11
18.158059846347431
 21
9.9548767752777945
 31
0.0
  0
LINE
  5
A9D1
  8
0
 10
18.26300862994848
 20
10.28432176839465
 30
0.0
 11
18.28751602698777
 21
10.308829165433931
 31
0.0
  0
LINE
  5
A9D2
  8
0
 10
18.197585379578431
 20
10.21889851802457
 30
0.0
 11
18.207785955256181
 21
10.22909909370235
 31
0.0
  0
TEXT
  5
A9D3
  8
0
 10
17.909061284623512
 20
9.9726966632006704
 30
0.0
 40
0.000002
  1
S
 72
     1
 11
17.90906195129018
 21
9.9726976632006696
 31
0.0
 73
     2
  0
LINE
  5
A9D4
  8
0
 10
17.90950253621952
 20
9.9873842171606082
 30
0.0
 11
17.970240983561059
 21
10.048122664502159
 31
0.0
  0
LINE
  5
A9D5
  8
0
 10
17.909061957379251
 20
9.9726977049748662
 30
0.0
 11
17.909061957379251
 21
9.9726966629480742
 31
0.0
  0
LINE
  5
A9D6
  8
0
 10
7.4687428013472221
 20
3.152912361841048
 30
0.0
 11
7.4687428013472221
 21
3.9029123618383181
 31
0.0
  0
LINE
  5
A9D7
  8
0
 10
7.4687428013472221
 20
3.9029123618383181
 30
0.0
 11
7.6455194966432058
 21
4.0796890571340771
 31
0.0
  0
ARC
  5
A9D8
  8
0
 10
7.4687428013469459
 20
4.2564657524301932
 30
0.0
 40
0.2499999999993658
 50
315.00000000002302
 51
0.0000000000217804
  0
LINE
  5
A9D9
  8
0
 10
7.7187428013463091
 20
4.2564657524302891
 30
0.0
 11
7.7187428013463091
 21
9.5493589712222473
 31
0.0
  0
ARC
  5
A9DA
  8
0
 10
7.4687428013469459
 20
9.5493589712223432
 30
0.0
 40
0.2499999999993658
 50
359.9999999999784
 51
44.999999999976957
  0
LINE
  5
A9DB
  8
0
 10
7.6455194966432058
 20
9.7261356665184611
 30
0.0
 11
7.4687428013472221
 21
9.9029123618142183
 31
0.0
  0
LINE
  5
A9DC
  8
0
 10
7.4687428013472221
 20
9.9029123618142183
 30
0.0
 11
7.4687428013472221
 21
10.65291236181101
 31
0.0
  0
LINE
  5
A9DD
  8
0
 10
7.4687428013472221
 20
10.65291236181101
 30
0.0
 11
9.1888559071956646
 21
10.57781060170047
 31
0.0
  0
ARC
  5
A9DE
  8
0
 10
9.1874928013405501
 20
10.54659034477627
 30
0.0
 40
0.0312499999997526
 50
356.2247306756891
 51
87.500000000085947
  0
ARC
  5
A9DF
  8
0
 10
8.9063801679351791
 20
10.555855076381571
 30
0.0
 40
0.3124999999992013
 50
299.7120540000235
 51
357.92363567597903
  0
ARC
  5
A9E0
  8
0
 10
8.6895370546091648
 20
10.93583575247043
 30
0.0
 40
0.7499999999967761
 50
274.4381766676351
 51
299.71205399999002
  0
ARC
  5
A9E1
  8
0
 10
8.7499928013421489
 20
10.15692839906967
 30
0.0
 40
0.031249999999929
 50
94.438176667573799
 51
179.999999999925
  0
LINE
  5
A9E2
  8
0
 10
8.7187428013422181
 20
10.156928399069701
 30
0.0
 11
8.7187428013422181
 21
10.02958607638076
 31
0.0
  0
ARC
  5
A9E3
  8
0
 10
8.6874928013437032
 20
10.02958607638201
 30
0.0
 40
0.0312499999985168
 50
269.9999999976971
 51
359.99999999771688
  0
ARC
  5
A9E4
  8
0
 10
8.6874928013424473
 20
9.7483360763844065
 30
0.0
 40
0.2499999999990905
 50
90.0
 51
180.0
  0
LINE
  5
A9E5
  8
0
 10
8.4374928013433568
 20
9.7483360763844065
 30
0.0
 11
8.4374928013433568
 21
9.2809802522637472
 31
0.0
  0
ARC
  5
A9E6
  8
0
 10
8.4062428013434456
 20
9.2809802522637206
 30
0.0
 40
0.0312499999999112
 50
272.50000000001842
 51
0.0000000000488533
  0
LINE
  5
A9E7
  8
0
 10
8.4076059071986151
 20
9.2497599953393763
 30
0.0
 11
8.3423796954885496
 21
9.2469121574339841
 31
0.0
  0
ARC
  5
A9E8
  8
0
 10
8.3437428013437263
 20
9.2156919005096327
 30
0.0
 40
0.0312499999999154
 50
92.500000000028152
 51
180.00000000004221
  0
LINE
  5
A9E9
  8
0
 10
8.3124928013438115
 20
9.2156919005096132
 30
0.0
 11
8.3124928013438115
 21
8.6403403665607801
 31
0.0
  0
ARC
  5
A9EA
  8
0
 10
8.2968678013437849
 20
8.6403403665606007
 30
0.0
 40
0.0156250000000249
 50
272.50000000067911
 51
0.0000000006578914
  0
LINE
  5
A9EB
  8
0
 10
8.2975493542715544
 20
8.6247302380983673
 30
0.0
 11
8.233686248416749
 21
8.6219419146795389
 31
0.0
  0
ARC
  5
A9EC
  8
0
 10
8.2343678013441668
 20
8.6063317862174138
 30
0.0
 40
0.0156249999999014
 50
92.499999999407933
 51
179.99999999938771
  0
LINE
  5
A9ED
  8
0
 10
8.2187428013442663
 20
8.6063317862175825
 30
0.0
 11
8.2187428013442663
 21
8.3725986593826054
 31
0.0
  0
LINE
  5
A9EE
  8
0
 10
8.2187428013442663
 20
8.3725986593826054
 30
0.0
 11
8.2187428013442663
 21
4.24706814635549
 31
0.0
  0
ARC
  5
A9EF
  8
0
 10
8.2499928013439572
 20
4.247068146355776
 30
0.0
 40
0.0312499999996927
 50
180.00000000052759
 51
262.81924421903841
  0
ARC
  5
A9F0
  8
0
 10
8.2187428013442663
 20
3.9990289609449361
 30
0.0
 40
0.2187499999988156
 50
284.47751218594732
 51
82.819244218503556
  0
ARC
  5
A9F1
  8
0
 10
8.2812428013439732
 20
3.7569675018084232
 30
0.0
 40
0.0312499999997064
 50
104.47751218594441
 51
179.99999999997951
  0
LINE
  5
A9F2
  8
0
 10
8.2499928013442663
 20
3.7569675018084321
 30
0.0
 11
8.2499928013442663
 21
3.6163658181025511
 31
0.0
  0
ARC
  5
A9F3
  8
0
 10
8.2187428013444936
 20
3.616365818102778
 30
0.0
 40
0.0312499999997726
 50
269.99999999958311
 51
359.999999999583
  0
ARC
  5
A9F4
  8
0
 10
8.2187428013442663
 20
3.460115818103461
 30
0.0
 40
0.1249999999995452
 50
90.0
 51
180.0
  0
LINE
  5
A9F5
  8
0
 10
8.093742801344721
 20
3.460115818103461
 30
0.0
 11
8.093742801344721
 21
3.2101158181043701
 31
0.0
  0
ARC
  5
A9F6
  8
0
 10
8.0624928013448098
 20
3.210115818104343
 30
0.0
 40
0.0312499999999112
 50
272.50000000001842
 51
0.0000000000488533
  0
LINE
  5
A9F7
  8
0
 10
8.0638559071999811
 20
3.1788955611800001
 30
0.0
 11
7.4687428013472221
 21
3.152912361841048
 31
0.0
  0
LINE
  5
A9F8
  8
0
 10
7.2187428013472221
 20
10.65291236181101
 30
0.0
 11
6.7402798370266073
 21
10.65291236181101
 31
0.0
  0
LINE
  5
A9F9
  8
0
 10
7.2187428013472221
 20
3.152912361841048
 30
0.0
 11
6.7402798370266028
 21
3.152912361841048
 31
0.0
  0
LINE
  5
A9FA
  8
0
 10
6.8027798370266073
 20
10.40291236181101
 30
0.0
 11
6.8027798370266028
 21
3.402912361841048
 31
0.0
  0
SOLID
  5
A9FB
  8
0
 10
6.7611131703599403
 20
10.40291236181101
 30
0.0
 11
6.8444465036932716
 21
10.40291236181101
 31
0.0
 12
6.8027798370266073
 22
10.65291236181101
 32
0.0
 13
6.8027798370266073
 23
10.65291236181101
 33
0.0
  0
SOLID
  5
A9FC
  8
0
 10
6.7611131703599359
 20
3.402912361841048
 30
0.0
 11
6.8444465036932707
 21
3.402912361841048
 31
0.0
 12
6.8027798370266028
 22
3.152912361841048
 32
0.0
 13
6.8027798370266028
 23
3.152912361841048
 33
0.0
  0
LINE
  5
A9FD
  8
0
 10
7.4687428013472221
 20
10.90291236181103
 30
0.0
 11
7.4687428013472221
 21
11.27881180981198
 31
0.0
  0
LINE
  5
A9FE
  8
0
 10
9.2187428013403068
 20
10.796590344776281
 30
0.0
 11
9.2187428013403068
 21
11.27881180981198
 31
0.0
  0
LINE
  5
A9FF
  8
0
 10
7.7187428013472221
 20
11.21631180981198
 30
0.0
 11
8.9687428013403068
 21
11.21631180981198
 31
0.0
  0
SOLID
  5
AA00
  8
0
 10
7.7187428013472221
 20
11.257978476478661
 30
0.0
 11
7.7187428013472221
 21
11.17464514314532
 31
0.0
 12
7.4687428013472221
 22
11.21631180981198
 32
0.0
 13
7.4687428013472221
 23
11.21631180981198
 33
0.0
  0
SOLID
  5
AA01
  8
0
 10
8.9687428013403068
 20
11.257978476478661
 30
0.0
 11
8.9687428013403068
 21
11.17464514314532
 31
0.0
 12
9.2187428013403068
 22
11.21631180981198
 32
0.0
 13
9.2187428013403068
 23
11.21631180981198
 33
0.0
  0
TEXT
  5
AA02
  8
0
 10
6.5706369798837452
 20
6.2779123618260408
 30
0.0
 40
0.25
  1
7 1/2"
 50
90.0
  0
TEXT
  5
AA03
  8
0
 10
7.7187428013437627
 20
11.448454666954831
 30
0.0
 40
0.25
  1
1 3/4"
  0
ENDSEC
  0
EOF
