  0
SECTION
  2
HEADER
  9
$ACADVER
  1
AC1009
  9
$INSBASE
 10
0.0
 20
0.0
 30
0.0
  9
$EXTMIN
 10
-0.0004881797322689
 20
-0.000350879968412
 30
-0.0000000000000057
  9
$EXTMAX
 10
20.000274631662791
 20
14.00045774690847
 30
0.0000000000000104
  9
$LIMMIN
 10
0.0
 20
0.0
  9
$LIMMAX
 10
10.0
 20
7.0
  9
$ORTHOMODE
 70
     1
  9
$REGENMODE
 70
     1
  9
$FILLMODE
 70
     1
  9
$QTEXTMODE
 70
     0
  9
$MIRRTEXT
 70
     1
  9
$DRAGMODE
 70
     2
  9
$LTSCALE
 40
1.0
  9
$OSMODE
 70
    37
  9
$ATTMODE
 70
     1
  9
$TEXTSIZE
 40
0.0021111515439181
  9
$TRACEWID
 40
0.05
  9
$TEXTSTYLE
  7
STANDARD
  9
$CLAYER
  8
0
  9
$CELTYPE
  6
BYLAYER
  9
$CECOLOR
 62
   256
  9
$DIMSCALE
 40
2.0
  9
$DIMASZ
 40
0.125
  9
$DIMEXO
 40
0.125
  9
$DIMDLI
 40
0.125
  9
$DIMRND
 40
0.0
  9
$DIMDLE
 40
0.0
  9
$DIMEXE
 40
0.03125
  9
$DIMTP
 40
0.1
  9
$DIMTM
 40
0.0
  9
$DIMTXT
 40
0.125
  9
$DIMCEN
 40
0.0
  9
$DIMTSZ
 40
0.0
  9
$DIMTOL
 70
     0
  9
$DIMLIM
 70
     0
  9
$DIMTIH
 70
     0
  9
$DIMTOH
 70
     0
  9
$DIMSE1
 70
     0
  9
$DIMSE2
 70
     0
  9
$DIMTAD
 70
     1
  9
$DIMZIN
 70
     8
  9
$DIMBLK
  1

  9
$DIMASO
 70
     1
  9
$DIMSHO
 70
     1
  9
$DIMPOST
  1

  9
$DIMAPOST
  1
"
  9
$DIMALT
 70
     0
  9
$DIMALTD
 70
     2
  9
$DIMALTF
 40
0.0394
  9
$DIMLFAC
 40
1.0
  9
$DIMTOFL
 70
     0
  9
$DIMTVP
 40
0.0
  9
$DIMTIX
 70
     0
  9
$DIMSOXD
 70
     0
  9
$DIMSAH
 70
     0
  9
$DIMBLK1
  1

  9
$DIMBLK2
  1

  9
$DIMSTYLE
  2
STANDARD
  9
$DIMCLRD
 70
   256
  9
$DIMCLRE
 70
   256
  9
$DIMCLRT
 70
   256
  9
$DIMTFAC
 40
1.0
  9
$DIMGAP
 40
0.0625
  9
$LUNITS
 70
     2
  9
$LUPREC
 70
     8
  9
$SKETCHINC
 40
0.1
  9
$FILLETRAD
 40
3.174999999999998
  9
$AUNITS
 70
     0
  9
$AUPREC
 70
     7
  9
$MENU
  1
.
  9
$ELEVATION
 40
0.0
  9
$PELEVATION
 40
0.0
  9
$THICKNESS
 40
0.0
  9
$LIMCHECK
 70
     0
  9
$BLIPMODE
 70
     0
  9
$CHAMFERA
 40
0.0
  9
$CHAMFERB
 40
0.0
  9
$SKPOLY
 70
     0
  9
$TDCREATE
 40
2451702.3929123841
  9
$TDUPDATE
 40
2452499.4945061342
  9
$TDINDWG
 40
3.2801614004999999
  9
$TDUSRTIMER
 40
3.2801612268999998
  9
$USRTIMER
 70
     1
  9
$ANGBASE
 50
0.0
  9
$ANGDIR
 70
     0
  9
$PDMODE
 70
     0
  9
$PDSIZE
 40
0.0
  9
$PLINEWID
 40
0.0
  9
$COORDS
 70
     2
  9
$SPLFRAME
 70
     0
  9
$SPLINETYPE
 70
     6
  9
$SPLINESEGS
 70
     8
  9
$ATTDIA
 70
     0
  9
$ATTREQ
 70
     1
  9
$HANDLING
 70
 22529
  9
$HANDSEED
  5
991C
  9
$SURFTAB1
 70
     6
  9
$SURFTAB2
 70
     6
  9
$SURFTYPE
 70
     6
  9
$SURFU
 70
     6
  9
$SURFV
 70
     6
  9
$UCSNAME
  2

  9
$UCSORG
 10
0.0
 20
0.0
 30
0.0
  9
$UCSXDIR
 10
1.0
 20
0.0
 30
0.0
  9
$UCSYDIR
 10
0.0
 20
1.0
 30
0.0
  9
$PUCSNAME
  2

  9
$PUCSORG
 10
0.0
 20
0.0
 30
0.0
  9
$PUCSXDIR
 10
1.0
 20
0.0
 30
0.0
  9
$PUCSYDIR
 10
0.0
 20
1.0
 30
0.0
  9
$USERI1
 70
     0
  9
$USERI2
 70
     0
  9
$USERI3
 70
     0
  9
$USERI4
 70
     0
  9
$USERI5
 70
     0
  9
$USERR1
 40
0.0
  9
$USERR2
 40
0.0
  9
$USERR3
 40
0.0
  9
$USERR4
 40
0.0
  9
$USERR5
 40
0.0
  9
$WORLDVIEW
 70
     1
  9
$SHADEDGE
 70
     3
  9
$SHADEDIF
 70
    70
  9
$TILEMODE
 70
     1
  9
$MAXACTVP
 70
    48
  9
$PLIMCHECK
 70
     0
  9
$PEXTMIN
 10
0.0
 20
0.0
 30
0.0
  9
$PEXTMAX
 10
0.0
 20
0.0
 30
0.0
  9
$PLIMMIN
 10
0.0
 20
0.0
  9
$PLIMMAX
 10
12.0
 20
9.0
  9
$UNITMODE
 70
     0
  9
$VISRETAIN
 70
     1
  9
$PLINEGEN
 70
     0
  9
$PSLTSCALE
 70
     1
  0
ENDSEC
  0
SECTION
  2
TABLES
  0
TABLE
  2
VPORT
 70
     4
  0
VPORT
  2
*ACTIVE
 70
     0
 10
0.0
 20
0.0
 11
1.0
 21
1.0
 12
9.9998932259652609
 22
7.0000534334700317
 13
0.0
 23
0.0
 14
1.0
 24
1.0
 15
0.0
 25
0.0
 16
0.0
 26
0.0
 36
1.0
 17
0.0
 27
0.0
 37
0.0
 40
14.162356418725469
 41
1.4701348747591521
 42
50.0
 43
0.0
 44
0.0
 50
0.0
 51
0.0
 71
     0
 72
 20000
 73
     1
 74
     0
 75
     0
 76
     0
 77
     0
 78
     0
  0
ENDTAB
  0
TABLE
  2
LTYPE
 70
     1
  0
LTYPE
  2
CONTINUOUS
 70
     0
  3
Solid line
 72
    65
 73
     0
 40
0.0
  0
ENDTAB
  0
TABLE
  2
LAYER
 70
     2
  0
LAYER
  2
0
 70
     0
 62
     7
  6
CONTINUOUS
  0
LAYER
  2
DEFPOINTS
 70
     0
 62
     7
  6
CONTINUOUS
  0
ENDTAB
  0
TABLE
  2
STYLE
 70
     2
  0
STYLE
  2
STANDARD
 70
     0
 40
0.0
 41
1.0
 50
0.0
 71
     0
 42
0.0021111515439181
  3
simplex.shx
  4

  0
STYLE
  2
COSTAND
 70
     0
 40
0.0
 41
1.0
 50
0.0
 71
     0
 42
3.0
  3
R:\WIP\SD\FONTS\Simplex.shx
  4

  0
ENDTAB
  0
TABLE
  2
VIEW
 70
     0
  0
ENDTAB
  0
TABLE
  2
UCS
 70
     0
  0
ENDTAB
  0
TABLE
  2
APPID
 70
     1
  0
APPID
  2
ACAD
 70
     0
  0
ENDTAB
  0
TABLE
  2
DIMSTYLE
 70
     3
  0
DIMSTYLE
  2
STANDARD
 70
     0
  3

  4
"
  5

  6

  7

 40
2.0
 41
0.125
 42
0.125
 43
0.125
 44
0.03125
 45
0.0
 46
0.0
 47
0.1
 48
0.0
140
0.125
141
0.0
142
0.0
143
0.0394
144
1.0
145
0.0
146
1.0
147
0.0625
 71
     0
 72
     0
 73
     0
 74
     0
 75
     0
 76
     0
 77
     1
 78
     8
170
     0
171
     2
172
     0
173
     0
174
     0
175
     0
176
   256
177
   256
178
   256
  0
ENDTAB
  0
ENDSEC
  0
SECTION
  2
BLOCKS
  0
BLOCK
  8
0
  2
$MODEL_SPACE
 70
     0
 10
0.0
 20
0.0
 30
0.0
  3
$MODEL_SPACE
  1

  0
ENDBLK
  5
8FFC
  8
0
  0
BLOCK
 67
     1
  8
0
  2
$PAPER_SPACE
 70
     0
 10
0.0
 20
0.0
 30
0.0
  3
$PAPER_SPACE
  1

  0
ENDBLK
  5
8FF8
 67
     1
  8
0
  0
ENDSEC
  0
SECTION
  2
ENTITIES
  0
TEXT
  5
9017
  8
0
 10
1172.507321116894
 20
-374.4400440153197
 30
599.8012402584792
 40
3.0
  1
 
  7
COSTAND
210
0.577350269189626
220
-0.577350269189626
230
0.577350269189626
  0
TEXT
  5
9018
  8
0
 10
772.73448984001482
 20
-161.4431119421578
 30
-439.3012875610508
 40
3.0
  1
 
  7
COSTAND
210
-0.0000000000000004
220
-1.0
230
0.0000000000000002
  0
TEXT
  5
9019
  8
0
 10
494.82450660688812
 20
-52.690634976270552
 30
719.03518200794144
 40
3.0
  1
 
  7
COSTAND
210
1.0
220
-0.0000000000000007
230
0.0
  0
LINE
  5
901A
  8
0
 10
0.0
 20
14.0
 30
0.0
 11
0.0
 21
0.0
 31
0.0
  0
LINE
  5
901B
  8
0
 10
0.0
 20
0.0
 30
0.0
 11
20.0
 21
0.0
 31
0.0
  0
LINE
  5
901C
  8
0
 10
20.0
 20
0.0
 30
0.0
 11
20.0
 21
14.0
 31
0.0
  0
LINE
  5
901D
  8
0
 10
20.0
 20
14.0
 30
0.0
 11
0.0
 21
14.0
 31
0.0
  0
TEXT
  5
901E
  8
0
 10
17.658520526684391
 20
7.7688156906813202
 30
0.0
 40
0.125
  1
3006
 72
     4
 11
17.875782431446289
 21
7.8313156906813202
 31
0.0
  0
TEXT
  5
901F
  8
0
 10
20.733378968077311
 20
582.74109584933205
 30
0.0
 40
0.125
  1

  0
TEXT
  5
9020
  8
0
 10
20.733378968077311
 20
582.5268101350465
 30
0.0
 40
0.125
  1

  0
TEXT
  5
9021
  8
0
 10
20.733378968077311
 20
582.31252442076072
 30
0.0
 40
0.125
  1

  0
TEXT
  5
9022
  8
0
 10
20.733378968077311
 20
582.09823870647506
 30
0.0
 40
0.125
  1

  0
TEXT
  5
9023
  8
0
 10
18.888075216799951
 20
13.634410483437019
 30
0.0
 40
0.25
  1
11140
 72
     2
 11
19.864265692990418
 21
13.634410483437019
 31
0.0
  0
TEXT
  5
9024
  8
0
 10
15.733313312038041
 20
13.134410483437019
 30
0.0
 40
0.25
  1
SHELL & BELLFLOWER
 72
     2
 11
19.864265692990418
 21
13.134410483437019
 31
0.0
  0
TEXT
  5
9025
  8
0
 10
18.554741883466608
 20
12.634410483437019
 30
0.0
 40
0.25
  1
020812
 72
     2
 11
19.864265692990418
 21
12.634410483437019
 31
0.0
  0
LINE
  5
9026
  8
0
 10
20.0
 20
13.5
 30
0.0
 11
15.583072863736881
 21
13.499999999999771
 31
0.0
  0
LINE
  5
9027
  8
0
 10
20.0
 20
13.0
 30
0.0
 11
15.583072863736881
 21
12.999999999999771
 31
0.0
  0
LINE
  5
9028
  8
0
 10
20.0
 20
12.5
 30
0.0
 11
15.583072863736881
 21
12.499999999999771
 31
0.0
  0
TEXT
  5
9029
  8
0
 10
15.834057634066641
 20
8.3880105899688662
 30
0.0
 40
0.125
  1
A R C H I T E C T U R A L  P R O D U C T S
 41
0.85
 72
     1
 11
17.885694538828542
 21
8.4505105899688662
 31
0.0
 73
     2
  0
TEXT
  5
902A
  8
0
 10
19.803494300356672
 20
8.6812642898796035
 30
0.0
 40
0.031251
  1
R
 72
     1
 11
19.813911300356668
 21
8.696889789879604
 31
0.0
 73
     2
  0
CIRCLE
  5
902B
  8
0
 10
19.813911300356668
 20
8.696889789879604
 30
0.0
 40
0.03125
  0
TEXT
  5
902C
  8
0
 10
21.664405340269479
 20
582.88423560730655
 30
0.0
 40
0.0625
  1

 72
     1
 11
21.664405340269479
 21
582.91548560730655
 31
0.0
 73
     2
  0
LINE
  5
902D
  8
0
 10
15.583072863736881
 20
12.499999999999771
 30
0.0
 11
15.583072863736881
 21
14.0
 31
0.0
  0
TEXT
  5
902E
  8
0
 10
20.733378968077311
 20
582.99109584933205
 30
0.0
 40
0.125
  1

  0
LINE
  5
902F
  8
0
 10
0.0
 20
0.5
 30
0.0
 11
20.0
 21
0.5
 31
0.0
  0
TEXT
  5
9030
  8
0
 10
2.1349349855820181
 20
0.1180168039913952
 30
0.0
 40
0.25
  1
PRINT BORDER SIZE 7" x 10"  TO ACHIEVE PROPER SCALE
 72
     1
 11
7.8730302236772562
 21
0.1180168039913952
 31
0.0
  0
TEXT
  5
9031
  8
0
 10
12.83537682998336
 20
580.62451063991034
 30
0.0
 40
0.125
  1

  0
TEXT
  5
9032
  8
0
 10
20.733378968077311
 20
583.24109584933205
 30
0.0
 40
0.125
  1

  0
TEXT
  5
9033
  8
0
 10
0.102583632072637
 20
13.58897699062913
 30
0.0
 40
0.125
  1
belonging to Nomaco/Focal Point and may not be reproduced nor
  0
TEXT
  5
9034
  8
0
 10
0.102583632072637
 20
13.407792607428959
 30
0.0
 40
0.125
  1
made accessible to third parties without our prior written consent.
  0
TEXT
  5
9035
  8
0
 10
0.102583632072637
 20
13.770161373829289
 30
0.0
 40
0.125
  1
This document contains confidential and proprietary information
  0
LINE
  5
9036
  8
0
 10
0.0
 20
1.0
 30
0.0
 11
18.480090747970049
 21
1.0
 31
0.0
  0
TEXT
  5
9037
  8
0
 10
3.1537193934426941
 20
0.6180168039913953
 30
0.0
 40
0.25
  1
ENGINEERING DRAWING AND DIGITAL DATA IN FRACTIONAL (U.S.) UNITS
 72
     1
 11
10.00490986963316
 21
0.6180168039913953
 31
0.0
  0
LINE
  5
9038
  8
0
 10
15.75
 20
1.0625
 30
0.0
 11
15.75
 21
4.0625
 31
0.0
  0
LINE
  5
9039
  8
0
 10
15.75
 20
1.5625
 30
0.0
 11
20.0
 21
1.5625
 31
0.0
  0
LINE
  5
903A
  8
0
 10
15.75
 20
2.0625
 30
0.0
 11
20.0
 21
2.0625
 31
0.0
  0
LINE
  5
903B
  8
0
 10
15.75
 20
2.5625
 30
0.0
 11
20.0
 21
2.5625
 31
0.0
  0
TEXT
  5
903C
  8
0
 10
15.838530260272
 20
1.1805168039913949
 30
0.0
 40
0.25
  1
BLADE ANGLE
  0
TEXT
  5
903D
  8
0
 10
15.838530260272
 20
1.680516803991394
 30
0.0
 40
0.25
  1
TABLE ANGLE
  0
TEXT
  5
903E
  8
0
 10
16.256798589988861
 20
2.180516803991392
 30
0.0
 40
0.25
  1
MITER SAW DATA
 72
     1
 11
17.869893828084098
 21
2.180516803991392
 31
0.0
  0
TEXT
  5
903F
  8
0
 10
15.838530260272
 20
2.680516803991392
 30
0.0
 40
0.25
  1
REPEAT:  2 1/2"
  0
LINE
  5
9040
  8
0
 10
15.75
 20
3.0625
 30
0.0
 11
20.0
 21
3.0625
 31
0.0
  0
LINE
  5
9041
  8
0
 10
15.75
 20
3.5625
 30
0.0
 11
20.0
 21
3.5625
 31
0.0
  0
TEXT
  5
9042
  8
0
 10
15.838530260272
 20
3.180516803991392
 30
0.0
 40
0.25
  1
LENGTH:  12'
  0
TEXT
  5
9043
  8
0
 10
16.429417637607909
 20
3.680516803991392
 30
0.0
 40
0.25
  1
PRODUCT DATA
 72
     1
 11
17.869893828084098
 21
3.680516803991392
 31
0.0
  0
LINE
  5
9044
  8
0
 10
15.75
 20
4.0625
 30
0.0
 11
20.0
 21
4.0625
 31
0.0
  0
LINE
  5
9045
  8
0
 10
15.75
 20
4.0
 30
0.0
 11
20.0
 21
4.0
 31
0.0
  0
LINE
  5
9046
  8
0
 10
15.75
 20
3.625
 30
0.0
 11
20.0
 21
3.625
 31
0.0
  0
LINE
  5
9047
  8
0
 10
15.75
 20
2.5
 30
0.0
 11
20.0
 21
2.5
 31
0.0
  0
LINE
  5
9048
  8
0
 10
15.75
 20
2.125
 30
0.0
 11
20.0
 21
2.125
 31
0.0
  0
TEXT
  5
9049
  8
0
 10
18.801281823361101
 20
1.1805168039913949
 30
0.0
 40
0.25
  1
33.9%%D
 72
     1
 11
19.241758013837291
 21
1.1805168039913949
 31
0.0
  0
TEXT
  5
904A
  8
0
 10
18.82509134717062
 20
1.680516803991394
 30
0.0
 40
0.25
  1
31.6%%d
 72
     1
 11
19.241758013837291
 21
1.680516803991394
 31
0.0
  0
LINE
  5
904B
  8
0
 10
18.480090747970049
 20
1.062499999999772
 30
0.0
 11
18.480090747970049
 21
2.0625
 31
0.0
  0
LINE
  5
904C
  8
0
 10
18.480090747970049
 20
1.0
 30
0.0
 11
20.0
 21
1.0
 31
0.0
  0
LINE
  5
904D
  8
0
 10
15.75
 20
0.4999999999997727
 30
0.0
 11
15.75
 21
-0.0000000000002274
 31
0.0
  0
LINE
  5
904E
  8
0
 10
18.480090747970049
 20
0.5
 30
0.0
 11
18.480090747970049
 21
-0.0000000000002274
 31
0.0
  0
TEXT
  5
904F
  8
0
 10
15.838530260272
 20
0.1180168039913952
 30
0.0
 40
0.25
  1
SCALE
  0
TEXT
  5
9050
  8
0
 10
18.933039732824291
 20
0.1180168039913952
 30
0.0
 40
0.25
  1
1/2
 72
     1
 11
19.242563542348108
 21
0.1180168039913952
 31
0.0
  0
ARC
  5
9051
  8
0
 10
-18.308117821166171
 20
9.0820169566636562
 30
0.0
 40
0.45789943381389
210
0.0
220
0.0
230
-1.0
 50
150.0285049999984
 51
161.08358500000091
  0
ARC
  5
9052
  8
0
 10
-18.250975362531019
 20
9.0346466444184408
 30
0.0
 40
0.5164129621391583
210
0.0
220
0.0
230
-1.0
 50
184.7396419999973
 51
206.15299100000109
  0
ARC
  5
9053
  8
0
 10
-17.970993325586772
 20
10.573062522114689
 30
0.0
 40
0.2593024635288828
210
0.0
220
0.0
230
-1.0
 50
15.95685699999988
 51
35.77585599999761
  0
ARC
  5
9054
  8
0
 10
-17.815372549293599
 20
10.635831897333439
 30
0.0
 40
0.0431566745030726
210
0.0
220
0.0
230
-1.0
 50
111.5014340000002
 51
139.5739210000001
  0
ARC
  5
9055
  8
0
 10
17.743254574690631
 20
10.605385999479941
 30
0.0
 40
0.229441671848837
 50
12.25384300000144
 51
41.937262000001851
  0
ARC
  5
9056
  8
0
 10
17.386412138005159
 20
10.799985351141
 30
0.0
 40
0.3165043166631968
 50
321.09161298227582
 51
342.10924395059959
  0
LINE
  5
9057
  8
0
 10
15.92104764797082
 20
9.4713832828033446
 30
0.0
 11
16.149799418510622
 21
9.4713832828033446
 31
0.0
  0
LINE
  5
9058
  8
0
 10
15.98675274247328
 20
9.4446139476221944
 30
0.0
 11
16.123031538817319
 21
9.4446139476221944
 31
0.0
  0
LINE
  5
9059
  8
0
 10
15.98675274247328
 20
9.0406461659290382
 30
0.0
 11
16.109472212667431
 21
9.0406461659290382
 31
0.0
  0
LINE
  5
905A
  8
0
 10
15.98675274247328
 20
9.069849077035764
 30
0.0
 11
16.101129355487181
 21
9.069849077035764
 31
0.0
  0
LINE
  5
905B
  8
0
 10
15.98675274247328
 20
9.4446139476221944
 30
0.0
 11
15.98675274247328
 21
9.069849077035764
 31
0.0
  0
LINE
  5
905C
  8
0
 10
15.935649103524259
 20
9.430012492068494
 30
0.0
 11
15.935649103524259
 21
8.709685662002812
 31
0.0
  0
LINE
  5
905D
  8
0
 10
15.98675274247328
 20
9.0406461659290382
 30
0.0
 11
15.98675274247328
 21
8.7124234349193923
 31
0.0
  0
ARC
  5
905E
  8
0
 10
16.064017322622199
 20
8.7124234349193923
 30
0.0
 40
0.0772936899087948
 50
180.0
 51
214.79552800000249
  0
ARC
  5
905F
  8
0
 10
15.84056643935569
 20
8.7180285191832301
 30
0.0
 40
0.0954465361670094
 50
328.61068700000237
 51
354.98506300000213
  0
LINE
  5
9060
  8
0
 10
16.000544946702171
 20
8.6683148712684162
 30
0.0
 11
15.92204465724655
 21
8.6683148712684162
 31
0.0
  0
ARC
  5
9061
  8
0
 10
-15.72666868189175
 20
9.37951724710069
 30
0.0
 40
0.2149944980227434
210
0.0
220
0.0
230
-1.0
 50
154.7039520000001
 51
166.4159789999984
  0
ARC
  5
9062
  8
0
 10
17.33926947961379
 20
10.39261136002732
 30
0.0
 40
0.0386595967369562
 50
303.58637854013671
 51
343.84355974110872
  0
ARC
  5
9063
  8
0
 10
17.36287470264752
 20
10.403154044941621
 30
0.0
 40
0.05818676756424
 50
251.50885560391629
 51
313.31489517703852
  0
ARC
  5
9064
  8
0
 10
17.359084340688799
 20
9.7220372366730263
 30
0.0
 40
0.2975294001970794
 50
74.827085000000451
 51
93.780599201570212
  0
ARC
  5
9065
  8
0
 10
-17.42722301111683
 20
9.9434897349242402
 30
0.0
 40
0.0881807401021434
210
0.0
220
0.0
230
-1.0
 50
297.97947399999953
 51
324.74037614796919
  0
ARC
  5
9066
  8
0
 10
-17.380985068530968
 20
9.8345886677429881
 30
0.0
 40
0.129494766805112
210
0.0
220
0.0
230
-1.0
 50
72.501451999999674
 51
97.559066999999729
  0
ARC
  5
9067
  8
0
 10
17.244170652605209
 20
10.429932743783629
 30
0.0
 40
0.6904776822892869
 50
276.53313499999939
 51
284.3418149999996
  0
ARC
  5
9068
  8
0
 10
17.966657426853342
 20
10.88689193235359
 30
0.0
 40
0.8769941022260598
 50
222.97599100000181
 51
234.03107199999849
  0
ARC
  5
9069
  8
0
 10
17.319402888941472
 20
10.38865374785609
 30
0.0
 40
0.0898708313849426
 50
270.47448234597562
 51
334.2733758010491
  0
LINE
  5
906A
  8
0
 10
17.397280712109129
 20
8.9773746473520024
 30
0.0
 11
17.326835093210988
 21
9.263557063149614
 31
0.0
  0
LINE
  5
906B
  8
0
 10
17.254034494738939
 20
8.9773746473520024
 30
0.0
 11
17.397280712109129
 21
8.9773746473520024
 31
0.0
  0
LINE
  5
906C
  8
0
 10
17.247225721904119
 20
8.9506053121706337
 30
0.0
 11
17.403869706256899
 21
8.9506053121706337
 31
0.0
  0
LINE
  5
906D
  8
0
 10
17.33479515704888
 20
9.4567818272496424
 30
0.0
 11
17.522177592341951
 21
8.7048185101521032
 31
0.0
  0
ARC
  5
906E
  8
0
 10
-16.07431344469008
 20
9.0558560154636325
 30
0.0
 40
0.6036287137014368
210
0.0
220
0.0
230
-1.0
 50
171.01236299999761
 51
178.90273499999901
  0
ARC
  5
906F
  8
0
 10
-15.93742770985264
 20
9.056464409445196
 30
0.0
 40
0.687341105662727
210
0.0
220
0.0
230
-1.0
 50
170.11247000000279
 51
182.13048099999759
  0
ARC
  5
9070
  8
0
 10
-16.751243444733419
 20
9.0824230378141237
 30
0.0
 40
0.5174128823908736
210
0.0
220
0.0
230
-1.0
 50
3.7304230000010872
 51
18.889442000000461
  0
ARC
  5
9071
  8
0
 10
-16.667945866850349
 20
9.075324622868262
 30
0.0
 40
0.4872770034800065
210
0.0
220
0.0
230
-1.0
 50
6.5238629999969824
 51
20.99770699999857
  0
ARC
  5
9072
  8
0
 10
-16.438744350520491
 20
8.8561266755195902
 30
0.0
 40
0.201708803615673
210
0.0
220
0.0
230
-1.0
 50
281.66125999999957
 51
328.60712600000028
  0
ARC
  5
9073
  8
0
 10
-16.43235621371586
 20
8.8285146127898262
 30
0.0
 40
0.1437934808558416
210
0.0
220
0.0
230
-1.0
 50
281.84460100000052
 51
326.2472740000004
  0
ARC
  5
9074
  8
0
 10
-16.590700208045352
 20
8.9897011751713762
 30
0.0
 40
0.4025122936992254
210
0.0
220
0.0
230
-1.0
 50
323.63766500000168
 51
347.05053800000201
  0
ARC
  5
9075
  8
0
 10
-16.64183004577826
 20
8.9791634420964765
 30
0.0
 40
0.4017583509184561
210
0.0
220
0.0
230
-1.0
 50
324.9820570000021
 51
349.27061299999809
  0
LINE
  5
9076
  8
0
 10
16.132765842519611
 20
9.0941848362915607
 30
0.0
 11
16.132765842519611
 21
9.0195052028195661
 31
0.0
  0
ARC
  5
9077
  8
0
 10
-16.109472212667431
 20
9.0172448299651862
 30
0.0
 40
0.0234013359637248
210
0.0
220
0.0
230
-1.0
 50
90.0
 51
174.45879500000001
  0
ARC
  5
9078
  8
0
 10
-16.101129355487181
 20
9.1027023520309722
 30
0.0
 40
0.0327630347396096
210
0.0
220
0.0
230
-1.0
 50
195.06848800000279
 51
270.0
  0
ARC
  5
9079
  8
0
 10
-16.827495005238681
 20
9.0540308335196151
 30
0.0
 40
0.648219043878366
210
0.0
220
0.0
230
-1.0
 50
355.37033100000082
 51
6.7915170000004892
  0
LINE
  5
907A
  8
0
 10
16.244662303992129
 20
8.9165367047007695
 30
0.0
 11
16.245390047989009
 21
8.9124642492943167
 31
0.0
  0
LINE
  5
907B
  8
0
 10
16.245390047989009
 20
8.9124642492943167
 30
0.0
 11
16.246325926769
 21
8.9084325475514561
 31
0.0
  0
LINE
  5
907C
  8
0
 10
16.246325926769
 20
8.9084325475514561
 30
0.0
 11
16.247095879917708
 21
8.9043688250728739
 31
0.0
  0
ARC
  5
907D
  8
0
 10
-17.013052258587571
 20
9.0540308335196151
 30
0.0
 40
0.7805942214231352
210
0.0
220
0.0
230
-1.0
 50
349.85491799999681
 51
4.559676999999855
  0
ARC
  5
907E
  8
0
 10
-16.845502302697511
 20
9.0598717068382904
 30
0.0
 40
0.6666542548073707
210
0.0
220
0.0
230
-1.0
 50
346.0804279999968
 51
354.99492799999939
  0
ARC
  5
907F
  8
0
 10
-16.158495959273349
 20
8.9971139755234617
 30
0.0
 40
0.4607303579617594
210
0.0
220
0.0
230
-1.0
 50
190.07226000000131
 51
209.11230400000079
  0
ARC
  5
9080
  8
0
 10
-16.160750510175689
 20
9.0346466444184408
 30
0.0
 40
0.5164129621391583
210
0.0
220
0.0
230
-1.0
 50
184.7396419999973
 51
206.15299100000109
  0
ARC
  5
9081
  8
0
 10
-16.41135934391783
 20
8.8471797908216541
 30
0.0
 40
0.1670565454601588
210
0.0
220
0.0
230
-1.0
 50
206.37842099999841
 51
243.62157900000099
  0
ARC
  5
9082
  8
0
 10
-16.427426475880988
 20
8.8352302343930642
 30
0.0
 40
0.1798590178533
210
0.0
220
0.0
230
-1.0
 50
226.4760059999989
 51
259.16177100000021
  0
ARC
  5
9083
  8
0
 10
-16.42961116335962
 20
8.8435294269334008
 30
0.0
 40
0.1876356902039766
210
0.0
220
0.0
230
-1.0
 50
260.29334799999953
 51
279.70665200000002
  0
ARC
  5
9084
  8
0
 10
-16.42961116335962
 20
8.8167615472402741
 30
0.0
 40
0.1317260298995508
210
0.0
220
0.0
230
-1.0
 50
244.85521399999951
 51
281.72511200000019
  0
ARC
  5
9085
  8
0
 10
-16.310975792475968
 20
8.9536472820775543
 30
0.0
 40
0.3459272869656934
210
0.0
220
0.0
230
-1.0
 50
205.07776900000059
 51
225.9975869999983
  0
ARC
  5
9086
  8
0
 10
-16.035377685368928
 20
9.0503804696313601
 30
0.0
 40
0.6426794565741034
210
0.0
220
0.0
230
-1.0
 50
178.48115000000081
 51
185.21407099999681
  0
ARC
  5
9087
  8
0
 10
-15.9186519147331
 20
9.0481448400726041
 30
0.0
 40
0.7058520019674077
210
0.0
220
0.0
230
-1.0
 50
181.39897300000311
 51
190.7459399999986
  0
ARC
  5
9088
  8
0
 10
-16.514905670770119
 20
9.1813045256460502
 30
0.0
 40
0.2623444334358478
210
0.0
220
0.0
230
-1.0
 50
15.164220999999531
 51
52.215913999998691
  0
ARC
  5
9089
  8
0
 10
-16.457840352998659
 20
9.2119672912108381
 30
0.0
 40
0.233738272406426
210
0.0
220
0.0
230
-1.0
 50
36.106316999998938
 51
68.885398000000023
  0
ARC
  5
908A
  8
0
 10
-16.590224263471381
 20
9.1039191399936481
 30
0.0
 40
0.4044728360268242
210
0.0
220
0.0
230
-1.0
 50
21.161260000002549
 51
37.421465000000516
  0
ARC
  5
908B
  8
0
 10
-16.113701860777301
 20
9.4085163898887441
 30
0.0
 40
0.0372837804482382
210
0.0
220
0.0
230
-1.0
 50
104.4897629999991
 51
165.5102369999986
  0
LINE
  5
908C
  8
0
 10
16.149799418510622
 20
9.4713832828033446
 30
0.0
 11
16.149799418510622
 21
9.4178446124405983
 31
0.0
  0
ARC
  5
908D
  8
0
 10
-16.420281485319592
 20
9.2868390490980328
 30
0.0
 40
0.121386243191857
210
0.0
220
0.0
230
-1.0
 50
57.000210000000273
 51
78.239519999999928
  0
ARC
  5
908E
  8
0
 10
-16.42930696636893
 20
9.2736581498263604
 30
0.0
 40
0.135277420604333
210
0.0
220
0.0
230
-1.0
 50
96.325964000000056
 51
130.53142199999971
  0
ARC
  5
908F
  8
0
 10
-16.415837880474651
 20
9.2363656364502642
 30
0.0
 40
0.2036416916713906
210
0.0
220
0.0
230
-1.0
 50
102.88433400000039
 51
137.4627059999977
  0
ARC
  5
9090
  8
0
 10
-16.115857438496072
 20
9.0582022621094822
 30
0.0
 40
0.5622433680867739
210
0.0
220
0.0
230
-1.0
 50
162.1588269999971
 51
170.58718400000211
  0
ARC
  5
9091
  8
0
 10
-16.41135934391783
 20
9.2414132688124901
 30
0.0
 40
0.171603489952675
210
0.0
220
0.0
230
-1.0
 50
128.08877299999921
 51
156.1612599999996
  0
ARC
  5
9092
  8
0
 10
-16.359281983500981
 20
9.1647570826451101
 30
0.0
 40
0.2940857156038358
210
0.0
220
0.0
230
-1.0
 50
134.63121999999939
 51
150.23159600000031
  0
ARC
  5
9093
  8
0
 10
16.19916688665289
 20
9.1095383650497261
 30
0.0
 40
0.4204401313707506
 50
8.8870558864557356
 51
28.595275765016879
  0
ARC
  5
9094
  8
0
 10
-16.21789296881084
 20
9.0820169566636562
 30
0.0
 40
0.45789943381389
210
0.0
220
0.0
230
-1.0
 50
150.0285049999984
 51
161.08358500000091
  0
ARC
  5
9095
  8
0
 10
-16.427177587434041
 20
9.2608818762168941
 30
0.0
 40
0.1482108869169128
210
0.0
220
0.0
230
-1.0
 50
77.675272999999422
 51
96.599917000000019
  0
ARC
  5
9096
  8
0
 10
-16.426720564204
 20
9.2654448310777262
 30
0.0
 40
0.1729163401230494
210
0.0
220
0.0
230
-1.0
 50
72.122851000000537
 51
101.5174889999993
  0
LINE
  5
9097
  8
0
 10
17.254034494738939
 20
8.9773746473520024
 30
0.0
 11
17.326835093210988
 21
9.263557063149614
 31
0.0
  0
ARC
  5
9098
  8
0
 10
17.369953925026241
 20
9.046904764302095
 30
0.0
 40
0.6561558199083568
 50
171.1615180000004
 51
177.78340099999841
  0
ARC
  5
9099
  8
0
 10
-17.211394518473661
 20
9.0784772098627382
 30
0.0
 40
0.4427347044068715
210
0.0
220
0.0
230
-1.0
 50
4.873011999997221
 51
30.178125000000389
  0
LINE
  5
909A
  8
0
 10
17.313777910418938
 20
9.3166052340584358
 30
0.0
 11
17.15471199404455
 21
8.7048185101521032
 31
0.0
  0
ARC
  5
909B
  8
0
 10
16.737407575864701
 20
9.5894102597055682
 30
0.0
 40
0.9668923181608438
 50
285.69779299999902
 51
291.17210499999959
  0
ARC
  5
909C
  8
0
 10
-16.97501744633454
 20
8.8528212622859428
 30
0.0
 40
0.1689530463160322
210
0.0
220
0.0
230
-1.0
 50
212.0265570000021
 51
257.6405709999994
  0
ARC
  5
909D
  8
0
 10
17.17185764261108
 20
9.0063927114836062
 30
0.0
 40
0.4552911993290664
 50
186.11338500000039
 51
211.2023919999985
  0
ARC
  5
909E
  8
0
 10
-17.328289125716761
 20
9.0451392573656886
 30
0.0
 40
0.5609741825562125
210
0.0
220
0.0
230
-1.0
 50
342.88321399999802
 51
357.5519719999977
  0
ARC
  5
909F
  8
0
 10
-17.102216908573482
 20
8.9625053820077447
 30
0.0
 40
0.3208361294412096
210
0.0
220
0.0
230
-1.0
 50
312.70061699999781
 51
345.10475699999802
  0
ARC
  5
90A0
  8
0
 10
16.97702601976593
 20
8.872190896506936
 30
0.0
 40
0.2195559973951974
 50
207.5844410000017
 51
251.9428419999989
  0
ARC
  5
90A1
  8
0
 10
-16.984411165846279
 20
8.8258874569612544
 30
0.0
 40
0.140674370085207
210
0.0
220
0.0
230
-1.0
 50
259.03024199999919
 51
315.1752159999981
  0
ARC
  5
90A2
  8
0
 10
16.965009510889431
 20
8.8648348601861926
 30
0.0
 40
0.2090371856642708
 50
254.45024699999951
 51
279.36163699999992
  0
ARC
  5
90A3
  8
0
 10
17.431573464730189
 20
9.0455133177799762
 30
0.0
 40
0.7177855480282718
 50
177.86272700000001
 51
187.01057000000031
  0
ARC
  5
90A4
  8
0
 10
-17.433398646674359
 20
9.0515972575940342
 30
0.0
 40
0.6662670950010298
210
0.0
220
0.0
230
-1.0
 50
357.38318399999991
 51
5.5544169999980477
  0
LINE
  5
90A5
  8
0
 10
17.247225721904119
 20
8.9506053121706337
 30
0.0
 11
17.18579685112735
 21
8.709131121077462
 31
0.0
  0
ARC
  5
90A6
  8
0
 10
16.918790489647471
 20
8.7318978642756502
 30
0.0
 40
0.2019096609588124
 50
347.37974199999678
 51
8.9250369999969497
  0
ARC
  5
90A7
  8
0
 10
-17.10122135478575
 20
8.656146991640524
 30
0.0
 40
0.0348429270826972
210
0.0
220
0.0
230
-1.0
 50
65.224859000000265
 51
114.7751409999991
  0
LINE
  5
90A8
  8
0
 10
17.13524484212796
 20
8.6683148712684162
 30
0.0
 11
17.190046876069129
 21
8.6683148712684162
 31
0.0
  0
ARC
  5
90A9
  8
0
 10
17.24328862688099
 20
8.6945063777161522
 30
0.0
 40
0.0593358790417444
 50
165.7274869999988
 51
206.1942030000024
  0
ARC
  5
90AA
  8
0
 10
-17.038511654574471
 20
8.7433496438109142
 30
0.0
 40
0.1224225506434164
210
0.0
220
0.0
230
-1.0
 50
198.34490800000231
 51
217.8000650000015
  0
ARC
  5
90AB
  8
0
 10
-16.953991466776639
 20
9.1793585381983522
 30
0.0
 40
0.2641405056201516
210
0.0
220
0.0
230
-1.0
 50
104.676393
 51
118.9264259999986
  0
ARC
  5
90AC
  8
0
 10
-16.988061529734651
 20
9.2663574220498486
 30
0.0
 40
0.1429230990355712
210
0.0
220
0.0
230
-1.0
 50
67.473939000000655
 51
112.526060999999
  0
ARC
  5
90AD
  8
0
 10
-17.02180265240607
 20
9.1983293687092118
 30
0.0
 40
0.2187482015586588
210
0.0
220
0.0
230
-1.0
 50
28.00316899999774
 51
66.136893000001095
  0
ARC
  5
90AE
  8
0
 10
17.073028552346571
 20
9.1310319703416081
 30
0.0
 40
0.3447046770509322
 50
129.1425410000017
 51
158.0887550000011
  0
ARC
  5
90AF
  8
0
 10
17.223475068821891
 20
9.0663267960910563
 30
0.0
 40
0.5084427098853112
 50
157.65048299999771
 51
170.7880109999976
  0
ARC
  5
90B0
  8
0
 10
16.997501824862191
 20
9.1883796527838424
 30
0.0
 40
0.2535401865615744
 50
103.5326130000004
 51
124.07927400000059
  0
ARC
  5
90B1
  8
0
 10
16.979544013995149
 20
9.2061278733799501
 30
0.0
 40
0.2324632649238894
 50
79.748801000000199
 51
100.2511989999997
  0
ARC
  5
90B2
  8
0
 10
-16.973714784580132
 20
9.23357255499036
 30
0.0
 40
0.1787048158742456
210
0.0
220
0.0
230
-1.0
 50
112.747942000001
 51
148.22547099999781
  0
ARC
  5
90B3
  8
0
 10
-16.569492292488231
 20
9.3114993821766294
 30
0.0
 40
0.556379206959902
210
0.0
220
0.0
230
-1.0
 50
170.5088379999994
 51
178.3340760000018
  0
LINE
  5
90B4
  8
0
 10
17.298291518165311
 20
9.3618738216402964
 30
0.0
 11
17.33479515704888
 21
9.4567818272496424
 31
0.0
  0
ARC
  5
90B5
  8
0
 10
17.267177551322629
 20
9.3349312833879523
 30
0.0
 40
0.0411582894876358
 50
7.0349760000016648
 51
40.890001999998361
  0
LINE
  5
90B6
  8
0
 10
17.313777910418938
 20
9.3166052340584358
 30
0.0
 11
17.308025821867592
 21
9.3399716383105424
 31
0.0
  0
ARC
  5
90B7
  8
0
 10
17.11265857944074
 20
9.4701664948402104
 30
0.0
 40
0.067156216032234
 50
242.5992509999993
 51
274.78088400000001
  0
ARC
  5
90B8
  8
0
 10
-17.289493093242999
 20
9.9301982185654598
 30
0.0
 40
0.3129895936668322
210
0.0
220
0.0
230
-1.0
 50
44.07312200000132
 51
60.97451899999939
  0
ARC
  5
90B9
  8
0
 10
17.184649926588261
 20
9.980457674477746
 30
0.0
 40
0.2454083751404192
 50
88.477618000000007
 51
145.71348700000209
  0
ARC
  5
90BA
  8
0
 10
17.221748860061279
 20
10.13332612297472
 30
0.0
 40
0.2587013469874586
 50
210.53341399999721
 51
263.5655612222763
  0
ARC
  5
90BB
  8
0
 10
17.07800923226123
 20
10.089501379482719
 30
0.0
 40
0.1004621477935174
 50
163.10135100000139
 51
191.17383799999939
  0
ARC
  5
90BC
  8
0
 10
17.34691646106095
 20
10.138172897994069
 30
0.0
 40
0.3737285631345642
 50
190.5050639999981
 51
201.3857279999994
  0
ARC
  5
90BD
  8
0
 10
-17.361771171525291
 20
9.9310103808654642
 30
0.0
 40
0.0963998808029242
210
0.0
220
0.0
230
-1.0
 50
299.9342454438476
 51
346.42198815912582
  0
ARC
  5
90BE
  8
0
 10
17.189896105045399
 20
9.8280439938391702
 30
0.0
 40
0.0482952305506364
 50
20.527675597314641
 51
86.603739140537925
  0
ARC
  5
90BF
  8
0
 10
19.56280378033382
 20
10.65286692881249
 30
0.0
 40
2.4638937404821539
 50
199.14079692781311
 51
200.79779800000051
  0
ARC
  5
90C0
  8
0
 10
17.306913829040351
 20
9.7938262709897117
 30
0.0
 40
0.0500207558816598
 50
198.43494899999851
 51
265.81508399999967
  0
LINE
  5
90C1
  8
0
 10
17.322730617068579
 20
9.7439394200034641
 30
0.0
 11
17.316284260744212
 21
9.7432014875903388
 31
0.0
  0
LINE
  5
90C2
  8
0
 10
17.316284260744212
 20
9.7432014875903388
 30
0.0
 11
17.30973456477227
 21
9.7434663864055437
 31
0.0
  0
LINE
  5
90C3
  8
0
 10
17.30973456477227
 20
9.7434663864055437
 30
0.0
 11
17.303263465152
 21
9.7439394200034641
 31
0.0
  0
ARC
  5
90C4
  8
0
 10
-17.097477839665789
 20
10.08828459151959
 30
0.0
 40
0.3236190224852848
210
0.0
220
0.0
230
-1.0
 50
217.20895080399799
 51
228.0843192545702
  0
LINE
  5
90C5
  8
0
 10
17.201714067827151
 20
10.077413551694219
 30
0.0
 11
17.181434753610041
 21
10.07733495534284
 31
0.0
  0
LINE
  5
90C6
  8
0
 10
17.196920941422579
 20
9.9596857474589342
 30
0.0
 11
17.19911351066245
 21
9.958564930972436
 31
0.0
  0
LINE
  5
90C7
  8
0
 10
17.200052326476978
 20
9.9439816638073282
 30
0.0
 11
17.198868812429009
 21
9.9442779764312927
 31
0.0
  0
LINE
  5
90C8
  8
0
 10
17.17032792472963
 20
9.9690961351982423
 30
0.0
 11
17.170346820488799
 21
9.9695349165019671
 31
0.0
  0
LINE
  5
90C9
  8
0
 10
17.170346820488799
 20
9.9695349165019671
 30
0.0
 11
17.170610903434419
 21
9.969887988893106
 31
0.0
  0
LINE
  5
90CA
  8
0
 10
17.170610903434419
 20
9.969887988893106
 30
0.0
 11
17.171062846670232
 21
9.9701562904797321
 31
0.0
  0
LINE
  5
90CB
  8
0
 10
17.171062846670232
 20
9.9701562904797321
 30
0.0
 11
17.171645323299991
 21
9.9703407593692646
 31
0.0
  0
LINE
  5
90CC
  8
0
 10
17.171645323299991
 20
9.9703407593692646
 30
0.0
 11
17.172301006427421
 21
9.9704423336688706
 31
0.0
  0
LINE
  5
90CD
  8
0
 10
17.172301006427421
 20
9.9704423336688706
 30
0.0
 11
17.1729725691563
 21
9.9704619514866408
 31
0.0
  0
LINE
  5
90CE
  8
0
 10
17.1729725691563
 20
9.9704619514866408
 30
0.0
 11
17.17360268459035
 21
9.9704005509297442
 31
0.0
  0
LINE
  5
90CF
  8
0
 10
17.17360268459035
 20
9.9704005509297442
 30
0.0
 11
17.174134025833322
 21
9.9702590701053797
 31
0.0
  0
LINE
  5
90D0
  8
0
 10
17.174134025833322
 20
9.9702590701053797
 30
0.0
 11
17.175269716061351
 21
9.9698058407620902
 31
0.0
  0
LINE
  5
90D1
  8
0
 10
17.175269716061351
 20
9.9698058407620902
 30
0.0
 11
17.17650187927434
 21
9.9692980064555741
 31
0.0
  0
LINE
  5
90D2
  8
0
 10
17.17650187927434
 20
9.9692980064555741
 30
0.0
 11
17.17783481513165
 21
9.9687328822087622
 31
0.0
  0
LINE
  5
90D3
  8
0
 10
17.17783481513165
 20
9.9687328822087622
 30
0.0
 11
17.179272823292632
 21
9.9681077830439282
 31
0.0
  0
LINE
  5
90D4
  8
0
 10
17.179272823292632
 20
9.9681077830439282
 30
0.0
 11
17.180820203416658
 21
9.9674200239839976
 31
0.0
  0
LINE
  5
90D5
  8
0
 10
17.180820203416658
 20
9.9674200239839976
 30
0.0
 11
17.182481255163051
 21
9.9666669200514661
 31
0.0
  0
LINE
  5
90D6
  8
0
 10
17.182481255163051
 20
9.9666669200514661
 30
0.0
 11
17.1842602781912
 21
9.9658457862687921
 31
0.0
  0
LINE
  5
90D7
  8
0
 10
17.1842602781912
 20
9.9658457862687921
 30
0.0
 11
17.186161572160451
 21
9.9649539376589438
 31
0.0
  0
LINE
  5
90D8
  8
0
 10
17.186161572160451
 20
9.9649539376589438
 30
0.0
 11
17.188183583507939
 21
9.9639914552399187
 31
0.0
  0
LINE
  5
90D9
  8
0
 10
17.188183583507939
 20
9.9639914552399187
 30
0.0
 11
17.190301345781879
 21
9.9629694840134562
 31
0.0
  0
LINE
  5
90DA
  8
0
 10
17.190301345781879
 20
9.9629694840134562
 30
0.0
 11
17.19248403930829
 21
9.9619019349765878
 31
0.0
  0
LINE
  5
90DB
  8
0
 10
17.173826790653571
 20
9.9614121943002321
 30
0.0
 11
17.173409935717761
 21
9.9621304122415477
 31
0.0
  0
LINE
  5
90DC
  8
0
 10
17.173409935717761
 20
9.9621304122415477
 30
0.0
 11
17.17300946070737
 21
9.9628432630711323
 31
0.0
  0
LINE
  5
90DD
  8
0
 10
17.17300946070737
 20
9.9628432630711323
 30
0.0
 11
17.172629170643269
 21
9.9635443506017438
 31
0.0
  0
LINE
  5
90DE
  8
0
 10
17.172629170643269
 20
9.9635443506017438
 30
0.0
 11
17.172272870546319
 21
9.9642272786450103
 31
0.0
  0
LINE
  5
90DF
  8
0
 10
17.172272870546319
 20
9.9642272786450103
 30
0.0
 11
17.171944365437369
 21
9.9648856510138941
 31
0.0
  0
LINE
  5
90E0
  8
0
 10
17.171944365437369
 20
9.9648856510138941
 30
0.0
 11
17.171646589982
 21
9.9655142337317102
 31
0.0
  0
LINE
  5
90E1
  8
0
 10
17.171378997424629
 20
9.9661124416663824
 30
0.0
 11
17.171140170654379
 21
9.9666808518954841
 31
0.0
  0
LINE
  5
90E2
  8
0
 10
17.171140170654379
 20
9.9666808518954841
 30
0.0
 11
17.170928692560391
 21
9.9672200414972796
 31
0.0
  0
LINE
  5
90E3
  8
0
 10
17.170928692560391
 20
9.9672200414972796
 30
0.0
 11
17.170743146031789
 21
9.9677305875502462
 31
0.0
  0
LINE
  5
90E4
  8
0
 10
17.170743146031789
 20
9.9677305875502462
 30
0.0
 11
17.1705821139577
 21
9.9682130671326323
 31
0.0
  0
LINE
  5
90E5
  8
0
 10
17.1705821139577
 20
9.9682130671326323
 30
0.0
 11
17.170444179227271
 21
9.968668057322704
 31
0.0
  0
LINE
  5
90E6
  8
0
 10
17.170444179227271
 20
9.968668057322704
 30
0.0
 11
17.17032792472963
 21
9.9690961351982423
 31
0.0
  0
ARC
  5
90E7
  8
0
 10
-17.150991766732488
 20
10.078401828042161
 30
0.0
 40
0.1108601540209616
210
0.0
220
0.0
230
-1.0
 50
356.93122599999862
 51
38.826167000000673
  0
ARC
  5
90E8
  8
0
 10
17.0098705618332
 20
9.9264547034451862
 30
0.0
 40
0.1404560468861426
 50
48.160362000000802
 51
58.099843000000789
  0
ARC
  5
90E9
  8
0
 10
17.08269477760707
 20
10.07531168567219
 30
0.0
 40
0.0424995034128398
 50
183.83797336945321
 51
219.75545477125709
  0
ARC
  5
90EA
  8
0
 10
17.07679244429843
 20
10.037180952570671
 30
0.0
 40
0.011217445967933
 50
49.398704999999332
 51
130.6012950000005
  0
ARC
  5
90EB
  8
0
 10
-17.06117796910134
 20
10.05827097360042
 30
0.0
 40
0.0150744891514054
210
0.0
220
0.0
230
-1.0
 50
236.52372199999871
 51
317.73637843584879
  0
ARC
  5
90EC
  8
0
 10
17.142903619951142
 20
9.9966223241362968
 30
0.0
 40
0.0636790552151338
 50
90.364936000000014
 51
117.7075509999996
  0
ARC
  5
90ED
  8
0
 10
17.124247174847099
 20
10.05056562016124
 30
0.0
 40
0.011217445967933
 50
167.4711920000004
 51
220.6012949999994
  0
ARC
  5
90EE
  8
0
 10
-17.10842893133087
 20
10.038397740533339
 30
0.0
 40
0.0087736816264046
210
0.0
220
0.0
230
-1.0
 50
146.3099320000002
 51
303.69006799999852
  0
ARC
  5
90EF
  8
0
 10
17.181644343881139
 20
10.02383849413194
 30
0.0
 40
0.0534964612107664
 50
90.224687999999887
 51
137.0340669999992
  0
LINE
  5
90F0
  8
0
 10
17.194700844413191
 20
9.9608027191261463
 30
0.0
 11
17.196920941422579
 21
9.9596857474589342
 31
0.0
  0
LINE
  5
90F1
  8
0
 10
17.198868812429009
 20
9.9442779764312927
 30
0.0
 11
17.197642242089721
 21
9.9445504156403768
 31
0.0
  0
LINE
  5
90F2
  8
0
 10
17.197642242089721
 20
9.9445504156403768
 30
0.0
 11
17.196392773399271
 21
9.9448140167398762
 31
0.0
  0
LINE
  5
90F3
  8
0
 10
17.196392773399271
 20
9.9448140167398762
 30
0.0
 11
17.195140564297851
 21
9.9450838150344225
 31
0.0
  0
LINE
  5
90F4
  8
0
 10
17.195140564297851
 20
9.9450838150344225
 30
0.0
 11
17.1939057727256
 21
9.9453748458283826
 31
0.0
  0
LINE
  5
90F5
  8
0
 10
17.1939057727256
 20
9.9453748458283826
 30
0.0
 11
17.19270855662268
 21
9.9457021444268321
 31
0.0
  0
LINE
  5
90F6
  8
0
 10
17.19270855662268
 20
9.9457021444268321
 30
0.0
 11
17.19156907392928
 21
9.9460807461343812
 31
0.0
  0
LINE
  5
90F7
  8
0
 10
17.19156907392928
 20
9.9460807461343812
 30
0.0
 11
17.190502713872441
 21
9.9465211662832136
 31
0.0
  0
LINE
  5
90F8
  8
0
 10
17.190502713872441
 20
9.9465211662832136
 30
0.0
 11
17.189505790826779
 21
9.9470158403155438
 31
0.0
  0
LINE
  5
90F9
  8
0
 10
17.189505790826779
 20
9.9470158403155438
 30
0.0
 11
17.188569850453881
 21
9.9475526837011277
 31
0.0
  0
LINE
  5
90FA
  8
0
 10
17.188569850453881
 20
9.9475526837011277
 30
0.0
 11
17.187686438415248
 21
9.9481196119095241
 31
0.0
  0
LINE
  5
90FB
  8
0
 10
17.187686438415248
 20
9.9481196119095241
 30
0.0
 11
17.186847100372429
 21
9.948704540411196
 31
0.0
  0
LINE
  5
90FC
  8
0
 10
17.186847100372429
 20
9.948704540411196
 30
0.0
 11
17.186043381986959
 21
9.9492953846756738
 31
0.0
  0
LINE
  5
90FD
  8
0
 10
17.186043381986959
 20
9.9492953846756738
 30
0.0
 11
17.185266828920369
 21
9.9498800601725144
 31
0.0
  0
LINE
  5
90FE
  8
0
 10
17.185266828920369
 20
9.9498800601725144
 30
0.0
 11
17.184508986834199
 21
9.95044648237171
 31
0.0
  0
LINE
  5
90FF
  8
0
 10
17.184508986834199
 20
9.95044648237171
 30
0.0
 11
17.183763277131192
 21
9.9509856662882541
 31
0.0
  0
LINE
  5
9100
  8
0
 10
17.183763277131192
 20
9.9509856662882541
 30
0.0
 11
17.183030624178869
 21
9.9515010251170661
 31
0.0
  0
LINE
  5
9101
  8
0
 10
17.183030624178869
 20
9.9515010251170661
 30
0.0
 11
17.182313828085981
 21
9.9519990715980349
 31
0.0
  0
LINE
  5
9102
  8
0
 10
17.182313828085981
 20
9.9519990715980349
 30
0.0
 11
17.181615688961269
 21
9.9524863184724381
 31
0.0
  0
LINE
  5
9103
  8
0
 10
17.181615688961269
 20
9.9524863184724381
 30
0.0
 11
17.180939006913459
 21
9.9529692784794861
 31
0.0
  0
LINE
  5
9104
  8
0
 10
17.180939006913459
 20
9.9529692784794861
 30
0.0
 11
17.180286582051291
 21
9.9534544643595382
 31
0.0
  0
LINE
  5
9105
  8
0
 10
17.180286582051291
 20
9.9534544643595382
 30
0.0
 11
17.17966121448352
 21
9.9539483888536342
 31
0.0
  0
LINE
  5
9106
  8
0
 10
17.17966121448352
 20
9.9539483888536342
 30
0.0
 11
17.179065704318852
 21
9.9544575647012117
 31
0.0
  0
LINE
  5
9107
  8
0
 10
17.179065704318852
 20
9.9544575647012117
 30
0.0
 11
17.178501728779821
 21
9.9549873869682362
 31
0.0
  0
LINE
  5
9108
  8
0
 10
17.178501728779821
 20
9.9549873869682362
 30
0.0
 11
17.177966473543901
 21
9.9555387800219162
 31
0.0
  0
LINE
  5
9109
  8
0
 10
17.177966473543901
 20
9.9555387800219162
 30
0.0
 11
17.177456001402369
 21
9.9561115505555282
 31
0.0
  0
LINE
  5
910A
  8
0
 10
17.177456001402369
 20
9.9561115505555282
 30
0.0
 11
17.17696637514652
 21
9.9567055052623346
 31
0.0
  0
LINE
  5
910B
  8
0
 10
17.17696637514652
 20
9.9567055052623346
 30
0.0
 11
17.17649365756759
 21
9.9573204508346862
 31
0.0
  0
LINE
  5
910C
  8
0
 10
17.17649365756759
 20
9.9573204508346862
 30
0.0
 11
17.176033911456841
 21
9.9579561939660781
 31
0.0
  0
LINE
  5
910D
  8
0
 10
17.176033911456841
 20
9.9579561939660781
 30
0.0
 11
17.175583199605569
 21
9.9586125413495665
 31
0.0
  0
LINE
  5
910E
  8
0
 10
17.175583199605569
 20
9.9586125413495665
 30
0.0
 11
17.175137584805022
 21
9.9592892996777138
 31
0.0
  0
LINE
  5
910F
  8
0
 10
17.175137584805022
 20
9.9592892996777138
 30
0.0
 11
17.174694420218071
 21
9.9599852418307364
 31
0.0
  0
LINE
  5
9110
  8
0
 10
17.174694420218071
 20
9.9599852418307364
 30
0.0
 11
17.174256220493959
 21
9.9606950054337542
 31
0.0
  0
LINE
  5
9111
  8
0
 10
17.19248403930829
 20
9.9619019349765878
 30
0.0
 11
17.194700844413191
 21
9.9608027191261463
 31
0.0
  0
LINE
  5
9112
  8
0
 10
17.174256220493959
 20
9.9606950054337542
 30
0.0
 11
17.173826790653571
 21
9.9614121943002321
 31
0.0
  0
ARC
  5
9113
  8
0
 10
17.238513170773452
 20
10.02954837353149
 30
0.0
 40
0.0479335860986034
 50
19.689399999997601
 51
85.499885999999734
  0
ARC
  5
9114
  8
0
 10
17.18995226934954
 20
10.010411617389529
 30
0.0
 40
0.1001157416510018
 50
7.4819300195313572
 51
20.637547000001629
  0
LINE
  5
9115
  8
0
 10
17.242274151749339
 20
10.07733495534284
 30
0.0
 11
17.22205742351597
 21
10.0789258037198
 31
0.0
  0
LINE
  5
9116
  8
0
 10
17.22205742351597
 20
10.0789258037198
 30
0.0
 11
17.201714067827151
 21
10.077413551694219
 31
0.0
  0
LINE
  5
9117
  8
0
 10
17.21406243175656
 20
9.9396702653148168
 30
0.0
 11
17.213052305558602
 21
9.9397069325254961
 31
0.0
  0
LINE
  5
9118
  8
0
 10
17.19911351066245
 20
9.958564930972436
 30
0.0
 11
17.201247732458821
 21
9.9574541806643992
 31
0.0
  0
LINE
  5
9119
  8
0
 10
17.201247732458821
 20
9.9574541806643992
 30
0.0
 11
17.20329278713772
 21
9.9563674075304807
 31
0.0
  0
LINE
  5
911A
  8
0
 10
17.20329278713772
 20
9.9563674075304807
 30
0.0
 11
17.205224006499179
 21
9.9553165546747042
 31
0.0
  0
LINE
  5
911B
  8
0
 10
17.205224006499179
 20
9.9553165546747042
 30
0.0
 11
17.20704132823964
 21
9.9543056936261056
 31
0.0
  0
LINE
  5
911C
  8
0
 10
17.20704132823964
 20
9.9543056936261056
 30
0.0
 11
17.208750841529572
 21
9.9533369280188655
 31
0.0
  0
LINE
  5
911D
  8
0
 10
17.208750841529572
 20
9.9533369280188655
 30
0.0
 11
17.210358635539439
 21
9.9524123614887685
 31
0.0
  0
LINE
  5
911E
  8
0
 10
17.210358635539439
 20
9.9524123614887685
 30
0.0
 11
17.211870799439708
 21
9.9515340976699864
 31
0.0
  0
LINE
  5
911F
  8
0
 10
17.211870799439708
 20
9.9515340976699864
 30
0.0
 11
17.213293422400849
 21
9.9507042401987693
 31
0.0
  0
LINE
  5
9120
  8
0
 10
17.213293422400849
 20
9.9507042401987693
 30
0.0
 11
17.214632593593361
 21
9.9499248927088502
 31
0.0
  0
LINE
  5
9121
  8
0
 10
17.214632593593361
 20
9.9499248927088502
 30
0.0
 11
17.215894402187711
 21
9.9491981588359941
 31
0.0
  0
LINE
  5
9122
  8
0
 10
17.215894402187711
 20
9.9491981588359941
 30
0.0
 11
17.217085660834229
 21
9.9485254139967747
 31
0.0
  0
LINE
  5
9123
  8
0
 10
17.217085660834229
 20
9.9485254139967747
 30
0.0
 11
17.21821607610276
 21
9.9479051207376799
 31
0.0
  0
LINE
  5
9124
  8
0
 10
17.21821607610276
 20
9.9479051207376799
 30
0.0
 11
17.219296078043008
 21
9.9473350133869118
 31
0.0
  0
LINE
  5
9125
  8
0
 10
17.219296078043008
 20
9.9473350133869118
 30
0.0
 11
17.220336096704681
 21
9.9468128262728879
 31
0.0
  0
LINE
  5
9126
  8
0
 10
17.220336096704681
 20
9.9468128262728879
 30
0.0
 11
17.22134656213748
 21
9.9463362937233342
 31
0.0
  0
LINE
  5
9127
  8
0
 10
17.22134656213748
 20
9.9463362937233342
 30
0.0
 11
17.2223379043911
 21
9.9459031500668882
 31
0.0
  0
LINE
  5
9128
  8
0
 10
17.2223379043911
 20
9.9459031500668882
 30
0.0
 11
17.223320553515268
 21
9.945511129631992
 31
0.0
  0
LINE
  5
9129
  8
0
 10
17.223320553515268
 20
9.945511129631992
 30
0.0
 11
17.224304939559669
 21
9.9451579667463594
 31
0.0
  0
LINE
  5
912A
  8
0
 10
17.224304939559669
 20
9.9451579667463594
 30
0.0
 11
17.225296149625429
 21
9.9448401335578183
 31
0.0
  0
LINE
  5
912B
  8
0
 10
17.225296149625429
 20
9.9448401335578183
 30
0.0
 11
17.22627789901922
 21
9.9445490534892542
 31
0.0
  0
LINE
  5
912C
  8
0
 10
17.22627789901922
 20
9.9445490534892542
 30
0.0
 11
17.227228560099149
 21
9.9442748877834202
 31
0.0
  0
LINE
  5
912D
  8
0
 10
17.227228560099149
 20
9.9442748877834202
 30
0.0
 11
17.228126505223301
 21
9.9440077976819321
 31
0.0
  0
LINE
  5
912E
  8
0
 10
17.228126505223301
 20
9.9440077976819321
 30
0.0
 11
17.228950106749771
 21
9.9437379444277614
 31
0.0
  0
LINE
  5
912F
  8
0
 10
17.228950106749771
 20
9.9437379444277614
 30
0.0
 11
17.229677737036649
 21
9.9434554892627602
 31
0.0
  0
LINE
  5
9130
  8
0
 10
17.229677737036649
 20
9.9434554892627602
 30
0.0
 11
17.230287768442039
 21
9.9431505934292037
 31
0.0
  0
LINE
  5
9131
  8
0
 10
17.230287768442039
 20
9.9431505934292037
 30
0.0
 11
17.230758573324021
 21
9.9428134181696297
 31
0.0
  0
LINE
  5
9132
  8
0
 10
17.230758573324021
 20
9.9428134181696297
 30
0.0
 11
17.231074348835421
 21
9.9424380173986702
 31
0.0
  0
LINE
  5
9133
  8
0
 10
17.231074348835421
 20
9.9424380173986702
 30
0.0
 11
17.231242591307939
 21
9.9420340157203064
 31
0.0
  0
LINE
  5
9134
  8
0
 10
17.231242591307939
 20
9.9420340157203064
 30
0.0
 11
17.231276621868052
 21
9.9416149304101928
 31
0.0
  0
LINE
  5
9135
  8
0
 10
17.231276621868052
 20
9.9416149304101928
 30
0.0
 11
17.23118976164217
 21
9.9411942787446588
 31
0.0
  0
LINE
  5
9136
  8
0
 10
17.23118976164217
 20
9.9411942787446588
 30
0.0
 11
17.230995331756748
 21
9.9407855780004866
 31
0.0
  0
LINE
  5
9137
  8
0
 10
17.230995331756748
 20
9.9407855780004866
 30
0.0
 11
17.230706653338249
 21
9.9404023454530943
 31
0.0
  0
LINE
  5
9138
  8
0
 10
17.230706653338249
 20
9.9404023454530943
 30
0.0
 11
17.230337047513071
 21
9.9400580983792644
 31
0.0
  0
LINE
  5
9139
  8
0
 10
17.230337047513071
 20
9.9400580983792644
 30
0.0
 11
17.229899835407689
 21
9.9397663540548802
 31
0.0
  0
LINE
  5
913A
  8
0
 10
17.229899835407689
 20
9.9397663540548802
 30
0.0
 11
17.22940608100506
 21
9.9395372075587094
 31
0.0
  0
LINE
  5
913B
  8
0
 10
17.22940608100506
 20
9.9395372075587094
 30
0.0
 11
17.228857819714161
 21
9.9393670651818322
 31
0.0
  0
LINE
  5
913C
  8
0
 10
17.228857819714161
 20
9.9393670651818322
 30
0.0
 11
17.228254829800498
 21
9.93924891101687
 31
0.0
  0
LINE
  5
913D
  8
0
 10
17.228254829800498
 20
9.93924891101687
 30
0.0
 11
17.227596889529561
 21
9.9391757291559717
 31
0.0
  0
LINE
  5
913E
  8
0
 10
17.227596889529561
 20
9.9391757291559717
 30
0.0
 11
17.226883777166879
 21
9.939140503693352
 31
0.0
  0
LINE
  5
913F
  8
0
 10
17.226883777166879
 20
9.939140503693352
 30
0.0
 11
17.22611527097791
 21
9.9391362187213819
 31
0.0
  0
LINE
  5
9140
  8
0
 10
17.22611527097791
 20
9.9391362187213819
 30
0.0
 11
17.225291149228202
 21
9.9391558583336064
 31
0.0
  0
LINE
  5
9141
  8
0
 10
17.225291149228202
 20
9.9391558583336064
 30
0.0
 11
17.224411190183218
 21
9.9391924066226238
 31
0.0
  0
LINE
  5
9142
  8
0
 10
17.224411190183218
 20
9.9391924066226238
 30
0.0
 11
17.22347675315126
 21
9.9392395555262247
 31
0.0
  0
LINE
  5
9143
  8
0
 10
17.22347675315126
 20
9.9392395555262247
 30
0.0
 11
17.222495521611759
 21
9.9392938283613148
 31
0.0
  0
LINE
  5
9144
  8
0
 10
17.222495521611759
 20
9.9392938283613148
 30
0.0
 11
17.221476760086919
 21
9.9393524562897237
 31
0.0
  0
LINE
  5
9145
  8
0
 10
17.221476760086919
 20
9.9393524562897237
 30
0.0
 11
17.220429733098939
 21
9.9394126704726151
 31
0.0
  0
LINE
  5
9146
  8
0
 10
17.220429733098939
 20
9.9394126704726151
 30
0.0
 11
17.219363705170039
 21
9.939471702071156
 31
0.0
  0
LINE
  5
9147
  8
0
 10
17.219363705170039
 20
9.939471702071156
 30
0.0
 11
17.21828794082246
 21
9.939526782247178
 31
0.0
  0
LINE
  5
9148
  8
0
 10
17.21828794082246
 20
9.939526782247178
 30
0.0
 11
17.217211704578361
 21
9.9395751421623117
 31
0.0
  0
LINE
  5
9149
  8
0
 10
17.217211704578361
 20
9.9395751421623117
 30
0.0
 11
17.216144260959972
 21
9.9396140129783781
 31
0.0
  0
LINE
  5
914A
  8
0
 10
17.216144260959972
 20
9.9396140129783781
 30
0.0
 11
17.215093577247931
 21
9.9396428825255043
 31
0.0
  0
LINE
  5
914B
  8
0
 10
17.215093577247931
 20
9.9396428825255043
 30
0.0
 11
17.21406243175656
 21
9.9396702653148168
 31
0.0
  0
LINE
  5
914C
  8
0
 10
17.213052305558602
 20
9.9397069325254961
 30
0.0
 11
17.21206467972679
 21
9.939763655337396
 31
0.0
  0
LINE
  5
914D
  8
0
 10
17.21206467972679
 20
9.939763655337396
 30
0.0
 11
17.211101035333879
 21
9.9398512049301608
 31
0.0
  0
LINE
  5
914E
  8
0
 10
17.211101035333879
 20
9.9398512049301608
 30
0.0
 11
17.210162853452609
 21
9.9399803524834116
 31
0.0
  0
LINE
  5
914F
  8
0
 10
17.210162853452609
 20
9.9399803524834116
 30
0.0
 11
17.209251615155718
 21
9.9401618691772402
 31
0.0
  0
LINE
  5
9150
  8
0
 10
17.209251615155718
 20
9.9401618691772402
 30
0.0
 11
17.208368801515959
 21
9.9404065261908183
 31
0.0
  0
LINE
  5
9151
  8
0
 10
17.208368801515959
 20
9.9404065261908183
 30
0.0
 11
17.207513286804339
 21
9.9407206358507665
 31
0.0
  0
LINE
  5
9152
  8
0
 10
17.207513286804339
 20
9.9407206358507665
 30
0.0
 11
17.206673518084891
 21
9.9410926750699602
 31
0.0
  0
LINE
  5
9153
  8
0
 10
17.206673518084891
 20
9.9410926750699602
 30
0.0
 11
17.205835335619931
 21
9.941506661907848
 31
0.0
  0
LINE
  5
9154
  8
0
 10
17.205835335619931
 20
9.941506661907848
 30
0.0
 11
17.204984579671802
 21
9.9419466144242961
 31
0.0
  0
LINE
  5
9155
  8
0
 10
17.204984579671802
 20
9.9419466144242961
 30
0.0
 11
17.20410709050276
 21
9.9423965506784882
 31
0.0
  0
LINE
  5
9156
  8
0
 10
17.20410709050276
 20
9.9423965506784882
 30
0.0
 11
17.203188708375169
 21
9.9428404887300932
 31
0.0
  0
LINE
  5
9157
  8
0
 10
17.203188708375169
 20
9.9428404887300932
 30
0.0
 11
17.202215273551289
 21
9.9432624466394302
 31
0.0
  0
LINE
  5
9158
  8
0
 10
17.202215273551289
 20
9.9432624466394302
 30
0.0
 11
17.201172626293459
 21
9.9436464424647966
 31
0.0
  0
LINE
  5
9159
  8
0
 10
17.201172626293459
 20
9.9436464424647966
 30
0.0
 11
17.200052326476978
 21
9.9439816638073282
 31
0.0
  0
ARC
  5
915A
  8
0
 10
17.102207791506139
 20
9.9983421899323641
 30
0.0
 40
0.188685539483754
 50
331.52398972244652
 51
7.6462551798543608
  0
ARC
  5
915B
  8
0
 10
-17.363950037051961
 20
9.8680503367195325
 30
0.0
 40
0.0926665540989216
210
0.0
220
0.0
230
-1.0
 50
60.068312362020961
 51
76.328692999999802
  0
ARC
  5
915C
  8
0
 10
17.255488228300301
 20
10.006174911411319
 30
0.0
 40
0.0849397129691308
 50
317.1022425865325
 51
8.6291783757405032
  0
ARC
  5
915D
  8
0
 10
17.306282147251071
 20
10.25698729390114
 30
0.0
 40
0.103082026182291
 50
118.6401079999989
 51
177.05530099999939
  0
ARC
  5
915E
  8
0
 10
17.196385621564939
 20
10.232818244236331
 30
0.0
 40
0.0071974559508554
 50
273.09450790218631
 51
5.5421348733659759
  0
LINE
  5
915F
  8
0
 10
17.194395874194502
 20
10.208005756446919
 30
0.0
 11
17.209864800592211
 21
10.20766517225638
 31
0.0
  0
LINE
  5
9160
  8
0
 10
17.191169057312319
 20
10.225780175826671
 30
0.0
 11
17.196774162533568
 21
10.225631283259631
 31
0.0
  0
LINE
  5
9161
  8
0
 10
17.179001177684469
 20
10.208745144347629
 30
0.0
 11
17.194395874194502
 21
10.208005756446919
 31
0.0
  0
ARC
  5
9162
  8
0
 10
-17.172917237870529
 20
10.082200651705749
 30
0.0
 40
0.1266900414411302
210
0.0
220
0.0
230
-1.0
 50
73.82784100000049
 51
92.752484999999922
  0
ARC
  5
9163
  8
0
 10
-17.349115703419521
 20
10.38751691266952
 30
0.0
 40
0.0294648989457422
210
0.0
220
0.0
230
-1.0
 50
246.9426104235107
 51
288.80904999999962
  0
LINE
  5
9164
  8
0
 10
17.238137885623889
 20
10.33420551251128
 30
0.0
 11
17.238137885623889
 21
10.33420551251128
 31
0.0
  0
ARC
  5
9165
  8
0
 10
17.33231500550751
 20
10.29878599810603
 30
0.0
 40
0.0121678796278604
 50
180.0
 51
233.13010199999891
  0
ARC
  5
9166
  8
0
 10
-17.345257204748059
 20
10.30796721637056
 30
0.0
 40
0.0640734924614436
210
0.0
220
0.0
230
-1.0
 50
358.3182239999997
 51
27.671010000001559
  0
ARC
  5
9167
  8
0
 10
-22.563206405685001
 20
8.3702061868498241
 30
0.0
 40
5.625577534934262
210
0.0
220
0.0
230
-1.0
 50
19.469593999999692
 51
20.128158999999531
  0
LINE
  5
9168
  8
0
 10
17.203549432612039
 20
10.23351335821712
 30
0.0
 11
17.202677600879021
 21
10.24947406487694
 31
0.0
  0
LINE
  5
9169
  8
0
 10
17.202677600879021
 20
10.24947406487694
 30
0.0
 11
17.20333693694019
 21
10.26228381471037
 31
0.0
  0
LINE
  5
916A
  8
0
 10
17.209864800592211
 20
10.20766517225638
 30
0.0
 11
17.225239120270331
 21
10.208745144347629
 31
0.0
  0
ARC
  5
916B
  8
0
 10
17.222670183961341
 20
10.24529390335919
 30
0.0
 40
0.036638999267001
 50
274.02034199999991
 51
359.92952600000149
  0
ARC
  5
916C
  8
0
 10
17.315096968680891
 20
10.2389551834226
 30
0.0
 40
0.1231360796950428
 50
78.514521519517345
 51
118.2181686236387
  0
ARC
  5
916D
  8
0
 10
17.322850673750519
 20
10.30801219999443
 30
0.0
 40
0.0454090158799492
 50
61.640158362231332
 51
139.13362845344469
  0
ARC
  5
916E
  8
0
 10
18.094832066048109
 20
9.6784075285722722
 30
0.0
 40
0.088036646790761
 50
300.66775632646471
 51
350.33841200000262
  0
ARC
  5
916F
  8
0
 10
-17.825106852995891
 20
9.691618993091188
 30
0.0
 40
0.046332549305464
210
0.0
220
0.0
230
-1.0
 50
256.3286929999997
 51
299.93151200000068
  0
ARC
  5
9170
  8
0
 10
-17.834841156698179
 20
9.6551153542077301
 30
0.0
 40
0.0086033895311342
210
0.0
220
0.0
230
-1.0
 50
171.86989800000211
 51
261.86989799999952
  0
ARC
  5
9171
  8
0
 10
17.548230827430299
 20
9.6784075285722722
 30
0.0
 40
0.088036646790761
 50
189.66158799999729
 51
239.33224367353489
  0
LINE
  5
9172
  8
0
 10
17.962600981814731
 20
9.4713832828033446
 30
0.0
 11
18.10618050593548
 21
9.4713832828033446
 31
0.0
  0
ARC
  5
9173
  8
0
 10
18.106441038286359
 20
9.9090718103354902
 30
0.0
 40
0.3123171582137136
 50
242.11373735930431
 51
272.23121636225119
  0
LINE
  5
9174
  8
0
 10
18.028307531805179
 20
9.4446139476221944
 30
0.0
 11
18.07454401890304
 21
9.4446139476221944
 31
0.0
  0
LINE
  5
9175
  8
0
 10
18.028307531805179
 20
8.7121192379286114
 30
0.0
 11
18.028307531805179
 21
9.4446139476221944
 31
0.0
  0
LINE
  5
9176
  8
0
 10
17.977202437368149
 20
9.4178446124405983
 30
0.0
 11
17.977202437368149
 21
8.7218535416311624
 31
0.0
  0
LINE
  5
9177
  8
0
 10
17.58296895937746
 20
9.3862095808960841
 30
0.0
 11
17.58296895937746
 21
8.7127276319097238
 31
0.0
  0
LINE
  5
9178
  8
0
 10
17.634074053814459
 20
8.6950842064495593
 30
0.0
 11
17.634074053814459
 21
9.3775465163571425
 31
0.0
  0
LINE
  5
9179
  8
0
 10
17.634074053814459
 20
8.6950842064495593
 30
0.0
 11
17.763579009035539
 21
8.6950842064495593
 31
0.0
  0
LINE
  5
917A
  8
0
 10
17.56836750382401
 20
8.6683148712684162
 30
0.0
 11
17.789820002075089
 21
8.6683148712684162
 31
0.0
  0
LINE
  5
917B
  8
0
 10
17.403869706256899
 20
8.9506053121706337
 30
0.0
 11
17.463771770128218
 21
8.7072520860774567
 31
0.0
  0
LINE
  5
917C
  8
0
 10
17.456471042351499
 20
8.6683148712684162
 30
0.0
 11
17.541644744258541
 21
8.6683148712684162
 31
0.0
  0
ARC
  5
917D
  8
0
 10
17.63837793181203
 20
8.7433496438109142
 30
0.0
 40
0.1224225506434164
 50
198.34490800000231
 51
217.8000650000015
  0
ARC
  5
917E
  8
0
 10
-17.41145134321642
 20
8.696909388393804
 30
0.0
 40
0.053333446555465
210
0.0
220
0.0
230
-1.0
 50
168.81824599999831
 51
212.42106500000131
  0
LINE
  5
917F
  8
0
 10
17.578106173990289
 20
8.6867922913493203
 30
0.0
 11
17.58296895937746
 21
8.6997068363177661
 31
0.0
  0
LINE
  5
9180
  8
0
 10
17.58296895937746
 20
8.6997068363177661
 30
0.0
 11
17.58296895937746
 21
8.7127276319097238
 31
0.0
  0
ARC
  5
9181
  8
0
 10
17.497795257470429
 20
8.7127276319097238
 30
0.0
 40
0.0833849071626938
 50
327.81736800000061
 51
333.22801199999878
  0
LINE
  5
9182
  8
0
 10
17.572242012863409
 20
8.67516730874285
 30
0.0
 11
17.578106173990289
 21
8.6867922913493203
 31
0.0
  0
ARC
  5
9183
  8
0
 10
17.75209957522873
 20
8.7571389370636936
 30
0.0
 40
0.0631085039215786
 50
280.48011099999968
 51
326.00354099999799
  0
LINE
  5
9184
  8
0
 10
17.804421457628528
 20
8.7218535416311624
 30
0.0
 11
17.805435932760179
 21
8.7233570607286222
 31
0.0
  0
LINE
  5
9185
  8
0
 10
17.805435932760179
 20
8.7233570607286222
 30
0.0
 11
17.807408118991731
 21
8.7187140540283963
 31
0.0
  0
LINE
  5
9186
  8
0
 10
17.807408118991731
 20
8.7187140540283963
 30
0.0
 11
17.8068550335541
 21
8.7169863897797768
 31
0.0
  0
ARC
  5
9187
  8
0
 10
16.897927524744869
 20
9.0077943464218553
 30
0.0
 40
0.9543154464067361
 50
339.16179600000231
 51
342.2581110000026
  0
ARC
  5
9188
  8
0
 10
-18.115914809637768
 20
8.7169863897797768
 30
0.0
 40
0.0877426382160208
210
0.0
220
0.0
230
-1.0
 50
326.30993200000017
 51
356.82017000000047
  0
ARC
  5
9189
  8
0
 10
-17.68882805665184
 20
8.7717403926173976
 30
0.0
 40
0.2926578818819539
210
0.0
220
0.0
230
-1.0
 50
189.814787
 51
200.695450999999
  0
LINE
  5
918A
  8
0
 10
17.962600981814731
 20
8.6683148712684162
 30
0.0
 11
18.0429075318706
 21
8.6683148712684162
 31
0.0
  0
ARC
  5
918B
  8
0
 10
17.91000110120812
 20
10.020003283268339
 30
0.0
 40
0.4356406559252694
 50
242.62641915895671
 51
255.1270028687957
  0
ARC
  5
918C
  8
0
 10
-17.478326650065849
 20
9.3655241855285567
 30
0.0
 40
0.1066668931109298
210
0.0
220
0.0
230
-1.0
 50
147.57893499999841
 51
168.81824599999831
  0
ARC
  5
918D
  8
0
 10
17.789820002075089
 20
9.3521395179379763
 30
0.0
 40
0.1578054637717998
 50
153.4349489999976
 51
170.73496100000179
  0
ARC
  5
918E
  8
0
 10
17.536621855192049
 20
9.9090718103354902
 30
0.0
 40
0.3123171582137136
 50
267.76878363774881
 51
297.88626264069558
  0
LINE
  5
918F
  8
0
 10
17.480556677548918
 20
9.6201848278794841
 30
0.0
 11
17.480556677548918
 21
9.6201848278794841
 31
0.0
  0
ARC
  5
9190
  8
0
 10
17.524424239547361
 20
9.6389337430075557
 30
0.0
 40
0.0419423262639052
 50
239.800845837184
 51
270.05247339540972
  0
ARC
  5
9191
  8
0
 10
17.696313338804568
 20
9.6072921382942642
 30
0.0
 40
0.029109759875264
 50
62.626419158956772
 51
117.88626264069551
  0
LINE
  5
9192
  8
0
 10
17.56836750382401
 20
9.4227117642917602
 30
0.0
 11
17.648675509367909
 21
9.4227117642917602
 31
0.0
  0
ARC
  5
9193
  8
0
 10
17.733061792270298
 20
10.020003283268339
 30
0.0
 40
0.4356406559252694
 50
284.87299713120427
 51
297.37358084104301
  0
LINE
  5
9194
  8
0
 10
17.748816393874669
 20
9.6178171142591928
 30
0.0
 11
17.748816393874669
 21
9.6178171142591928
 31
0.0
  0
ARC
  5
9195
  8
0
 10
17.821531446739201
 20
9.6868781412429144
 30
0.0
 40
0.0909679996102
 50
255.1270028687957
 51
284.87299713120427
  0
ARC
  5
9196
  8
0
 10
17.94674955467385
 20
9.6072921382942642
 30
0.0
 40
0.029109759875264
 50
62.113737359304501
 51
117.37358084104289
  0
ARC
  5
9197
  8
0
 10
-17.789955362458521
 20
9.3955378034481782
 30
0.0
 40
0.1885715689839664
210
0.0
220
0.0
230
-1.0
 50
156.2835929999988
 51
173.20616899999911
  0
ARC
  5
9198
  8
0
 10
-18.02765256220798
 20
9.056464409445196
 30
0.0
 40
0.687341105662727
210
0.0
220
0.0
230
-1.0
 50
170.11247000000279
 51
182.13048099999759
  0
ARC
  5
9199
  8
0
 10
-17.981761025764619
 20
9.1867960818467456
 30
0.0
 40
0.2584524585405252
210
0.0
220
0.0
230
-1.0
 50
182.1888729999973
 51
225.73610499999839
  0
ARC
  5
919A
  8
0
 10
17.935000562988979
 20
9.1815999897087224
 30
0.0
 40
0.2516684290015948
 50
326.60512299999868
 51
357.82709999999798
  0
ARC
  5
919B
  8
0
 10
-18.84146829708876
 20
9.0824230378141237
 30
0.0
 40
0.5174128823908736
210
0.0
220
0.0
230
-1.0
 50
3.7304230000010872
 51
18.889442000000461
  0
ARC
  5
919C
  8
0
 10
-18.75817071920569
 20
9.075324622868262
 30
0.0
 40
0.4872770034800065
210
0.0
220
0.0
230
-1.0
 50
6.5238629999969824
 51
20.99770699999857
  0
ARC
  5
919D
  8
0
 10
-18.73205489813359
 20
8.9791634420964765
 30
0.0
 40
0.4017583509184561
210
0.0
220
0.0
230
-1.0
 50
324.9820570000021
 51
349.27061299999809
  0
ARC
  5
919E
  8
0
 10
-18.528969202875821
 20
8.8561266755195902
 30
0.0
 40
0.201708803615673
210
0.0
220
0.0
230
-1.0
 50
281.66125999999957
 51
328.60712600000028
  0
ARC
  5
919F
  8
0
 10
-18.680925060400689
 20
8.9897011751713762
 30
0.0
 40
0.4025122936992254
210
0.0
220
0.0
230
-1.0
 50
323.63766500000168
 51
347.05053800000201
  0
ARC
  5
91A0
  8
0
 10
-18.041690743907829
 20
9.1927432057893821
 30
0.0
 40
0.2258407945522668
210
0.0
220
0.0
230
-1.0
 50
237.76556599999981
 51
244.12522600000071
  0
ARC
  5
91A1
  8
0
 10
-18.115914809637768
 20
9.0503804696313601
 30
0.0
 40
0.0655246139912254
210
0.0
220
0.0
230
-1.0
 50
248.1985910000011
 51
285.068488
  0
ARC
  5
91A2
  8
0
 10
-18.105572111954078
 20
9.0345622261149821
 30
0.0
 40
0.0479233976826472
210
0.0
220
0.0
230
-1.0
 50
278.0272379999999
 51
303.0848529999987
  0
ARC
  5
91A3
  8
0
 10
18.058482708891859
 20
9.1078125703772823
 30
0.0
 40
0.108147124400587
 50
281.15822300000042
 51
323.23324499999921
  0
LINE
  5
91A4
  8
0
 10
18.079411170754199
 20
8.9944096788310617
 30
0.0
 11
18.077372032074919
 21
8.995737083881524
 31
0.0
  0
LINE
  5
91A5
  8
0
 10
18.077372032074919
 20
8.995737083881524
 30
0.0
 11
18.07702417044441
 21
9.0012388284981082
 31
0.0
  0
LINE
  5
91A6
  8
0
 10
18.07702417044441
 20
9.0012388284981082
 30
0.0
 11
18.079411170754199
 21
9.0017104066077938
 31
0.0
  0
ARC
  5
91A7
  8
0
 10
-18.917718402106019
 20
9.0540308335196151
 30
0.0
 40
0.648219043878366
210
0.0
220
0.0
230
-1.0
 50
355.37033100000082
 51
6.7915170000004892
  0
LINE
  5
91A8
  8
0
 10
18.33488715634747
 20
8.9165367047007695
 30
0.0
 11
18.33561490034435
 21
8.9124642492943167
 31
0.0
  0
LINE
  5
91A9
  8
0
 10
18.33561490034435
 20
8.9124642492943167
 30
0.0
 11
18.336549323636351
 21
8.9084325475514561
 31
0.0
  0
LINE
  5
91AA
  8
0
 10
18.336549323636351
 20
8.9084325475514561
 30
0.0
 11
18.337320732273032
 21
8.9043688250728739
 31
0.0
  0
ARC
  5
91AB
  8
0
 10
-19.103277110942901
 20
9.0540308335196151
 30
0.0
 40
0.7805942214231352
210
0.0
220
0.0
230
-1.0
 50
349.85491799999681
 51
4.559676999999855
  0
ARC
  5
91AC
  8
0
 10
-18.935727155052849
 20
9.0598717068382904
 30
0.0
 40
0.6666542548073707
210
0.0
220
0.0
230
-1.0
 50
346.0804279999968
 51
354.99492799999939
  0
ARC
  5
91AD
  8
0
 10
-18.248720811628701
 20
8.9971139755234617
 30
0.0
 40
0.4607303579617594
210
0.0
220
0.0
230
-1.0
 50
190.07226000000131
 51
209.11230400000079
  0
ARC
  5
91AE
  8
0
 10
-18.517651328236312
 20
8.8352302343930642
 30
0.0
 40
0.1798590178533
210
0.0
220
0.0
230
-1.0
 50
226.4760059999989
 51
259.16177100000021
  0
ARC
  5
91AF
  8
0
 10
-18.519836015714951
 20
8.8167615472402741
 30
0.0
 40
0.1317260298995508
210
0.0
220
0.0
230
-1.0
 50
244.85521399999951
 51
281.72511200000019
  0
ARC
  5
91B0
  8
0
 10
-18.519836015714951
 20
8.8435294269334008
 30
0.0
 40
0.1876356902039766
210
0.0
220
0.0
230
-1.0
 50
260.29334799999953
 51
279.70665200000002
  0
ARC
  5
91B1
  8
0
 10
-18.52258106607119
 20
8.8285146127898262
 30
0.0
 40
0.1437934808558416
210
0.0
220
0.0
230
-1.0
 50
281.84460100000052
 51
326.2472740000004
  0
ARC
  5
91B2
  8
0
 10
-18.501584196273161
 20
8.8471797908216541
 30
0.0
 40
0.1670565454601588
210
0.0
220
0.0
230
-1.0
 50
206.37842099999841
 51
243.62157900000099
  0
ARC
  5
91B3
  8
0
 10
-18.40120064483132
 20
8.9536472820775543
 30
0.0
 40
0.3459272869656934
210
0.0
220
0.0
230
-1.0
 50
205.07776900000059
 51
225.9975869999983
  0
ARC
  5
91B4
  8
0
 10
-18.008876767088431
 20
9.0481448400726041
 30
0.0
 40
0.7058520019674077
210
0.0
220
0.0
230
-1.0
 50
181.39897300000311
 51
190.7459399999986
  0
ARC
  5
91B5
  8
0
 10
-18.605130523125471
 20
9.1813045256460502
 30
0.0
 40
0.2623444334358478
210
0.0
220
0.0
230
-1.0
 50
15.164220999999531
 51
52.215913999998691
  0
ARC
  5
91B6
  8
0
 10
-18.548065205353989
 20
9.2119672912108381
 30
0.0
 40
0.233738272406426
210
0.0
220
0.0
230
-1.0
 50
36.106316999998938
 51
68.885398000000023
  0
ARC
  5
91B7
  8
0
 10
17.932520411447619
 20
9.2602356395480001
 30
0.0
 40
0.2564060424212939
 50
0.4164509999972098
 51
35.888960000001347
  0
ARC
  5
91B8
  8
0
 10
-18.08055663980528
 20
9.3288779088218181
 30
0.0
 40
0.1447904901315694
210
0.0
220
0.0
230
-1.0
 50
100.1933809999995
 51
161.82479299999909
  0
ARC
  5
91B9
  8
0
 10
-17.920362720235719
 20
9.2539290100710243
 30
0.0
 40
0.321073373984193
210
0.0
220
0.0
230
-1.0
 50
158.03154799999879
 51
174.62583799999891
  0
ARC
  5
91BA
  8
0
 10
17.55741641215895
 20
9.2341125410357563
 30
0.0
 40
0.6321228021553388
 50
354.36622600000231
 51
2.537458999998476
  0
ARC
  5
91BB
  8
0
 10
-17.75088278726594
 20
9.2304621771472721
 30
0.0
 40
0.4920626480034998
210
0.0
220
0.0
230
-1.0
 50
173.7536839999984
 51
186.2463160000014
  0
ARC
  5
91BC
  8
0
 10
-18.680449115826729
 20
9.1039191399936481
 30
0.0
 40
0.4044728360268242
210
0.0
220
0.0
230
-1.0
 50
21.161260000002549
 51
37.421465000000516
  0
ARC
  5
91BD
  8
0
 10
18.118638653931072
 20
9.6389337430075557
 30
0.0
 40
0.0419423262639052
 50
269.94752660459
 51
300.19915416281572
  0
ARC
  5
91BE
  8
0
 10
18.064422555394401
 20
9.3447005188020285
 30
0.0
 40
0.1004243051056796
 50
40.969227999999809
 51
84.215621000000283
  0
ARC
  5
91BF
  8
0
 10
-18.519531818724261
 20
9.2736581498263604
 30
0.0
 40
0.135277420604333
210
0.0
220
0.0
230
-1.0
 50
96.325964000000056
 51
130.53142199999971
  0
ARC
  5
91C0
  8
0
 10
-18.506062732829982
 20
9.2363656364502642
 30
0.0
 40
0.2036416916713906
210
0.0
220
0.0
230
-1.0
 50
102.88433400000039
 51
137.4627059999977
  0
ARC
  5
91C1
  8
0
 10
-18.51050633767494
 20
9.2868390490980328
 30
0.0
 40
0.121386243191857
210
0.0
220
0.0
230
-1.0
 50
57.000210000000273
 51
78.239519999999928
  0
ARC
  5
91C2
  8
0
 10
-18.501584196273161
 20
9.2414132688124901
 30
0.0
 40
0.171603489952675
210
0.0
220
0.0
230
-1.0
 50
128.08877299999921
 51
156.1612599999996
  0
ARC
  5
91C3
  8
0
 10
-18.449506835856312
 20
9.1647570826451101
 30
0.0
 40
0.2940857156038358
210
0.0
220
0.0
230
-1.0
 50
134.63121999999939
 51
150.23159600000031
  0
ARC
  5
91C4
  8
0
 10
-18.27954950282459
 20
9.1061984341918052
 30
0.0
 40
0.4306847193065059
210
0.0
220
0.0
230
-1.0
 50
151.64118499999981
 51
170.87613400000231
  0
ARC
  5
91C5
  8
0
 10
-18.517402439789379
 20
9.2608818762168941
 30
0.0
 40
0.1482108869169128
210
0.0
220
0.0
230
-1.0
 50
77.675272999999422
 51
96.599917000000019
  0
ARC
  5
91C6
  8
0
 10
-18.516945416559349
 20
9.2654448310777262
 30
0.0
 40
0.1729163401230494
210
0.0
220
0.0
230
-1.0
 50
72.122851000000537
 51
101.5174889999993
  0
ARC
  5
91C7
  8
0
 10
-18.030154546069252
 20
10.516768612979821
 30
0.0
 40
0.0273908285546296
210
0.0
220
0.0
230
-1.0
 50
112.1340119999995
 51
182.92360400000081
  0
ARC
  5
91C8
  8
0
 10
-18.070893655014679
 20
11.07630186242204
 30
0.0
 40
0.5079187342075562
210
0.0
220
0.0
230
-1.0
 50
263.81138399999998
 51
272.6087950000001
  0
ARC
  5
91C9
  8
0
 10
-17.961384193851949
 20
10.331639273101009
 30
0.0
 40
0.2393360792304392
210
0.0
220
0.0
230
-1.0
 50
103.8242999999996
 51
113.0455979999996
  0
LINE
  5
91CA
  8
0
 10
18.035056629632251
 20
10.544344288509359
 30
0.0
 11
18.0604578060994
 21
10.549584045286791
 31
0.0
  0
ARC
  5
91CB
  8
0
 10
17.87493144379885
 20
10.420622802737171
 30
0.0
 40
0.205577545020086
 50
319.99137528222752
 51
345.40900459038647
  0
LINE
  5
91CC
  8
0
 10
18.06294669056874
 20
10.19496895048677
 30
0.0
 11
18.051618627513282
 21
10.18008513026256
 31
0.0
  0
LINE
  5
91CD
  8
0
 10
18.040607860840449
 20
10.011091330282619
 30
0.0
 11
18.063089328392131
 21
10.01285247075497
 31
0.0
  0
LINE
  5
91CE
  8
0
 10
18.037669230581049
 20
9.7904204290841719
 30
0.0
 11
18.067390295413698
 21
9.7524642131827441
 31
0.0
  0
LINE
  5
91CF
  8
0
 10
18.064729663361089
 20
9.8866310964476725
 30
0.0
 11
18.041590315236249
 21
9.8826270489769286
 31
0.0
  0
ARC
  5
91D0
  8
0
 10
18.071799242132101
 20
10.411948235089991
 30
0.0
 40
0.0618102736370894
 50
52.243595062829897
 51
126.0030158204668
  0
ARC
  5
91D1
  8
0
 10
-18.027090743842379
 20
10.533623163947579
 30
0.0
 40
0.0354746088719904
210
0.0
220
0.0
230
-1.0
 50
210.96375700000019
 51
292.16634599999878
  0
LINE
  5
91D2
  8
0
 10
18.051618627513282
 20
10.18008513026256
 30
0.0
 11
18.044019524697841
 21
10.15728054437613
 31
0.0
  0
LINE
  5
91D3
  8
0
 10
17.976182140284521
 20
10.15343368960861
 30
0.0
 11
17.979197911407599
 21
10.174838096044811
 31
0.0
  0
LINE
  5
91D4
  8
0
 10
17.89063292247511
 20
10.16202834621185
 30
0.0
 11
17.900220221890031
 21
10.1482827175987
 31
0.0
  0
ARC
  5
91D5
  8
0
 10
-17.824664384645779
 20
10.166159021137901
 30
0.0
 40
0.0358850564862318
210
0.0
220
0.0
230
-1.0
 50
158.10020099999781
 51
259.5213870000004
  0
ARC
  5
91D6
  8
0
 10
4.6109889789946923
 20
7.3627217640309901
 30
0.0
 40
13.43197968337164
 50
12.020444000001859
 51
12.5091040000021
  0
ARC
  5
91D7
  8
0
 10
17.619472598261041
 20
10.42776406667303
 30
0.0
 40
0.301699373299211
 50
236.18175400000169
 51
257.42106500000028
  0
ARC
  5
91D8
  8
0
 10
-24.183586634261641
 20
17.62103025383362
 30
0.0
 40
9.9441021081732863
210
0.0
220
0.0
230
-1.0
 50
311.0653919999998
 51
313.01071529566309
  0
ARC
  5
91D9
  8
0
 10
18.588629655740181
 20
10.733173478868579
 30
0.0
 40
1.05086233149703
 50
208.56810299999719
 51
214.64690200000121
  0
ARC
  5
91DA
  8
0
 10
17.892028735461121
 20
9.8242459700593301
 30
0.0
 40
0.3335367176747872
 50
119.7448810000009
 51
125.19750300000059
  0
ARC
  5
91DB
  8
0
 10
17.726548483498199
 20
10.28418454255233
 30
0.0
 40
0.19807590558324
 50
264.35945099999969
 51
280.61965500000008
  0
ARC
  5
91DC
  8
0
 10
17.706870285822539
 20
9.6636750790992121
 30
0.0
 40
0.0534964612107664
 50
42.965933000000753
 51
89.7753119999999
  0
ARC
  5
91DD
  8
0
 10
-17.40680833651631
 20
9.7728716103433726
 30
0.0
 40
0.176422610700025
210
0.0
220
0.0
230
-1.0
 50
121.046586
 51
146.4073529999998
  0
ARC
  5
91DE
  8
0
 10
17.376117916679821
 20
9.7354219042635961
 30
0.0
 40
0.2804521595662558
 50
28.789011999997768
 51
77.471192000000713
  0
ARC
  5
91DF
  8
0
 10
17.50400728022781
 20
9.7860146669267962
 30
0.0
 40
0.0377218823343608
 50
307.5507999999993
 51
29.82933499999946
  0
ARC
  5
91E0
  8
0
 10
-17.547195975466739
 20
9.6765299490600665
 30
0.0
 40
0.0106017745465712
210
0.0
220
0.0
230
-1.0
 50
211.8659779999972
 51
9.2461130000011398
  0
ARC
  5
91E1
  8
0
 10
-17.544720190389359
 20
9.7420880392753606
 30
0.0
 40
0.0225964511031738
210
0.0
220
0.0
230
-1.0
 50
297.46491099999861
 51
38.34557500000075
  0
ARC
  5
91E2
  8
0
 10
17.476040078427651
 20
9.8190382340176221
 30
0.0
 40
0.0296555678729252
 50
66.085250000001281
 51
142.9294577609416
  0
ARC
  5
91E3
  8
0
 10
17.367600400940312
 20
9.830329909873166
 30
0.0
 40
0.0397275447897666
 50
352.66540846050913
 51
62.650123999999352
  0
ARC
  5
91E4
  8
0
 10
-17.34569967309816
 20
9.9398393710357542
 30
0.0
 40
0.1482356302128068
210
0.0
220
0.0
230
-1.0
 50
223.97405474886031
 51
234.3529789999981
  0
ARC
  5
91E5
  8
0
 10
-17.42113907130291
 20
9.8291131219100354
 30
0.0
 40
0.0146523976332142
210
0.0
220
0.0
230
-1.0
 50
221.6335389999993
 51
344.74623610313921
  0
ARC
  5
91E6
  8
0
 10
-17.42833645943206
 20
9.7299012383034498
 30
0.0
 40
0.0337338452314498
210
0.0
220
0.0
230
-1.0
 50
67.093030000000098
 51
155.40798099999881
  0
ARC
  5
91E7
  8
0
 10
17.302960723649299
 20
9.579067562021919
 30
0.0
 40
0.3249537049755656
 50
43.994913999999973
 51
55.276012999998258
  0
LINE
  5
91E8
  8
0
 10
17.539000353279899
 20
9.6698243511154942
 30
0.0
 11
17.539000353279899
 21
9.6698243511154942
 31
0.0
  0
ARC
  5
91E9
  8
0
 10
18.26329461291024
 20
9.7281211764868623
 30
0.0
 40
0.8044409367129516
 50
178.8732990000031
 51
184.5981099999978
  0
ARC
  5
91EA
  8
0
 10
-17.57167873900984
 20
9.7021450822623994
 30
0.0
 40
0.0423445122025528
210
0.0
220
0.0
230
-1.0
 50
325.61965500000082
 51
28.02068400000239
  0
ARC
  5
91EB
  8
0
 10
17.64293797569648
 20
9.7583662169977252
 30
0.0
 40
0.0081711095969866
 50
1.2188750000012081
 51
141.91122700000059
  0
ARC
  5
91EC
  8
0
 10
-17.595745232986712
 20
9.8175536362639324
 30
0.0
 40
0.0677747984295834
210
0.0
220
0.0
230
-1.0
 50
233.0272379999993
 51
258.08485299999933
  0
ARC
  5
91ED
  8
0
 10
17.611286933784111
 20
9.7348688188260422
 30
0.0
 40
0.0164441033535366
 50
95.403790999999785
 51
190.8564130000025
  0
ARC
  5
91EE
  8
0
 10
17.542816412093512
 20
9.8570992450543145
 30
0.0
 40
0.0802148543122774
 50
337.71441199999703
 51
9.6052040000027841
  0
ARC
  5
91EF
  8
0
 10
-17.322112034671228
 20
9.7867133011641272
 30
0.0
 40
0.2463355209924464
210
0.0
220
0.0
230
-1.0
 50
160.11919100000131
 51
181.4587560000019
  0
ARC
  5
91F0
  8
0
 10
-17.733849211274929
 20
9.7923067415240421
 30
0.0
 40
0.121761759094248
210
0.0
220
0.0
230
-1.0
 50
357.85241499999842
 51
16.397617999997738
  0
LINE
  5
91F1
  8
0
 10
17.598021179907018
 20
9.7415919804584465
 30
0.0
 11
17.598021179907018
 21
9.7415919804584465
 31
0.0
  0
LINE
  5
91F2
  8
0
 10
17.56836750382401
 20
9.7804430588869256
 30
0.0
 11
17.56799053243363
 21
9.7656451124544184
 31
0.0
  0
LINE
  5
91F3
  8
0
 10
17.56799053243363
 20
9.7656451124544184
 30
0.0
 11
17.612726411409952
 21
9.7729502066947518
 31
0.0
  0
LINE
  5
91F4
  8
0
 10
17.612726411409952
 20
9.7729502066947518
 30
0.0
 11
17.612171870484321
 21
9.7877437866636647
 31
0.0
  0
ARC
  5
91F5
  8
0
 10
17.698866557344829
 20
9.5863682897986564
 30
0.0
 40
0.1658455794493478
 50
135.5201810000006
 51
149.34263499999781
  0
ARC
  5
91F6
  8
0
 10
-17.48319380191699
 20
9.7694919672217111
 30
0.0
 40
0.1181274055738212
210
0.0
220
0.0
230
-1.0
 50
198.6215790000025
 51
214.50852300000159
  0
ARC
  5
91F7
  8
0
 10
-17.741149939051649
 20
9.8218123941335236
 30
0.0
 40
0.1100494472084356
210
0.0
220
0.0
230
-1.0
 50
288.03428599999961
 51
324.90418299999811
  0
ARC
  5
91F8
  8
0
 10
-17.375372706827012
 20
9.7576180961686916
 30
0.0
 40
0.2065846883947796
210
0.0
220
0.0
230
-1.0
 50
96.29390800000013
 51
126.3419160000003
  0
ARC
  5
91F9
  8
0
 10
17.703055451790881
 20
10.091654046225351
 30
0.0
 40
0.0061014056698554
 50
122.4711920000004
 51
311.26860299999788
  0
ARC
  5
91FA
  8
0
 10
17.649080135030161
 20
10.07692887419239
 30
0.0
 40
0.0336668927837366
 50
238.7994850000004
 51
269.30972299999962
  0
ARC
  5
91FB
  8
0
 10
17.801667674344319
 20
10.20848897846076
 30
0.0
 40
0.233843067541977
 50
203.8764569999976
 51
222.4805659999999
  0
ARC
  5
91FC
  8
0
 10
-17.541599624130729
 20
10.072467803491451
 30
0.0
 40
0.062043086710144
210
0.0
220
0.0
230
-1.0
 50
101.30993199999961
 51
138.1798300000018
  0
LINE
  5
91FD
  8
0
 10
17.648675509367909
 20
10.04326489238473
 30
0.0
 11
17.663630648503819
 21
10.043084411873441
 31
0.0
  0
LINE
  5
91FE
  8
0
 10
17.663630648503819
 20
10.043084411873441
 30
0.0
 11
17.673989356555438
 21
10.062890692492591
 31
0.0
  0
LINE
  5
91FF
  8
0
 10
17.658408357582189
 20
10.116270714663861
 30
0.0
 11
17.655213561435879
 21
10.11754863312216
 31
0.0
  0
LINE
  5
9200
  8
0
 10
17.655213561435879
 20
10.11754863312216
 30
0.0
 11
17.653702764898359
 21
10.12131106958622
 31
0.0
  0
LINE
  5
9201
  8
0
 10
17.653702764898359
 20
10.12131106958622
 30
0.0
 11
17.65110762980547
 21
10.1235714424406
 31
0.0
  0
LINE
  5
9202
  8
0
 10
17.63164047788889
 20
10.04813204423567
 30
0.0
 11
17.630659478981109
 21
10.048725883337269
 31
0.0
  0
ARC
  5
9203
  8
0
 10
17.646241933442329
 20
10.08585101559424
 30
0.0
 40
0.0327630347396096
 50
344.9315119999971
 51
68.198591000001144
  0
LINE
  5
9204
  8
0
 10
17.673989356555438
 20
10.062890692492591
 30
0.0
 11
17.677876964986769
 21
10.07733495534284
 31
0.0
  0
ARC
  5
9205
  8
0
 10
17.903465960116119
 20
9.9721701258413304
 30
0.0
 40
0.1058634637383726
 50
204.1325169999981
 51
243.07312100000109
  0
ARC
  5
9206
  8
0
 10
17.890602981393471
 20
9.7920646610966742
 30
0.0
 40
0.0475906008671706
 50
79.43378225686908
 51
114.5137970194357
  0
ARC
  5
9207
  8
0
 10
17.892028735461121
 20
9.9903346160033362
 30
0.0
 40
0.1183224409649856
 50
252.03086000000081
 51
277.0884759999995
  0
ARC
  5
9208
  8
0
 10
17.875836431530509
 20
9.8252764555588765
 30
0.0
 40
0.0112509221917896
 50
116.2683000299469
 51
232.4058030000005
  0
ARC
  5
9209
  8
0
 10
-17.848832762782209
 20
9.8145116663570153
 30
0.0
 40
0.0202240056733396
210
0.0
220
0.0
230
-1.0
 50
174.7547549999999
 51
226.21887499999909
  0
ARC
  5
920A
  8
0
 10
-17.803204669665739
 20
9.7548905116684601
 30
0.0
 40
0.0506087730311402
210
0.0
220
0.0
230
-1.0
 50
170.31121299999941
 51
207.18111099999879
  0
ARC
  5
920B
  8
0
 10
-17.834841156698179
 20
9.7573240875940357
 30
0.0
 40
0.019238640301562
210
0.0
220
0.0
230
-1.0
 50
124.6951540000011
 51
161.5650510000014
  0
ARC
  5
920C
  8
0
 10
17.867692976205412
 20
9.778009482961572
 30
0.0
 40
0.0224363474238598
 50
102.528807999999
 51
192.52880799999949
  0
ARC
  5
920D
  8
0
 10
-17.844574004912481
 20
9.689185417165838
 30
0.0
 40
0.0092670920562902
210
0.0
220
0.0
230
-1.0
 50
113.19859099999979
 51
203.1985909999978
  0
ARC
  5
920E
  8
0
 10
-17.960573487039412
 20
9.8903571457119543
 30
0.0
 40
0.286738412211319
210
0.0
220
0.0
230
-1.0
 50
303.5776790000013
 51
318.44049499999818
  0
ARC
  5
920F
  8
0
 10
17.87012655213098
 20
9.6636328699473761
 30
0.0
 40
0.0277459676251078
 50
127.8749840000016
 51
195.25511900000041
  0
ARC
  5
9210
  8
0
 10
17.87621049194491
 20
9.7147365088962907
 30
0.0
 40
0.0327630347396096
 50
148.6713069999989
 51
211.3286930000009
  0
LINE
  5
9211
  8
0
 10
18.029832883222639
 20
9.8304812806243262
 30
0.0
 11
18.037669230581049
 21
9.7904204290841719
 31
0.0
  0
LINE
  5
9212
  8
0
 10
18.038242692850591
 20
9.8621701652245921
 30
0.0
 11
18.029832883222639
 21
9.8304812806243262
 31
0.0
  0
LINE
  5
9213
  8
0
 10
18.041590315236249
 20
9.8826270489769286
 30
0.0
 11
18.038242692850591
 21
9.8621701652245921
 31
0.0
  0
ARC
  5
9214
  8
0
 10
-17.90784697897735
 20
9.8643999728310519
 30
0.0
 40
0.0086033895311342
210
0.0
220
0.0
230
-1.0
 50
81.869897999999509
 51
261.86989799999952
  0
ARC
  5
9215
  8
0
 10
-17.836057944660961
 20
9.8863021561612641
 30
0.0
 40
0.0790897620930986
210
0.0
220
0.0
230
-1.0
 50
202.61986499999699
 51
216.86989799999981
  0
ARC
  5
9216
  8
0
 10
-17.529604947574111
 20
9.7281211764868623
 30
0.0
 40
0.4639717297238703
210
0.0
220
0.0
230
-1.0
 50
137.2165990000006
 51
143.83848199999801
  0
ARC
  5
9217
  8
0
 10
17.76730942476355
 20
9.8400642135752552
 30
0.0
 40
0.192508664007096
 50
47.689770000002021
 51
68.299463000000586
  0
ARC
  5
9218
  8
0
 10
-17.860392248428681
 20
10.035964164608
 30
0.0
 40
0.0121678796278604
210
0.0
220
0.0
230
-1.0
 50
90.0
 51
143.13010200000019
  0
ARC
  5
9219
  8
0
 10
17.825106852995891
 20
9.9860758581337379
 30
0.0
 40
0.0354746088719904
 50
67.833654000001147
 51
112.1663459999987
  0
ARC
  5
921A
  8
0
 10
-17.783736062261159
 20
10.032313800719511
 30
0.0
 40
0.0310222710990688
210
0.0
220
0.0
230
-1.0
 50
205.55996499999949
 51
244.4400350000011
  0
ARC
  5
921B
  8
0
 10
-17.58175217141466
 20
10.287834906440811
 30
0.0
 40
0.356034195594385
210
0.0
220
0.0
230
-1.0
 50
232.7776379999994
 51
239.84222700000129
  0
ARC
  5
921C
  8
0
 10
-17.47710986210307
 20
10.321904969398689
 30
0.0
 40
0.444162538128753
210
0.0
220
0.0
230
-1.0
 50
230.33510599999889
 51
233.91492699999921
  0
ARC
  5
921D
  8
0
 10
17.94556595033572
 20
10.216045872124131
 30
0.0
 40
0.1950630454361502
 50
220.446232000002
 51
236.70643699999999
  0
ARC
  5
921E
  8
0
 10
-17.810505397442459
 20
10.204081760815811
 30
0.0
 40
0.076075446458015
210
0.0
220
0.0
230
-1.0
 50
254.22244200000071
 51
324.657627999998
  0
ARC
  5
921F
  8
0
 10
-17.710730239981999
 20
10.12316536129037
 30
0.0
 40
0.0183638920173102
210
0.0
220
0.0
230
-1.0
 50
136.78991099999729
 51
210.5297060000018
  0
ARC
  5
9220
  8
0
 10
-17.780085698372801
 20
10.064558681733381
 30
0.0
 40
0.0302057423345678
210
0.0
220
0.0
230
-1.0
 50
55.669783000000209
 51
124.33021699999939
  0
ARC
  5
9221
  8
0
 10
17.854308308614751
 20
10.072467803491451
 30
0.0
 40
0.025083880084515
 50
230.9061410000015
 51
284.03624299999922
  0
ARC
  5
9222
  8
0
 10
17.747232423377579
 20
9.9684338881613623
 30
0.0
 40
0.020977948454109
 50
253.1416009999995
 51
330.46121799999742
  0
ARC
  5
9223
  8
0
 10
-17.710382378351479
 20
9.9099421921557624
 30
0.0
 40
0.0983153030027166
210
0.0
220
0.0
230
-1.0
 50
149.0362429999995
 51
168.888733999999
  0
ARC
  5
9224
  8
0
 10
17.740845742060959
 20
9.9558089853035181
 30
0.0
 40
0.0074593759680364
 50
106.5873389999995
 51
272.3373059999999
  0
ARC
  5
9225
  8
0
 10
-17.795903941889009
 20
9.9520072506638808
 30
0.0
 40
0.0310222710990688
210
0.0
220
0.0
230
-1.0
 50
11.309932000002499
 51
48.179829999999427
  0
ARC
  5
9226
  8
0
 10
-17.755749939117081
 20
9.9288882793709927
 30
0.0
 40
0.0501692156570238
210
0.0
220
0.0
230
-1.0
 50
112.83365400000091
 51
140.90614099999971
  0
LINE
  5
9227
  8
0
 10
18.020273238079579
 20
10.012370704229159
 30
0.0
 11
18.040607860840449
 21
10.011091330282619
 31
0.0
  0
LINE
  5
9228
  8
0
 10
18.044019524697841
 20
10.15728054437613
 30
0.0
 11
18.032375620747739
 21
10.137002685647071
 31
0.0
  0
ARC
  5
9229
  8
0
 10
-17.87012655213098
 20
9.9812101617703703
 30
0.0
 40
0.0398570832212114
210
0.0
220
0.0
230
-1.0
 50
148.73626799999801
 51
192.3384419719857
  0
ARC
  5
922A
  8
0
 10
17.878644067870479
 20
9.947140098812266
 30
0.0
 40
0.0397275447897666
 50
40.031624428020287
 51
62.650123999999352
  0
LINE
  5
922B
  8
0
 10
17.96598062493625
 20
10.06984501412694
 30
0.0
 11
17.969802736407861
 21
10.050700980544651
 31
0.0
  0
LINE
  5
922C
  8
0
 10
17.969802736407861
 20
10.050700980544651
 30
0.0
 11
17.973156180745502
 21
10.0309718407891
 31
0.0
  0
LINE
  5
922D
  8
0
 10
17.973156180745502
 20
10.0309718407891
 30
0.0
 11
17.99879605724362
 21
10.014373455708419
 31
0.0
  0
LINE
  5
922E
  8
0
 10
17.970878342035249
 20
10.08577096375461
 30
0.0
 11
17.96598062493625
 21
10.06984501412694
 31
0.0
  0
LINE
  5
922F
  8
0
 10
18.00928721470267
 20
10.13278759241711
 30
0.0
 11
17.984666179800161
 21
10.131757106917339
 31
0.0
  0
LINE
  5
9230
  8
0
 10
17.984666179800161
 20
10.131757106917339
 30
0.0
 11
17.976182140284521
 21
10.15343368960861
 31
0.0
  0
LINE
  5
9231
  8
0
 10
17.900220221890031
 20
10.1482827175987
 30
0.0
 11
17.903289846068869
 21
10.13546423483762
 31
0.0
  0
LINE
  5
9232
  8
0
 10
17.903289846068869
 20
10.13546423483762
 30
0.0
 11
17.911632703249129
 21
10.12491485785903
 31
0.0
  0
LINE
  5
9233
  8
0
 10
17.911632703249129
 20
10.12491485785903
 30
0.0
 11
17.920605786730668
 21
10.114464454063629
 31
0.0
  0
LINE
  5
9234
  8
0
 10
17.920605786730668
 20
10.114464454063629
 30
0.0
 11
17.937979946912218
 21
10.117378341027219
 31
0.0
  0
LINE
  5
9235
  8
0
 10
17.937979946912218
 20
10.117378341027219
 30
0.0
 11
17.951047318120231
 21
10.112358362936661
 31
0.0
  0
LINE
  5
9236
  8
0
 10
17.951047318120231
 20
10.112358362936661
 30
0.0
 11
17.963143878836391
 21
10.099721816174441
 31
0.0
  0
LINE
  5
9237
  8
0
 10
17.963143878836391
 20
10.099721816174441
 30
0.0
 11
17.970878342035249
 21
10.08577096375461
 31
0.0
  0
LINE
  5
9238
  8
0
 10
17.99879605724362
 20
10.014373455708419
 30
0.0
 11
18.020273238079579
 21
10.012370704229159
 31
0.0
  0
LINE
  5
9239
  8
0
 10
18.032375620747739
 20
10.137002685647071
 30
0.0
 11
18.00928721470267
 21
10.13278759241711
 31
0.0
  0
ARC
  5
923A
  8
0
 10
17.62677332603775
 20
10.65225853483116
 30
0.0
 40
0.0952369458959074
 50
287.8562229999992
 51
355.23635800000221
  0
ARC
  5
923B
  8
0
 10
-30.192351948801921
 20
13.166711561752649
 30
0.0
 40
12.79985251475232
210
0.0
220
0.0
230
-1.0
 50
346.92944999999759
 51
347.62183800000122
  0
ARC
  5
923C
  8
0
 10
-17.44747321557406
 20
10.300871712400969
 30
0.0
 40
0.1959552595763272
210
0.0
220
0.0
230
-1.0
 50
127.19517800000079
 51
145.90113699999739
  0
ARC
  5
923D
  8
0
 10
17.612171870484321
 20
10.41559618704513
 30
0.0
 40
0.0054420696086806
 50
243.4349489999997
 51
26.56505100000237
  0
ARC
  5
923E
  8
0
 10
17.65406372592081
 20
10.449839453074659
 30
0.0
 40
0.124631981417949
 50
180.0799099999989
 51
205.5286220000001
  0
ARC
  5
923F
  8
0
 10
-17.224022332307559
 20
10.432631218524181
 30
0.0
 40
0.1606174665757504
210
0.0
220
0.0
230
-1.0
 50
167.753667000002
 51
198.4295387765639
  0
ARC
  5
9240
  8
0
 10
-20.740485691703419
 20
9.9483568867754002
 30
0.0
 40
3.3454711744005761
210
0.0
220
0.0
230
-1.0
 50
8.0156543690893525
 51
9.8425980000020008
  0
ARC
  5
9241
  8
0
 10
18.676845327554169
 20
11.118281047137989
 30
0.0
 40
1.345469111802633
 50
212.4612569999974
 51
221.27853800000011
  0
ARC
  5
9242
  8
0
 10
17.3321630443907
 20
10.426131786480481
 30
0.0
 40
0.09619915949456
 50
317.2386040915377
 51
353.272091005444
  0
LINE
  5
9243
  8
0
 10
17.651369300440841
 20
10.338541727814111
 30
0.0
 11
17.652993928979232
 21
10.334600736328181
 31
0.0
  0
LINE
  5
9244
  8
0
 10
17.640312224186239
 20
10.337055649935101
 30
0.0
 11
17.638927392506531
 21
10.34022799522676
 31
0.0
  0
LINE
  5
9245
  8
0
 10
17.655857963583792
 20
10.326657986733149
 30
0.0
 11
17.657079031069792
 21
10.32284498722265
 31
0.0
  0
LINE
  5
9246
  8
0
 10
17.656078175790221
 20
10.30340099092632
 30
0.0
 11
17.65550547774663
 21
10.303956103718059
 31
0.0
  0
LINE
  5
9247
  8
0
 10
17.652993928979232
 20
10.334600736328181
 30
0.0
 11
17.654493206456909
 21
10.33060802953468
 31
0.0
  0
LINE
  5
9248
  8
0
 10
17.654493206456909
 20
10.33060802953468
 30
0.0
 11
17.655857963583792
 21
10.326657986733149
 31
0.0
  0
LINE
  5
9249
  8
0
 10
17.65550547774663
 20
10.303956103718059
 30
0.0
 11
17.654877687208291
 21
10.304727436074471
 31
0.0
  0
LINE
  5
924A
  8
0
 10
17.654877687208291
 20
10.304727436074471
 30
0.0
 11
17.654183526985971
 21
10.30575208872459
 31
0.0
  0
LINE
  5
924B
  8
0
 10
17.654183526985971
 20
10.30575208872459
 30
0.0
 11
17.653411719890489
 21
10.30706716239956
 31
0.0
  0
LINE
  5
924C
  8
0
 10
17.653411719890489
 20
10.30706716239956
 30
0.0
 11
17.652550988732621
 21
10.30870975782863
 31
0.0
  0
LINE
  5
924D
  8
0
 10
17.652550988732621
 20
10.30870975782863
 30
0.0
 11
17.651593816096959
 21
10.310702623408121
 31
0.0
  0
LINE
  5
924E
  8
0
 10
17.651593816096959
 20
10.310702623408121
 30
0.0
 11
17.650547723663049
 21
10.313011098198089
 31
0.0
  0
LINE
  5
924F
  8
0
 10
17.650547723663049
 20
10.313011098198089
 30
0.0
 11
17.649423992884209
 21
10.315586168924471
 31
0.0
  0
LINE
  5
9250
  8
0
 10
17.649423992884209
 20
10.315586168924471
 30
0.0
 11
17.64823390521379
 21
10.31837882231388
 31
0.0
  0
LINE
  5
9251
  8
0
 10
17.64823390521379
 20
10.31837882231388
 30
0.0
 11
17.646988742105108
 21
10.321340045091789
 31
0.0
  0
LINE
  5
9252
  8
0
 10
17.646988742105108
 20
10.321340045091789
 30
0.0
 11
17.645699785011491
 21
10.32442082398461
 31
0.0
  0
LINE
  5
9253
  8
0
 10
17.645699785011491
 20
10.32442082398461
 30
0.0
 11
17.644378315386241
 21
10.327572145718699
 31
0.0
  0
LINE
  5
9254
  8
0
 10
17.644378315386241
 20
10.327572145718699
 30
0.0
 11
17.643035614682731
 21
10.33074499701956
 31
0.0
  0
LINE
  5
9255
  8
0
 10
17.643035614682731
 20
10.33074499701956
 30
0.0
 11
17.641680536645769
 21
10.333902416452011
 31
0.0
  0
LINE
  5
9256
  8
0
 10
17.641680536645769
 20
10.333902416452011
 30
0.0
 11
17.640312224186239
 21
10.337055649935101
 31
0.0
  0
LINE
  5
9257
  8
0
 10
17.644693270638321
 20
10.32644525121008
 30
0.0
 11
17.644693270638321
 21
10.32644525121008
 31
0.0
  0
LINE
  5
9258
  8
0
 10
17.657079031069792
 20
10.32284498722265
 30
0.0
 11
17.658147239624821
 21
10.319263410303391
 31
0.0
  0
LINE
  5
9259
  8
0
 10
17.658147239624821
 20
10.319263410303391
 30
0.0
 11
17.659053419958791
 21
10.316007635274429
 31
0.0
  0
LINE
  5
925A
  8
0
 10
17.659053419958791
 20
10.316007635274429
 30
0.0
 11
17.659788402781619
 21
10.31317204143601
 31
0.0
  0
LINE
  5
925B
  8
0
 10
17.659788402781619
 20
10.31317204143601
 30
0.0
 11
17.660347385030299
 21
10.310825478771211
 31
0.0
  0
LINE
  5
925C
  8
0
 10
17.660347385030299
 20
10.310825478771211
 30
0.0
 11
17.66074302855019
 21
10.30893467999794
 31
0.0
  0
LINE
  5
925D
  8
0
 10
17.66074302855019
 20
10.30893467999794
 30
0.0
 11
17.660992361413701
 21
10.30744084851881
 31
0.0
  0
LINE
  5
925E
  8
0
 10
17.660992361413701
 20
10.30744084851881
 30
0.0
 11
17.661112411693271
 21
10.30628518773482
 31
0.0
  0
LINE
  5
925F
  8
0
 10
17.661112411693271
 20
10.30628518773482
 30
0.0
 11
17.66112020746133
 21
10.30540890104907
 31
0.0
  0
LINE
  5
9260
  8
0
 10
17.66112020746133
 20
10.30540890104907
 30
0.0
 11
17.661032776790272
 21
10.30475319186325
 31
0.0
  0
LINE
  5
9261
  8
0
 10
17.661032776790272
 20
10.30475319186325
 30
0.0
 11
17.66086714775258
 21
10.304259263579061
 31
0.0
  0
LINE
  5
9262
  8
0
 10
17.66086714775258
 20
10.304259263579061
 30
0.0
 11
17.660640348420628
 21
10.30386831959844
 31
0.0
  0
LINE
  5
9263
  8
0
 10
17.660640348420628
 20
10.30386831959844
 30
0.0
 11
17.660367280489879
 21
10.303531855026669
 31
0.0
  0
LINE
  5
9264
  8
0
 10
17.660367280489879
 20
10.303531855026669
 30
0.0
 11
17.660054340147809
 21
10.303242531777631
 31
0.0
  0
LINE
  5
9265
  8
0
 10
17.660054340147809
 20
10.303242531777631
 30
0.0
 11
17.659705797204879
 21
10.303003303468801
 31
0.0
  0
LINE
  5
9266
  8
0
 10
17.659705797204879
 20
10.303003303468801
 30
0.0
 11
17.659325921471599
 21
10.30281712371788
 31
0.0
  0
LINE
  5
9267
  8
0
 10
17.659325921471599
 20
10.30281712371788
 30
0.0
 11
17.658918982758419
 21
10.302686946141179
 31
0.0
  0
LINE
  5
9268
  8
0
 10
17.658918982758419
 20
10.302686946141179
 30
0.0
 11
17.658489250875849
 21
10.3026157243571
 31
0.0
  0
LINE
  5
9269
  8
0
 10
17.658489250875849
 20
10.3026157243571
 30
0.0
 11
17.658040995634359
 21
10.30260641198196
 31
0.0
  0
LINE
  5
926A
  8
0
 10
17.658040995634359
 20
10.30260641198196
 30
0.0
 11
17.657578486844422
 21
10.30266196263301
 31
0.0
  0
LINE
  5
926B
  8
0
 10
17.657578486844422
 20
10.30266196263301
 30
0.0
 11
17.657103403149911
 21
10.30279102111353
 31
0.0
  0
LINE
  5
926C
  8
0
 10
17.657103403149911
 20
10.30279102111353
 30
0.0
 11
17.656607058528241
 21
10.303024996967901
 31
0.0
  0
LINE
  5
926D
  8
0
 10
17.656607058528241
 20
10.303024996967901
 30
0.0
 11
17.656078175790221
 21
10.30340099092632
 31
0.0
  0
LINE
  5
926E
  8
0
 10
17.63164047788889
 20
10.3669261240218
 30
0.0
 11
17.63430389370442
 21
10.36412776262727
 31
0.0
  0
LINE
  5
926F
  8
0
 10
17.63430389370442
 20
10.36412776262727
 30
0.0
 11
17.636844148798101
 21
10.361315460387001
 31
0.0
  0
LINE
  5
9270
  8
0
 10
17.636844148798101
 20
10.361315460387001
 30
0.0
 11
17.639263550061539
 21
10.358456855434939
 31
0.0
  0
LINE
  5
9271
  8
0
 10
17.639263550061539
 20
10.358456855434939
 30
0.0
 11
17.641564404386362
 21
10.35551958590553
 31
0.0
  0
LINE
  5
9272
  8
0
 10
17.641564404386362
 20
10.35551958590553
 30
0.0
 11
17.643749018664199
 21
10.35247128993228
 31
0.0
  0
LINE
  5
9273
  8
0
 10
17.643749018664199
 20
10.35247128993228
 30
0.0
 11
17.645819699786649
 21
10.349279605649359
 31
0.0
  0
LINE
  5
9274
  8
0
 10
17.645819699786649
 20
10.349279605649359
 30
0.0
 11
17.647778754645302
 21
10.345912171191451
 31
0.0
  0
LINE
  5
9275
  8
0
 10
17.647778754645302
 20
10.345912171191451
 30
0.0
 11
17.649628490131821
 21
10.3423366246925
 31
0.0
  0
LINE
  5
9276
  8
0
 10
17.649628490131821
 20
10.3423366246925
 30
0.0
 11
17.651369300440841
 21
10.338541727814111
 31
0.0
  0
LINE
  5
9277
  8
0
 10
17.638927392506531
 20
10.34022799522676
 30
0.0
 11
17.63752275680903
 21
10.343442750083559
 31
0.0
  0
LINE
  5
9278
  8
0
 10
17.63752275680903
 20
10.343442750083559
 30
0.0
 11
17.636095032296119
 21
10.346723212264109
 31
0.0
  0
LINE
  5
9279
  8
0
 10
17.636095032296119
 20
10.346723212264109
 30
0.0
 11
17.634640934170211
 21
10.350092679525231
 31
0.0
  0
LINE
  5
927A
  8
0
 10
17.634640934170211
 20
10.350092679525231
 30
0.0
 11
17.63315717763367
 21
10.353574449624359
 31
0.0
  0
LINE
  5
927B
  8
0
 10
17.63315717763367
 20
10.353574449624359
 30
0.0
 11
17.63164047788889
 21
10.35719182031948
 31
0.0
  0
LINE
  5
927C
  8
0
 10
17.63164047788889
 20
10.3669261240218
 30
0.0
 11
17.63093956660915
 21
10.367298072272879
 31
0.0
  0
LINE
  5
927D
  8
0
 10
17.63093956660915
 20
10.367298072272879
 30
0.0
 11
17.630510450655741
 21
10.366806978684041
 31
0.0
  0
LINE
  5
927E
  8
0
 10
17.630510450655741
 20
10.366806978684041
 30
0.0
 11
17.630317362548318
 21
10.3656574018596
 31
0.0
  0
LINE
  5
927F
  8
0
 10
17.630317362548318
 20
10.3656574018596
 30
0.0
 11
17.63032453480654
 21
10.36405390040226
 31
0.0
  0
LINE
  5
9280
  8
0
 10
17.63032453480654
 20
10.36405390040226
 30
0.0
 11
17.630496199950059
 21
10.36220103291588
 31
0.0
  0
LINE
  5
9281
  8
0
 10
17.630496199950059
 20
10.36220103291588
 30
0.0
 11
17.63079659049852
 21
10.36030335800409
 31
0.0
  0
LINE
  5
9282
  8
0
 10
17.63079659049852
 20
10.36030335800409
 30
0.0
 11
17.631189938971591
 21
10.358565434270981
 31
0.0
  0
LINE
  5
9283
  8
0
 10
17.631189938971591
 20
10.358565434270981
 30
0.0
 11
17.63164047788889
 21
10.35719182031948
 31
0.0
  0
ARC
  5
9284
  8
0
 10
17.267825243479852
 20
9.5139694060126203
 30
0.0
 40
1.0544632087935999
 50
72.610478999999856
 51
75.498730000000094
  0
ARC
  5
9285
  8
0
 10
-17.56091085269394
 20
11.07695370110172
 30
0.0
 40
0.5079187342075562
210
0.0
220
0.0
230
-1.0
 50
267.39120499999939
 51
275.78789220674309
  0
ARC
  5
9286
  8
0
 10
17.60240948615813
 20
10.92687658479689
 30
0.0
 40
0.3694509314281618
 50
256.3929548767112
 51
277.39035656052778
  0
ARC
  5
9287
  8
0
 10
17.554982836233371
 20
10.416812975008259
 30
0.0
 40
0.0416196791816588
 50
74.744880999999538
 51
127.8749840000016
  0
LINE
  5
9288
  8
0
 10
17.536732472279589
 20
10.476434129696591
 30
0.0
 11
17.543369497531131
 21
10.46707825287262
 31
0.0
  0
LINE
  5
9289
  8
0
 10
17.518793582756452
 20
10.5382195950317
 30
0.0
 11
17.53186532042843
 21
10.534839951910261
 31
0.0
  0
ARC
  5
928A
  8
0
 10
-17.527867094909571
 20
10.498384344130489
 30
0.0
 40
0.0864181441416962
210
0.0
220
0.0
230
-1.0
 50
14.64864200000166
 51
48.391215914724903
  0
ARC
  5
928B
  8
0
 10
17.46228426139859
 20
10.489109974634159
 30
0.0
 40
0.0901733031656052
 50
73.03881876547284
 51
140.05411400000079
  0
ARC
  5
928C
  8
0
 10
17.45764125469849
 20
10.50523095965309
 30
0.0
 40
0.0768381221667468
 50
147.0648840000004
 51
176.06521800000141
  0
LINE
  5
928D
  8
0
 10
17.380985068530968
 20
10.5105041926547
 30
0.0
 11
17.379983692791249
 21
10.495937668812751
 31
0.0
  0
LINE
  5
928E
  8
0
 10
17.379983692791249
 20
10.495937668812751
 30
0.0
 11
17.377887790080241
 21
10.48096943028508
 31
0.0
  0
LINE
  5
928F
  8
0
 10
17.497795257470429
 20
10.51293776858005
 30
0.0
 11
17.48630272427167
 21
10.520023084133751
 31
0.0
  0
ARC
  5
9290
  8
0
 10
-17.42752720810752
 20
10.39896723671631
 30
0.0
 40
0.1338917960342706
210
0.0
220
0.0
230
-1.0
 50
121.6558269999997
 51
144.64895300000001
  0
ARC
  5
9291
  8
0
 10
17.52083411308168
 20
10.69496561032906
 30
0.0
 40
0.1238437846381486
 50
254.92820235261081
 51
264.83689421914022
  0
ARC
  5
9292
  8
0
 10
17.498429026837371
 20
10.514328587705441
 30
0.0
 40
0.0561234118320286
 50
72.30057821114552
 51
119.8650034551282
  0
LINE
  5
9293
  8
0
 10
17.48630272427167
 20
10.520023084133751
 30
0.0
 11
17.518793582756452
 21
10.5382195950317
 31
0.0
  0
LINE
  5
9294
  8
0
 10
17.377887790080241
 20
10.48096943028508
 30
0.0
 11
17.380985068530968
 21
10.46670128148229
 31
0.0
  0
ARC
  5
9295
  8
0
 10
-17.574468723355839
 20
10.63752586541659
 30
0.0
 40
0.0686349918338974
210
0.0
220
0.0
230
-1.0
 50
211.95923899999781
 51
261.99302600000033
  0
ARC
  5
9296
  8
0
 10
-17.605085099442679
 20
10.576996706161699
 30
0.0
 40
0.0609150835149774
210
0.0
220
0.0
230
-1.0
 50
223.8814911584208
 51
291.28884900000031
  0
LINE
  5
9297
  8
0
 10
17.543369497531131
 20
10.46707825287262
 30
0.0
 11
17.559384231926511
 21
10.47267897067263
 31
0.0
  0
LINE
  5
9298
  8
0
 10
17.559384231926511
 20
10.47267897067263
 30
0.0
 11
17.5708010797496
 21
10.47156697784521
 31
0.0
  0
LINE
  5
9299
  8
0
 10
17.617039022335469
 20
10.41802976297048
 30
0.0
 11
17.615189097095399
 21
10.4217296134509
 31
0.0
  0
LINE
  5
929A
  8
0
 10
17.615189097095399
 20
10.4217296134509
 30
0.0
 11
17.61524003917518
 21
10.4261106323122
 31
0.0
  0
LINE
  5
929B
  8
0
 10
17.61524003917518
 20
10.4261106323122
 30
0.0
 11
17.614605446409879
 21
10.430197642598831
 31
0.0
  0
ARC
  5
929C
  8
0
 10
17.426287132336832
 20
10.38957642818081
 30
0.0
 40
0.2658550704768048
 50
7.2000759999996893
 51
33.103049558948548
  0
ARC
  5
929D
  8
0
 10
17.566037267546001
 20
10.422648026374871
 30
0.0
 40
0.0491518295493832
 50
8.8358109999969923
 51
84.437342999999785
  0
LINE
  5
929E
  8
0
 10
17.977928725877039
 20
10.43747217159147
 30
0.0
 11
17.943331776265289
 21
10.35688471235266
 31
0.0
  0
LINE
  5
929F
  8
0
 10
17.900979986622769
 20
10.40608020654189
 30
0.0
 11
17.91137217089824
 21
10.46857886099405
 31
0.0
  0
LINE
  5
92A0
  8
0
 10
17.859721268463559
 20
10.43137949884953
 30
0.0
 11
17.85338116276273
 21
10.39745352920294
 31
0.0
  0
ARC
  5
92A1
  8
0
 10
20.671630921182441
 20
10.64671021459889
 30
0.0
 40
2.8620031830002461
 50
182.19141899999829
 51
187.4244890000007
  0
LINE
  5
92A2
  8
0
 10
17.87932960271554
 20
10.348763089347569
 30
0.0
 11
17.883665501448959
 21
10.35914799618307
 31
0.0
  0
LINE
  5
92A3
  8
0
 10
17.85338116276273
 20
10.39745352920294
 30
0.0
 11
17.851337657619489
 21
10.385987194787949
 31
0.0
  0
LINE
  5
92A4
  8
0
 10
17.851337657619489
 20
10.385987194787949
 30
0.0
 11
17.85065503375041
 21
10.373538405977341
 31
0.0
  0
LINE
  5
92A5
  8
0
 10
17.85065503375041
 20
10.373538405977341
 30
0.0
 11
17.850605547158619
 21
10.372686945501069
 31
0.0
  0
LINE
  5
92A6
  8
0
 10
17.850605547158619
 20
10.372686945501069
 30
0.0
 11
17.85042070018342
 21
10.370052512232389
 31
0.0
  0
LINE
  5
92A7
  8
0
 10
17.85042070018342
 20
10.370052512232389
 30
0.0
 11
17.85073217461408
 21
10.368262261999909
 31
0.0
  0
LINE
  5
92A8
  8
0
 10
17.85073217461408
 20
10.368262261999909
 30
0.0
 11
17.850711797782161
 21
10.366474922743681
 31
0.0
  0
LINE
  5
92A9
  8
0
 10
17.850711797782161
 20
10.366474922743681
 30
0.0
 11
17.85058225935073
 21
10.355222545064169
 31
0.0
  0
LINE
  5
92AA
  8
0
 10
17.85058225935073
 20
10.355222545064169
 30
0.0
 11
17.87932960271554
 21
10.348763089347569
 31
0.0
  0
ARC
  5
92AB
  8
0
 10
-17.791036790037879
 20
10.26228381471037
 30
0.0
 40
0.0450211546230834
210
0.0
220
0.0
230
-1.0
 50
161.07535599999699
 51
198.9246440000025
  0
ARC
  5
92AC
  8
0
 10
17.874993703982121
 20
10.23794805545457
 30
0.0
 40
0.0425002494178854
 50
166.759479999999
 51
203.62937799999861
  0
ARC
  5
92AD
  8
0
 10
-17.707854195706311
 20
10.126558103803511
 30
0.0
 40
0.1591823554138998
210
0.0
220
0.0
230
-1.0
 50
143.64770099999751
 51
160.55775699999791
  0
LINE
  5
92AE
  8
0
 10
17.9345100635351
 20
10.293889736494741
 30
0.0
 11
17.910426103702289
 21
10.240126920981069
 31
0.0
  0
LINE
  5
92AF
  8
0
 10
17.943331776265289
 20
10.35688471235266
 30
0.0
 11
17.9345100635351
 21
10.293889736494741
 31
0.0
  0
LINE
  5
92B0
  8
0
 10
17.883665501448959
 20
10.35914799618307
 30
0.0
 11
17.893276088671779
 21
10.38216508331629
 31
0.0
  0
LINE
  5
92B1
  8
0
 10
17.893276088671779
 20
10.38216508331629
 30
0.0
 11
17.900979986622769
 21
10.40608020654189
 31
0.0
  0
LINE
  5
92B2
  8
0
 10
17.979197911407599
 20
10.174838096044811
 30
0.0
 11
17.986265761105319
 21
10.20215469471167
 31
0.0
  0
LINE
  5
92B3
  8
0
 10
17.897678939852909
 20
10.175935533992281
 30
0.0
 11
17.88166857192153
 21
10.17063755769481
 31
0.0
  0
LINE
  5
92B4
  8
0
 10
17.88166857192153
 20
10.17063755769481
 30
0.0
 11
17.89063292247511
 21
10.16202834621185
 31
0.0
  0
LINE
  5
92B5
  8
0
 10
17.986265761105319
 20
10.20215469471167
 30
0.0
 11
18.005734368509899
 21
10.227429243723449
 31
0.0
  0
LINE
  5
92B6
  8
0
 10
17.910426103702289
 20
10.240126920981069
 30
0.0
 11
17.897678939852909
 21
10.175935533992281
 31
0.0
  0
LINE
  5
92B7
  8
0
 10
18.005734368509899
 20
10.227429243723449
 30
0.0
 11
18.032393086603651
 21
10.288456399814089
 31
0.0
  0
LINE
  5
92B8
  8
0
 10
17.882198369551251
 20
10.631328617480889
 30
0.0
 11
17.87987249973721
 21
10.631781274247031
 31
0.0
  0
ARC
  5
92B9
  8
0
 10
-17.837274732623751
 20
10.65530050473807
 30
0.0
 40
0.0138737115565508
210
0.0
220
0.0
230
-1.0
 50
142.1250160000013
 51
195.25511900000041
  0
LINE
  5
92BA
  8
0
 10
17.87987249973721
 20
10.631781274247031
 30
0.0
 11
17.87644337002391
 21
10.63296749696201
 31
0.0
  0
LINE
  5
92BB
  8
0
 10
17.87644337002391
 20
10.63296749696201
 30
0.0
 11
17.875043190573901
 21
10.632027251717769
 31
0.0
  0
LINE
  5
92BC
  8
0
 10
17.875043190573901
 20
10.632027251717769
 30
0.0
 11
17.870884861375728
 21
10.631765263878821
 31
0.0
  0
LINE
  5
92BD
  8
0
 10
17.870884861375728
 20
10.631765263878821
 30
0.0
 11
17.86803501588394
 21
10.631864237062461
 31
0.0
  0
LINE
  5
92BE
  8
0
 10
17.86803501588394
 20
10.631864237062461
 30
0.0
 11
17.863994581213259
 21
10.630819196682969
 31
0.0
  0
LINE
  5
92BF
  8
0
 10
17.863994581213259
 20
10.630819196682969
 30
0.0
 11
17.863972748893339
 21
10.62876986958803
 31
0.0
  0
LINE
  5
92C0
  8
0
 10
17.863972748893339
 20
10.62876986958803
 30
0.0
 11
17.862376078564189
 21
10.624947758116139
 31
0.0
  0
LINE
  5
92C1
  8
0
 10
17.862376078564189
 20
10.624947758116139
 30
0.0
 11
17.861537717479781
 21
10.62225656081568
 31
0.0
  0
LINE
  5
92C2
  8
0
 10
17.861537717479781
 20
10.62225656081568
 30
0.0
 11
17.85875482443571
 21
10.618042923073499
 31
0.0
  0
LINE
  5
92C3
  8
0
 10
17.85875482443571
 20
10.618042923073499
 30
0.0
 11
17.860367505132789
 21
10.6154012123652
 31
0.0
  0
LINE
  5
92C4
  8
0
 10
17.860367505132789
 20
10.6154012123652
 30
0.0
 11
17.861264085736948
 21
10.59149773304352
 31
0.0
  0
LINE
  5
92C5
  8
0
 10
17.861264085736948
 20
10.59149773304352
 30
0.0
 11
17.86260167920323
 21
10.56989538024003
 31
0.0
  0
LINE
  5
92C6
  8
0
 10
17.86260167920323
 20
10.56989538024003
 30
0.0
 11
17.865236112471941
 21
10.524529274962321
 31
0.0
  0
LINE
  5
92C7
  8
0
 10
17.865236112471941
 20
10.524529274962321
 30
0.0
 11
17.86589108206913
 21
10.50069129260077
 31
0.0
  0
ARC
  5
92C8
  8
0
 10
17.843357216949691
 20
10.62488080566845
 30
0.0
 40
0.0277459676251078
 50
127.8749840000016
 51
164.74488099999951
  0
LINE
  5
92C9
  8
0
 10
17.723855456578129
 20
10.64941327198493
 30
0.0
 11
17.723855456578129
 21
10.64941327198493
 31
0.0
  0
ARC
  5
92CA
  8
0
 10
18.193787783768091
 20
10.56525819549187
 30
0.0
 40
0.3830888064224554
 50
169.93931000000191
 51
184.18934299999751
  0
ARC
  5
92CB
  8
0
 10
17.86890976416819
 20
10.49711952506413
 30
0.0
 40
0.1556033104372362
 50
96.736010999999706
 51
105.8838539999997
  0
LINE
  5
92CC
  8
0
 10
17.863064524385241
 20
10.454079289600481
 30
0.0
 11
17.859721268463559
 21
10.43137949884953
 31
0.0
  0
LINE
  5
92CD
  8
0
 10
17.86589108206913
 20
10.50069129260077
 30
0.0
 11
17.863064524385241
 21
10.454079289600481
 31
0.0
  0
LINE
  5
92CE
  8
0
 10
18.04047395594505
 20
10.542140679687
 30
0.0
 11
18.035056629632251
 21
10.544344288509359
 31
0.0
  0
ARC
  5
92CF
  8
0
 10
-18.036612546297579
 20
10.58705558368637
 30
0.0
 40
0.0892738115854596
210
0.0
220
0.0
230
-1.0
 50
284.86799099999968
 51
353.02238199999681
  0
LINE
  5
92D0
  8
0
 10
17.99919049448993
 20
10.47347803358138
 30
0.0
 11
18.007597393141921
 21
10.48209743348024
 31
0.0
  0
ARC
  5
92D1
  8
0
 10
17.994953878172769
 20
10.470948602340499
 30
0.0
 40
0.0168568949263376
 50
41.405285992195509
 51
165.1775633013595
  0
ARC
  5
92D2
  8
0
 10
-17.910059320727871
 20
10.663042245376801
 30
0.0
 40
0.0696974980693446
210
0.0
220
0.0
230
-1.0
 50
200.56829398561311
 51
210.83899700000109
  0
ARC
  5
92D3
  8
0
 10
18.275397473773239
 20
10.799925125759721
 30
0.0
 40
0.3407201125343774
 50
205.34315814419199
 51
215.8151843503623
  0
ARC
  5
92D4
  8
0
 10
17.960976085967101
 20
10.627713354021569
 30
0.0
 40
0.0089352421494932
 50
357.43450161877962
 51
129.43210283820571
  0
ARC
  5
92D5
  8
0
 10
-17.996427978277769
 20
10.599815846927861
 30
0.0
 40
0.0538748880891448
210
0.0
220
0.0
230
-1.0
 50
334.01367400000089
 51
40.236357999997693
  0
LINE
  5
92D6
  8
0
 10
17.910482867734039
 20
10.50731667394802
 30
0.0
 11
17.906467176359261
 21
10.56685632130916
 31
0.0
  0
LINE
  5
92D7
  8
0
 10
17.906467176359261
 20
10.56685632130916
 30
0.0
 11
17.904716224302749
 21
10.588173398465861
 31
0.0
  0
LINE
  5
92D8
  8
0
 10
17.904716224302749
 20
10.588173398465861
 30
0.0
 11
17.899454635205309
 21
10.609167357287779
 31
0.0
  0
LINE
  5
92D9
  8
0
 10
17.899454635205309
 20
10.609167357287779
 30
0.0
 11
17.899364394949689
 21
10.60953705123824
 31
0.0
  0
LINE
  5
92DA
  8
0
 10
17.899364394949689
 20
10.60953705123824
 30
0.0
 11
17.898670127176668
 21
10.612411640025799
 31
0.0
  0
LINE
  5
92DB
  8
0
 10
17.898670127176668
 20
10.612411640025799
 30
0.0
 11
17.897411130062071
 21
10.61471131105576
 31
0.0
  0
LINE
  5
92DC
  8
0
 10
17.897411130062071
 20
10.61471131105576
 30
0.0
 11
17.895600502997819
 21
10.619319386044021
 31
0.0
  0
LINE
  5
92DD
  8
0
 10
17.895600502997819
 20
10.619319386044021
 30
0.0
 11
17.893832085085389
 21
10.621058694197011
 31
0.0
  0
LINE
  5
92DE
  8
0
 10
17.893832085085389
 20
10.621058694197011
 30
0.0
 11
17.891691062246569
 21
10.62431316535071
 31
0.0
  0
LINE
  5
92DF
  8
0
 10
17.891691062246569
 20
10.62431316535071
 30
0.0
 11
17.89038403402817
 21
10.62519955753918
 31
0.0
  0
LINE
  5
92E0
  8
0
 10
17.89038403402817
 20
10.62519955753918
 30
0.0
 11
17.887804909303231
 21
10.627815069463839
 31
0.0
  0
LINE
  5
92E1
  8
0
 10
17.887804909303231
 20
10.627815069463839
 30
0.0
 11
17.885815257215761
 21
10.628788790931591
 31
0.0
  0
LINE
  5
92E2
  8
0
 10
17.885815257215761
 20
10.628788790931591
 30
0.0
 11
17.882198369551251
 21
10.631328617480889
 31
0.0
  0
LINE
  5
92E3
  8
0
 10
17.978071363700419
 20
10.466170028364781
 30
0.0
 11
17.97756776485458
 21
10.45190770151361
 31
0.0
  0
LINE
  5
92E4
  8
0
 10
17.97756776485458
 20
10.45190770151361
 30
0.0
 11
17.977928725877039
 21
10.43747217159147
 31
0.0
  0
LINE
  5
92E5
  8
0
 10
17.978657925361919
 20
10.47526100637355
 30
0.0
 11
17.978071363700419
 21
10.466170028364781
 31
0.0
  0
ARC
  5
92E6
  8
0
 10
18.004445564995262
 20
10.464867503027101
 30
0.0
 40
0.0100874675929062
 50
121.39602558081189
 51
235.9605520503797
  0
LINE
  5
92E7
  8
0
 10
17.91137217089824
 20
10.46857886099405
 30
0.0
 11
17.910482867734039
 21
10.50731667394802
 31
0.0
  0
ARC
  5
92E8
  8
0
 10
-18.05733578435278
 20
10.6368740267369
 30
0.0
 40
0.0686349918338974
210
0.0
220
0.0
230
-1.0
 50
278.0069739999995
 51
328.04076100000208
  0
ARC
  5
92E9
  8
0
 10
18.032304301836032
 20
10.59480896822947
 30
0.0
 40
0.0336916360796306
 50
170.1975030000022
 51
245.9474710000006
  0
ARC
  5
92EA
  8
0
 10
18.00916537796229
 20
10.51289449381942
 30
0.0
 40
0.0573309938490632
 50
259.58265735866331
 51
297.30588215302879
  0
ARC
  5
92EB
  8
0
 10
18.386741827101272
 20
9.8481654597485431
 30
0.0
 40
0.3562277754975556
 50
51.07805153336394
 51
74.69865720946278
  0
LINE
  5
92EC
  8
0
 10
18.217366689267031
 20
10.16426979772222
 30
0.0
 11
18.238624091415961
 21
10.15787729445332
 31
0.0
  0
LINE
  5
92ED
  8
0
 10
18.130431846887561
 20
10.1328821991367
 30
0.0
 11
18.191924759136061
 21
10.163381950046171
 31
0.0
  0
LINE
  5
92EE
  8
0
 10
18.394505400060002
 20
10.147864992544321
 30
0.0
 11
18.3546701491587
 21
10.165891211347111
 31
0.0
  0
LINE
  5
92EF
  8
0
 10
18.389727032976481
 20
10.06941418968062
 30
0.0
 11
18.396924421105641
 21
10.0769201412645
 31
0.0
  0
LINE
  5
92F0
  8
0
 10
18.39334328528636
 20
10.00896220435242
 30
0.0
 11
18.392496057190939
 21
10.010080501451499
 31
0.0
  0
LINE
  5
92F1
  8
0
 10
18.392450453795639
 20
9.9731222689415464
 30
0.0
 11
18.393007333120021
 21
9.9715639790538262
 31
0.0
  0
ARC
  5
92F2
  8
0
 10
16.080259113144599
 20
10.65286692881249
 30
0.0
 40
2.4638937404821539
 50
339.2022019999992
 51
340.34807899999799
  0
LINE
  5
92F3
  8
0
 10
18.391493017494909
 20
9.9338308020001023
 30
0.0
 11
18.394117598739751
 21
9.9306234015741666
 31
0.0
  0
LINE
  5
92F4
  8
0
 10
18.393574781788871
 20
9.9041963789752501
 30
0.0
 11
18.391187524210221
 21
9.906849795654578
 31
0.0
  0
LINE
  5
92F5
  8
0
 10
18.286058445132699
 20
9.9051973012963064
 30
0.0
 11
18.30261171008576
 21
9.8888740034462863
 31
0.0
  0
LINE
  5
92F6
  8
0
 10
18.215628836602491
 20
9.8938619608009049
 30
0.0
 11
18.18955085821824
 21
9.9069249655449241
 31
0.0
  0
LINE
  5
92F7
  8
0
 10
18.0893041226478
 20
9.9012412849292541
 30
0.0
 11
18.103821159897588
 21
9.9084124742744262
 31
0.0
  0
LINE
  5
92F8
  8
0
 10
18.066522824569411
 20
9.9775292326344243
 30
0.0
 11
18.070654954983709
 21
9.9008570360988344
 31
0.0
  0
LINE
  5
92F9
  8
0
 10
18.236175960610439
 20
9.881976445843744
 30
0.0
 11
18.215628836602491
 21
9.8938619608009049
 31
0.0
  0
ARC
  5
92FA
  8
0
 10
-18.214726434046359
 20
9.7299012383034498
 30
0.0
 40
0.0337338452314498
210
0.0
220
0.0
230
-1.0
 50
24.592019000001031
 51
112.9069699999996
  0
LINE
  5
92FB
  8
0
 10
18.187327553639289
 20
9.8480161689424222
 30
0.0
 11
18.18892063191694
 21
9.8485817293148941
 31
0.0
  0
LINE
  5
92FC
  8
0
 10
18.18892063191694
 20
9.8485817293148941
 30
0.0
 11
18.189822545520059
 21
9.8492051813427643
 31
0.0
  0
LINE
  5
92FD
  8
0
 10
18.189822545520059
 20
9.8492051813427643
 30
0.0
 11
18.190309167462988
 21
9.8501512229540822
 31
0.0
  0
LINE
  5
92FE
  8
0
 10
18.190309167462988
 20
9.8501512229540822
 30
0.0
 11
18.190459298775341
 21
9.8513433216330615
 31
0.0
  0
LINE
  5
92FF
  8
0
 10
18.190459298775341
 20
9.8513433216330615
 30
0.0
 11
18.1903517404868
 21
9.8527049448655362
 31
0.0
  0
LINE
  5
9300
  8
0
 10
18.1903517404868
 20
9.8527049448655362
 30
0.0
 11
18.190065293627029
 21
9.8541595601345762
 31
0.0
  0
LINE
  5
9301
  8
0
 10
18.190065293627029
 20
9.8541595601345762
 30
0.0
 11
18.189678759225679
 21
9.855630634926678
 31
0.0
  0
LINE
  5
9302
  8
0
 10
18.189678759225679
 20
9.855630634926678
 30
0.0
 11
18.189270938312429
 21
9.8570416367260805
 31
0.0
  0
LINE
  5
9303
  8
0
 10
18.189270938312429
 20
9.8570416367260805
 30
0.0
 11
18.18892063191694
 21
9.8583160330174398
 31
0.0
  0
LINE
  5
9304
  8
0
 10
18.18892063191694
 20
9.8583160330174398
 30
0.0
 11
18.188633707712071
 21
9.8595201233631542
 31
0.0
  0
LINE
  5
9305
  8
0
 10
18.188633707712071
 20
9.8595201233631542
 30
0.0
 11
18.188371960322449
 21
9.860704792041588
 31
0.0
  0
LINE
  5
9306
  8
0
 10
18.188371960322449
 20
9.860704792041588
 30
0.0
 11
18.188121882421552
 21
9.8618784535919968
 31
0.0
  0
LINE
  5
9307
  8
0
 10
18.188121882421552
 20
9.8618784535919968
 30
0.0
 11
18.187869966682769
 21
9.8630495225545438
 31
0.0
  0
LINE
  5
9308
  8
0
 10
18.187869966682769
 20
9.8630495225545438
 30
0.0
 11
18.187602705779561
 21
9.8642264134684865
 31
0.0
  0
LINE
  5
9309
  8
0
 10
18.187602705779561
 20
9.8642264134684865
 30
0.0
 11
18.187306592385351
 21
9.8654175408746561
 31
0.0
  0
LINE
  5
930A
  8
0
 10
18.187306592385351
 20
9.8654175408746561
 30
0.0
 11
18.186968119173571
 21
9.8666313193130009
 31
0.0
  0
LINE
  5
930B
  8
0
 10
18.186968119173571
 20
9.8666313193130009
 30
0.0
 11
18.18657377881766
 21
9.8678761633229861
 31
0.0
  0
LINE
  5
930C
  8
0
 10
18.18657377881766
 20
9.8678761633229861
 30
0.0
 11
18.18611812271347
 21
9.8691549791426461
 31
0.0
  0
LINE
  5
930D
  8
0
 10
18.18648528780087
 20
9.8797930162820649
 30
0.0
 11
18.187252278804088
 21
9.8802023310604401
 31
0.0
  0
LINE
  5
930E
  8
0
 10
18.187252278804088
 20
9.8802023310604401
 30
0.0
 11
18.18802377272328
 21
9.8806460829121061
 31
0.0
  0
LINE
  5
930F
  8
0
 10
18.18802377272328
 20
9.8806460829121061
 30
0.0
 11
18.188765622445601
 21
9.8811562783594056
 31
0.0
  0
LINE
  5
9310
  8
0
 10
18.188765622445601
 20
9.8811562783594056
 30
0.0
 11
18.189447269830069
 21
9.8817572503942301
 31
0.0
  0
LINE
  5
9311
  8
0
 10
18.189447269830069
 20
9.8817572503942301
 30
0.0
 11
18.19005251262308
 21
9.882442637890108
 31
0.0
  0
LINE
  5
9312
  8
0
 10
18.19005251262308
 20
9.882442637890108
 30
0.0
 11
18.190568737542989
 21
9.8831984061903224
 31
0.0
  0
LINE
  5
9313
  8
0
 10
18.190568737542989
 20
9.8831984061903224
 30
0.0
 11
18.190983331308111
 21
9.8840105206377302
 31
0.0
  0
LINE
  5
9314
  8
0
 10
18.190983331308111
 20
9.8840105206377302
 30
0.0
 11
18.19128368063668
 21
9.8848649465762701
 31
0.0
  0
LINE
  5
9315
  8
0
 10
18.19128368063668
 20
9.8848649465762701
 30
0.0
 11
18.19145717224707
 21
9.885747649348783
 31
0.0
  0
LINE
  5
9316
  8
0
 10
18.19145717224707
 20
9.885747649348783
 30
0.0
 11
18.191491192857551
 21
9.8866445942987831
 31
0.0
  0
LINE
  5
9317
  8
0
 10
18.191491192857551
 20
9.8866445942987831
 30
0.0
 11
18.191373129186442
 21
9.8875417467693261
 31
0.0
  0
LINE
  5
9318
  8
0
 10
18.191373129186442
 20
9.8875417467693261
 30
0.0
 11
18.191095955377119
 21
9.8884236090354918
 31
0.0
  0
LINE
  5
9319
  8
0
 10
18.191095955377119
 20
9.8884236090354918
 30
0.0
 11
18.190674995273419
 21
9.8892688310968424
 31
0.0
  0
LINE
  5
931A
  8
0
 10
18.190674995273419
 20
9.8892688310968424
 30
0.0
 11
18.190131160144251
 21
9.8900545998849321
 31
0.0
  0
LINE
  5
931B
  8
0
 10
18.190131160144251
 20
9.8900545998849321
 30
0.0
 11
18.189485361258519
 21
9.8907581023315743
 31
0.0
  0
LINE
  5
931C
  8
0
 10
18.189485361258519
 20
9.8907581023315743
 30
0.0
 11
18.18875850988514
 21
9.891356525367426
 31
0.0
  0
LINE
  5
931D
  8
0
 10
18.18875850988514
 20
9.891356525367426
 30
0.0
 11
18.187971517293018
 21
9.8918270559240664
 31
0.0
  0
LINE
  5
931E
  8
0
 10
18.187971517293018
 20
9.8918270559240664
 30
0.0
 11
18.187145294751051
 21
9.8921468809328381
 31
0.0
  0
LINE
  5
931F
  8
0
 10
18.187145294751051
 20
9.8921468809328381
 30
0.0
 11
18.186300753528158
 21
9.8922931873248583
 31
0.0
  0
LINE
  5
9320
  8
0
 10
18.111884563383029
 20
9.8247612128088804
 30
0.0
 11
18.113329862960839
 21
9.842644793788164
 31
0.0
  0
LINE
  5
9321
  8
0
 10
18.14054748844422
 20
9.714743786336383
 30
0.0
 11
18.126258962809441
 21
9.7470308765020945
 31
0.0
  0
LINE
  5
9322
  8
0
 10
18.126258962809441
 20
9.7470308765020945
 30
0.0
 11
18.12399422349116
 21
9.7780662469933741
 31
0.0
  0
LINE
  5
9323
  8
0
 10
18.12399422349116
 20
9.7780662469933741
 30
0.0
 11
18.117748724509909
 21
9.8024180166164498
 31
0.0
  0
LINE
  5
9324
  8
0
 10
18.117748724509909
 20
9.8024180166164498
 30
0.0
 11
18.111884563383029
 21
9.8247612128088804
 31
0.0
  0
LINE
  5
9325
  8
0
 10
18.067390295413698
 20
9.7524642131827441
 30
0.0
 11
18.10338742447545
 21
9.7145618503373043
 31
0.0
  0
LINE
  5
9326
  8
0
 10
18.113329862960839
 20
9.842644793788164
 30
0.0
 11
18.120562182801859
 21
9.8503312258835596
 31
0.0
  0
LINE
  5
9327
  8
0
 10
18.120562182801859
 20
9.8503312258835596
 30
0.0
 11
18.12519447367788
 21
9.8602923671251101
 31
0.0
  0
LINE
  5
9328
  8
0
 10
18.125375481597231
 20
9.8602139893610001
 30
0.0
 11
18.108407402565931
 21
9.8675612927536296
 31
0.0
  0
LINE
  5
9329
  8
0
 10
18.108407402565931
 20
9.8675612927536296
 30
0.0
 11
18.089730580629968
 21
9.8641612728001746
 31
0.0
  0
LINE
  5
932A
  8
0
 10
18.089730580629968
 20
9.8641612728001746
 30
0.0
 11
18.07365908220283
 21
9.8691492301547878
 31
0.0
  0
LINE
  5
932B
  8
0
 10
18.07365908220283
 20
9.8691492301547878
 30
0.0
 11
18.074918079317442
 21
9.8892422419089563
 31
0.0
  0
LINE
  5
932C
  8
0
 10
18.074918079317442
 20
9.8892422419089563
 30
0.0
 11
18.0893041226478
 21
9.9012412849292541
 31
0.0
  0
LINE
  5
932D
  8
0
 10
18.070654954983709
 20
9.9008570360988344
 30
0.0
 11
18.063955343748411
 21
9.8982124144145001
 31
0.0
  0
LINE
  5
932E
  8
0
 10
18.063955343748411
 20
9.8982124144145001
 30
0.0
 11
18.064729663361089
 21
9.8866310964476725
 31
0.0
  0
LINE
  5
932F
  8
0
 10
18.179426483733611
 20
9.8877554609230121
 30
0.0
 11
18.178527016316849
 21
9.8867007466653778
 31
0.0
  0
LINE
  5
9330
  8
0
 10
18.178527016316849
 20
9.8867007466653778
 30
0.0
 11
18.177628512592321
 21
9.8855823946064394
 31
0.0
  0
LINE
  5
9331
  8
0
 10
18.177628512592321
 20
9.8855823946064394
 30
0.0
 11
18.176746536616221
 21
9.8844084724705681
 31
0.0
  0
LINE
  5
9332
  8
0
 10
18.176746536616221
 20
9.8844084724705681
 30
0.0
 11
18.175896652444749
 21
9.8831870479827941
 31
0.0
  0
LINE
  5
9333
  8
0
 10
18.175896652444749
 20
9.8831870479827941
 30
0.0
 11
18.175094424134059
 21
9.8819261888666006
 31
0.0
  0
LINE
  5
9334
  8
0
 10
18.175094424134059
 20
9.8819261888666006
 30
0.0
 11
18.174355415740351
 21
9.8806339628476945
 31
0.0
  0
LINE
  5
9335
  8
0
 10
18.174355415740351
 20
9.8806339628476945
 30
0.0
 11
18.173695191319808
 21
9.8793184376495429
 31
0.0
  0
LINE
  5
9336
  8
0
 10
18.173695191319808
 20
9.8793184376495429
 30
0.0
 11
18.173129314928602
 21
9.8779876809967302
 31
0.0
  0
LINE
  5
9337
  8
0
 10
18.173129314928602
 20
9.8779876809967302
 30
0.0
 11
18.172668375810449
 21
9.876648414572168
 31
0.0
  0
LINE
  5
9338
  8
0
 10
18.172668375810449
 20
9.876648414572168
 30
0.0
 11
18.172303063959149
 21
9.8753019758894425
 31
0.0
  0
LINE
  5
9339
  8
0
 10
18.172303063959149
 20
9.8753019758894425
 30
0.0
 11
18.172019094555981
 21
9.8739483564199837
 31
0.0
  0
LINE
  5
933A
  8
0
 10
18.172019094555981
 20
9.8739483564199837
 30
0.0
 11
18.171802182782301
 21
9.8725875476359235
 31
0.0
  0
LINE
  5
933B
  8
0
 10
18.171802182782301
 20
9.8725875476359235
 30
0.0
 11
18.171638043819371
 21
9.8712195410091681
 31
0.0
  0
LINE
  5
933C
  8
0
 10
18.171638043819371
 20
9.8712195410091681
 30
0.0
 11
18.17151239284853
 21
9.8698443280106822
 31
0.0
  0
LINE
  5
933D
  8
0
 10
18.17151239284853
 20
9.8698443280106822
 30
0.0
 11
18.1714109450511
 21
9.868461900113056
 31
0.0
  0
LINE
  5
933E
  8
0
 10
18.1714109450511
 20
9.868461900113056
 30
0.0
 11
18.171319415608359
 21
9.8670722487875064
 31
0.0
  0
LINE
  5
933F
  8
0
 10
18.171319415608359
 20
9.8670722487875064
 30
0.0
 11
18.171228603486199
 21
9.8656761093593541
 31
0.0
  0
LINE
  5
9340
  8
0
 10
18.171228603486199
 20
9.8656761093593541
 30
0.0
 11
18.171149642788741
 21
9.8642771925638044
 31
0.0
  0
LINE
  5
9341
  8
0
 10
18.171149642788741
 20
9.8642771925638044
 30
0.0
 11
18.171098751404681
 21
9.862879952991074
 31
0.0
  0
LINE
  5
9342
  8
0
 10
18.171098751404681
 20
9.862879952991074
 30
0.0
 11
18.171092147222659
 21
9.861488845230264
 31
0.0
  0
LINE
  5
9343
  8
0
 10
18.171092147222659
 20
9.861488845230264
 30
0.0
 11
18.171146048131391
 21
9.8601083238704632
 31
0.0
  0
LINE
  5
9344
  8
0
 10
18.171146048131391
 20
9.8601083238704632
 30
0.0
 11
18.171276672019541
 21
9.8587428435002895
 31
0.0
  0
LINE
  5
9345
  8
0
 10
18.171276672019541
 20
9.8587428435002895
 30
0.0
 11
18.171500236775799
 21
9.8573968587097625
 31
0.0
  0
LINE
  5
9346
  8
0
 10
18.171500236775799
 20
9.8573968587097625
 30
0.0
 11
18.171832960288821
 21
9.8560748240879512
 31
0.0
  0
LINE
  5
9347
  8
0
 10
18.171832960288821
 20
9.8560748240879512
 30
0.0
 11
18.17228679182131
 21
9.8547833101777034
 31
0.0
  0
LINE
  5
9348
  8
0
 10
18.17228679182131
 20
9.8547833101777034
 30
0.0
 11
18.172856606131941
 21
9.8535373513359445
 31
0.0
  0
LINE
  5
9349
  8
0
 10
18.172856606131941
 20
9.8535373513359445
 30
0.0
 11
18.173533009353349
 21
9.8523540978733308
 31
0.0
  0
LINE
  5
934A
  8
0
 10
18.173533009353349
 20
9.8523540978733308
 30
0.0
 11
18.174306607618231
 21
9.8512507001007581
 31
0.0
  0
LINE
  5
934B
  8
0
 10
18.174306607618231
 20
9.8512507001007581
 30
0.0
 11
18.17516800705922
 21
9.8502443083289126
 31
0.0
  0
LINE
  5
934C
  8
0
 10
18.17516800705922
 20
9.8502443083289126
 30
0.0
 11
18.176107813809001
 21
9.8493520728679815
 31
0.0
  0
LINE
  5
934D
  8
0
 10
18.176107813809001
 20
9.8493520728679815
 30
0.0
 11
18.177116634000232
 21
9.8485911440291094
 31
0.0
  0
LINE
  5
934E
  8
0
 10
18.177116634000232
 20
9.8485911440291094
 30
0.0
 11
18.178185073765601
 21
9.847978672122732
 31
0.0
  0
LINE
  5
934F
  8
0
 10
18.178185073765601
 20
9.847978672122732
 30
0.0
 11
18.179306022439778
 21
9.8475280971970243
 31
0.0
  0
LINE
  5
9350
  8
0
 10
18.179306022439778
 20
9.8475280971970243
 30
0.0
 11
18.180481502165598
 21
9.847238018250664
 31
0.0
  0
LINE
  5
9351
  8
0
 10
18.180481502165598
 20
9.847238018250664
 30
0.0
 11
18.18171581828793
 21
9.8471033240184624
 31
0.0
  0
LINE
  5
9352
  8
0
 10
18.18171581828793
 20
9.8471033240184624
 30
0.0
 11
18.183013276151581
 21
9.8471189032359181
 31
0.0
  0
LINE
  5
9353
  8
0
 10
18.183013276151581
 20
9.8471189032359181
 30
0.0
 11
18.184378181101462
 21
9.8472796446385438
 31
0.0
  0
LINE
  5
9354
  8
0
 10
18.184378181101462
 20
9.8472796446385438
 30
0.0
 11
18.185814838482411
 21
9.8475804369625113
 31
0.0
  0
LINE
  5
9355
  8
0
 10
18.185627937146549
 20
9.870448639803266
 30
0.0
 11
18.185138067124878
 21
9.871732510032416
 31
0.0
  0
LINE
  5
9356
  8
0
 10
18.185138067124878
 20
9.871732510032416
 30
0.0
 11
18.184683357656429
 21
9.8729819545596822
 31
0.0
  0
LINE
  5
9357
  8
0
 10
18.184683357656429
 20
9.8729819545596822
 30
0.0
 11
18.184298653749181
 21
9.8741723381128796
 31
0.0
  0
LINE
  5
9358
  8
0
 10
18.184298653749181
 20
9.8741723381128796
 30
0.0
 11
18.184018800411099
 21
9.8752790254213778
 31
0.0
  0
LINE
  5
9359
  8
0
 10
18.184018800411099
 20
9.8752790254213778
 30
0.0
 11
18.1838786426502
 21
9.8762773812129563
 31
0.0
  0
LINE
  5
935A
  8
0
 10
18.1838786426502
 20
9.8762773812129563
 30
0.0
 11
18.183913025474389
 21
9.8771427702163201
 31
0.0
  0
LINE
  5
935B
  8
0
 10
18.183913025474389
 20
9.8771427702163201
 30
0.0
 11
18.184145295204889
 21
9.8778599974598364
 31
0.0
  0
LINE
  5
935C
  8
0
 10
18.184145295204889
 20
9.8778599974598364
 30
0.0
 11
18.184552803415659
 21
9.8784516291659621
 31
0.0
  0
LINE
  5
935D
  8
0
 10
18.184552803415659
 20
9.8784516291659621
 30
0.0
 11
18.185101402993809
 21
9.8789496718568408
 31
0.0
  0
LINE
  5
935E
  8
0
 10
18.185101402993809
 20
9.8789496718568408
 30
0.0
 11
18.185756946826491
 21
9.8793861320550551
 31
0.0
  0
LINE
  5
935F
  8
0
 10
18.185454961495289
 20
9.8922495605886525
 30
0.0
 11
18.184609612931411
 21
9.8920251804368
 31
0.0
  0
LINE
  5
9360
  8
0
 10
18.184609612931411
 20
9.8920251804368
 30
0.0
 11
18.18376255871754
 21
9.8916356251397701
 31
0.0
  0
LINE
  5
9361
  8
0
 10
18.18376255871754
 20
9.8916356251397701
 30
0.0
 11
18.182911649734681
 21
9.8910964729670887
 31
0.0
  0
LINE
  5
9362
  8
0
 10
18.182911649734681
 20
9.8910964729670887
 30
0.0
 11
18.182054736863861
 21
9.8904233021896744
 31
0.0
  0
LINE
  5
9363
  8
0
 10
18.182054736863861
 20
9.8904233021896744
 30
0.0
 11
18.181189670986061
 21
9.8896316910763709
 31
0.0
  0
LINE
  5
9364
  8
0
 10
18.181189670986061
 20
9.8896316910763709
 30
0.0
 11
18.180314302982321
 21
9.8887372178974147
 31
0.0
  0
LINE
  5
9365
  8
0
 10
18.180314302982321
 20
9.8887372178974147
 30
0.0
 11
18.179426483733611
 21
9.8877554609230121
 31
0.0
  0
LINE
  5
9366
  8
0
 10
18.132969975367359
 20
9.8472652404245764
 30
0.0
 11
18.132256042397501
 21
9.8467015392106916
 31
0.0
  0
LINE
  5
9367
  8
0
 10
18.132256042397501
 20
9.8467015392106916
 30
0.0
 11
18.131596093249911
 21
9.8461362290006438
 31
0.0
  0
LINE
  5
9368
  8
0
 10
18.131596093249911
 20
9.8461362290006438
 30
0.0
 11
18.13099392015307
 21
9.8455613557796262
 31
0.0
  0
LINE
  5
9369
  8
0
 10
18.13099392015307
 20
9.8455613557796262
 30
0.0
 11
18.130453315335469
 21
9.8449689655330914
 31
0.0
  0
LINE
  5
936A
  8
0
 10
18.130453315335469
 20
9.8449689655330914
 30
0.0
 11
18.12997807102559
 21
9.844351104246698
 31
0.0
  0
LINE
  5
936B
  8
0
 10
18.12997807102559
 20
9.844351104246698
 30
0.0
 11
18.12957197945191
 21
9.8436998179058701
 31
0.0
  0
LINE
  5
936C
  8
0
 10
18.12957197945191
 20
9.8436998179058701
 30
0.0
 11
18.12923883284293
 21
9.8430071524962823
 31
0.0
  0
LINE
  5
936D
  8
0
 10
18.12923883284293
 20
9.8430071524962823
 30
0.0
 11
18.128982423427111
 21
9.8422651540033623
 31
0.0
  0
LINE
  5
936E
  8
0
 10
18.128982423427111
 20
9.8422651540033623
 30
0.0
 11
18.12880358270883
 21
9.8414684112524302
 31
0.0
  0
LINE
  5
936F
  8
0
 10
18.12880358270883
 20
9.8414684112524302
 30
0.0
 11
18.12869129929603
 21
9.8406216844286938
 31
0.0
  0
LINE
  5
9370
  8
0
 10
18.12869129929603
 20
9.8406216844286938
 30
0.0
 11
18.128631601072481
 21
9.8397322765565605
 31
0.0
  0
LINE
  5
9371
  8
0
 10
18.128631601072481
 20
9.8397322765565605
 30
0.0
 11
18.128610515922041
 21
9.83880749066088
 31
0.0
  0
LINE
  5
9372
  8
0
 10
18.128610515922041
 20
9.83880749066088
 30
0.0
 11
18.128614071728482
 21
9.8378546297662979
 31
0.0
  0
LINE
  5
9373
  8
0
 10
18.128614071728482
 20
9.8378546297662979
 30
0.0
 11
18.128628296375631
 21
9.836880996897662
 31
0.0
  0
LINE
  5
9374
  8
0
 10
18.128628296375631
 20
9.836880996897662
 30
0.0
 11
18.128639217747281
 21
9.8358938950791526
 31
0.0
  0
LINE
  5
9375
  8
0
 10
18.128639217747281
 20
9.8358938950791526
 30
0.0
 11
18.128632863727258
 21
9.8349006273360828
 31
0.0
  0
LINE
  5
9376
  8
0
 10
18.128632863727258
 20
9.8349006273360828
 30
0.0
 11
18.128600350248082
 21
9.8339084412596041
 31
0.0
  0
LINE
  5
9377
  8
0
 10
18.128600350248082
 20
9.8339084412596041
 30
0.0
 11
18.12855314543696
 21
9.8329243627060805
 31
0.0
  0
LINE
  5
9378
  8
0
 10
18.12855314543696
 20
9.8329243627060805
 30
0.0
 11
18.128507805469809
 21
9.8319553620983662
 31
0.0
  0
LINE
  5
9379
  8
0
 10
18.128507805469809
 20
9.8319553620983662
 30
0.0
 11
18.128480886522581
 21
9.831008409859578
 31
0.0
  0
LINE
  5
937A
  8
0
 10
18.128480886522581
 20
9.831008409859578
 30
0.0
 11
18.12848894477122
 21
9.8300904764125736
 31
0.0
  0
LINE
  5
937B
  8
0
 10
18.12848894477122
 20
9.8300904764125736
 30
0.0
 11
18.12854853639163
 21
9.8292085321804663
 31
0.0
  0
LINE
  5
937C
  8
0
 10
18.12854853639163
 20
9.8292085321804663
 30
0.0
 11
18.12867621755975
 21
9.8283695475861261
 31
0.0
  0
LINE
  5
937D
  8
0
 10
18.12867621755975
 20
9.8283695475861261
 30
0.0
 11
18.128888544451499
 21
9.8275804930526647
 31
0.0
  0
LINE
  5
937E
  8
0
 10
18.128888544451499
 20
9.8275804930526647
 30
0.0
 11
18.129196049929401
 21
9.8268457672620517
 31
0.0
  0
LINE
  5
937F
  8
0
 10
18.129196049929401
 20
9.8268457672620517
 30
0.0
 11
18.129585173602191
 21
9.8261594819309721
 31
0.0
  0
LINE
  5
9380
  8
0
 10
18.129585173602191
 20
9.8261594819309721
 30
0.0
 11
18.130036331765211
 21
9.8255131770358677
 31
0.0
  0
LINE
  5
9381
  8
0
 10
18.130036331765211
 20
9.8255131770358677
 30
0.0
 11
18.13052994071381
 21
9.8248983925523063
 31
0.0
  0
LINE
  5
9382
  8
0
 10
18.13052994071381
 20
9.8248983925523063
 30
0.0
 11
18.131046416743299
 21
9.8243066684569822
 31
0.0
  0
LINE
  5
9383
  8
0
 10
18.131046416743299
 20
9.8243066684569822
 30
0.0
 11
18.13156617614905
 21
9.8237295447254365
 31
0.0
  0
LINE
  5
9384
  8
0
 10
18.13156617614905
 20
9.8237295447254365
 30
0.0
 11
18.13206963522634
 21
9.8231585613339121
 31
0.0
  0
LINE
  5
9385
  8
0
 10
18.13206963522634
 20
9.8231585613339121
 30
0.0
 11
18.132537210270542
 21
9.8225852582581794
 31
0.0
  0
LINE
  5
9386
  8
0
 10
18.132537210270542
 20
9.8225852582581794
 30
0.0
 11
18.132955663542539
 21
9.8220059498732937
 31
0.0
  0
LINE
  5
9387
  8
0
 10
18.132955663542539
 20
9.8220059498732937
 30
0.0
 11
18.133337141165441
 21
9.8214360481481418
 31
0.0
  0
LINE
  5
9388
  8
0
 10
18.133337141165441
 20
9.8214360481481418
 30
0.0
 11
18.133700135227929
 21
9.8208957394504015
 31
0.0
  0
LINE
  5
9389
  8
0
 10
18.133700135227929
 20
9.8208957394504015
 30
0.0
 11
18.134063137818671
 21
9.8204052101475519
 31
0.0
  0
LINE
  5
938A
  8
0
 10
18.134063137818671
 20
9.8204052101475519
 30
0.0
 11
18.134444641026331
 21
9.8199846466075034
 31
0.0
  0
LINE
  5
938B
  8
0
 10
18.134444641026331
 20
9.8199846466075034
 30
0.0
 11
18.134863136939568
 21
9.8196542351979534
 31
0.0
  0
LINE
  5
938C
  8
0
 10
18.134863136939568
 20
9.8196542351979534
 30
0.0
 11
18.135337117647079
 21
9.8194341622861412
 31
0.0
  0
LINE
  5
938D
  8
0
 10
18.135337117647079
 20
9.8194341622861412
 30
0.0
 11
18.135885075237528
 21
9.8193446142404301
 31
0.0
  0
LINE
  5
938E
  8
0
 10
18.135885075237528
 20
9.8193446142404301
 30
0.0
 11
18.1365201233166
 21
9.8193979603386161
 31
0.0
  0
LINE
  5
938F
  8
0
 10
18.1365201233166
 20
9.8193979603386161
 30
0.0
 11
18.137233861558091
 21
9.8195753015065765
 31
0.0
  0
LINE
  5
9390
  8
0
 10
18.137233861558091
 20
9.8195753015065765
 30
0.0
 11
18.138012511152791
 21
9.8198499215786761
 31
0.0
  0
LINE
  5
9391
  8
0
 10
18.138012511152791
 20
9.8198499215786761
 30
0.0
 11
18.138842293291521
 21
9.820195104391356
 31
0.0
  0
LINE
  5
9392
  8
0
 10
18.138842293291521
 20
9.820195104391356
 30
0.0
 11
18.139709429165102
 21
9.8205841337794464
 31
0.0
  0
LINE
  5
9393
  8
0
 10
18.139709429165102
 20
9.8205841337794464
 30
0.0
 11
18.14060013996432
 21
9.8209902935789142
 31
0.0
  0
LINE
  5
9394
  8
0
 10
18.14060013996432
 20
9.8209902935789142
 30
0.0
 11
18.141500646880001
 21
9.8213868676257281
 31
0.0
  0
LINE
  5
9395
  8
0
 10
18.141500646880001
 20
9.8213868676257281
 30
0.0
 11
18.14239717110296
 21
9.8217471397551819
 31
0.0
  0
LINE
  5
9396
  8
0
 10
18.14239717110296
 20
9.8217471397551819
 30
0.0
 11
18.143276147504022
 21
9.8220536436374424
 31
0.0
  0
LINE
  5
9397
  8
0
 10
18.143276147504022
 20
9.8220536436374424
 30
0.0
 11
18.144124865674218
 21
9.8223259122817144
 31
0.0
  0
LINE
  5
9398
  8
0
 10
18.144124865674218
 20
9.8223259122817144
 30
0.0
 11
18.144930828884601
 21
9.8225927285316121
 31
0.0
  0
LINE
  5
9399
  8
0
 10
18.144930828884601
 20
9.8225927285316121
 30
0.0
 11
18.145681540406219
 21
9.8228828752303343
 31
0.0
  0
LINE
  5
939A
  8
0
 10
18.145681540406219
 20
9.8228828752303343
 30
0.0
 11
18.146364503510132
 21
9.8232251352219446
 31
0.0
  0
LINE
  5
939B
  8
0
 10
18.146364503510132
 20
9.8232251352219446
 30
0.0
 11
18.146967221467381
 21
9.8236482913498566
 31
0.0
  0
LINE
  5
939C
  8
0
 10
18.146967221467381
 20
9.8236482913498566
 30
0.0
 11
18.147477197549019
 21
9.8241811264581411
 31
0.0
  0
LINE
  5
939D
  8
0
 10
18.147477197549019
 20
9.8241811264581411
 30
0.0
 11
18.14788193502612
 21
9.8248524233897516
 31
0.0
  0
LINE
  5
939E
  8
0
 10
18.14788193502612
 20
9.8248524233897516
 30
0.0
 11
18.148172446544571
 21
9.8256813697601029
 31
0.0
  0
LINE
  5
939F
  8
0
 10
18.148172446544571
 20
9.8256813697601029
 30
0.0
 11
18.14835378224976
 21
9.8266487722685216
 31
0.0
  0
LINE
  5
93A0
  8
0
 10
18.14835378224976
 20
9.8266487722685216
 30
0.0
 11
18.148434501661882
 21
9.8277258423856821
 31
0.0
  0
LINE
  5
93A1
  8
0
 10
18.148434501661882
 20
9.8277258423856821
 30
0.0
 11
18.148423164301128
 21
9.828883791583614
 31
0.0
  0
LINE
  5
93A2
  8
0
 10
18.148423164301128
 20
9.828883791583614
 30
0.0
 11
18.14832832968775
 21
9.8300938313316184
 31
0.0
  0
LINE
  5
93A3
  8
0
 10
18.14832832968775
 20
9.8300938313316184
 30
0.0
 11
18.14815855734194
 21
9.8313271731012648
 31
0.0
  0
LINE
  5
93A4
  8
0
 10
18.14815855734194
 20
9.8313271731012648
 30
0.0
 11
18.147922406783898
 21
9.8325550283634566
 31
0.0
  0
LINE
  5
93A5
  8
0
 10
18.147922406783898
 20
9.8325550283634566
 30
0.0
 11
18.147628437533871
 21
9.8337486085890742
 31
0.0
  0
LINE
  5
93A6
  8
0
 10
18.147628437533871
 20
9.8337486085890742
 30
0.0
 11
18.147286820477511
 21
9.8348867210770532
 31
0.0
  0
LINE
  5
93A7
  8
0
 10
18.147286820477511
 20
9.8348867210770532
 30
0.0
 11
18.146914171962269
 21
9.8359785564380182
 31
0.0
  0
LINE
  5
93A8
  8
0
 10
18.146914171962269
 20
9.8359785564380182
 30
0.0
 11
18.146528719701092
 21
9.837040901110182
 31
0.0
  0
LINE
  5
93A9
  8
0
 10
18.146528719701092
 20
9.837040901110182
 30
0.0
 11
18.146148691406879
 21
9.8380905415331181
 31
0.0
  0
LINE
  5
93AA
  8
0
 10
18.146148691406879
 20
9.8380905415331181
 30
0.0
 11
18.14579231479258
 21
9.8391442641450322
 31
0.0
  0
LINE
  5
93AB
  8
0
 10
18.14579231479258
 20
9.8391442641450322
 30
0.0
 11
18.145477817571091
 21
9.8402188553843608
 31
0.0
  0
LINE
  5
93AC
  8
0
 10
18.145477817571091
 20
9.8402188553843608
 30
0.0
 11
18.145223427455338
 21
9.8413311016902263
 31
0.0
  0
LINE
  5
93AD
  8
0
 10
18.145223427455338
 20
9.8413311016902263
 30
0.0
 11
18.14504737215827
 21
9.8424977895010581
 31
0.0
  0
LINE
  5
93AE
  8
0
 10
18.14504737215827
 20
9.8424977895010581
 30
0.0
 11
18.144961083325139
 21
9.8437304722265182
 31
0.0
  0
LINE
  5
93AF
  8
0
 10
18.144961083325139
 20
9.8437304722265182
 30
0.0
 11
18.1449488083307
 21
9.8450197711608762
 31
0.0
  0
LINE
  5
93B0
  8
0
 10
18.1449488083307
 20
9.8450197711608762
 30
0.0
 11
18.144987998482019
 21
9.8463510745691512
 31
0.0
  0
LINE
  5
93B1
  8
0
 10
18.144987998482019
 20
9.8463510745691512
 30
0.0
 11
18.14505610508623
 21
9.847709770715932
 31
0.0
  0
LINE
  5
93B2
  8
0
 10
18.14505610508623
 20
9.847709770715932
 30
0.0
 11
18.14513057945042
 21
9.8490812478667031
 31
0.0
  0
LINE
  5
93B3
  8
0
 10
18.14513057945042
 20
9.8490812478667031
 30
0.0
 11
18.145188872881668
 21
9.8504508942867162
 31
0.0
  0
LINE
  5
93B4
  8
0
 10
18.145188872881668
 20
9.8504508942867162
 30
0.0
 11
18.145208436687081
 21
9.8518040982410184
 31
0.0
  0
LINE
  5
93B5
  8
0
 10
18.145208436687081
 20
9.8518040982410184
 30
0.0
 11
18.145166722173759
 21
9.8531262479939361
 31
0.0
  0
LINE
  5
93B6
  8
0
 10
18.145166722173759
 20
9.8531262479939361
 30
0.0
 11
18.14504879874498
 21
9.8544059701773623
 31
0.0
  0
LINE
  5
93B7
  8
0
 10
18.14504879874498
 20
9.8544059701773623
 30
0.0
 11
18.144870208188699
 21
9.8556448448859921
 31
0.0
  0
LINE
  5
93B8
  8
0
 10
18.144870208188699
 20
9.8556448448859921
 30
0.0
 11
18.14465411038908
 21
9.8568476905818407
 31
0.0
  0
LINE
  5
93B9
  8
0
 10
18.14465411038908
 20
9.8568476905818407
 30
0.0
 11
18.144423665230271
 21
9.8580193257250759
 31
0.0
  0
LINE
  5
93BA
  8
0
 10
18.144423665230271
 20
9.8580193257250759
 30
0.0
 11
18.144202032596439
 21
9.8591645687777127
 31
0.0
  0
LINE
  5
93BB
  8
0
 10
18.144202032596439
 20
9.8591645687777127
 30
0.0
 11
18.144012372371709
 21
9.8602882382003827
 31
0.0
  0
LINE
  5
93BC
  8
0
 10
18.144012372371709
 20
9.8602882382003827
 30
0.0
 11
18.14387784444024
 21
9.8613951524546302
 31
0.0
  0
LINE
  5
93BD
  8
0
 10
18.14387784444024
 20
9.8613951524546302
 30
0.0
 11
18.143821608686189
 21
9.862490130002012
 31
0.0
  0
LINE
  5
93BE
  8
0
 10
18.143821608686189
 20
9.862490130002012
 30
0.0
 11
18.143857815845209
 21
9.8635766702668661
 31
0.0
  0
LINE
  5
93BF
  8
0
 10
18.143857815845209
 20
9.8635766702668661
 30
0.0
 11
18.14396458005891
 21
9.864652996531726
 31
0.0
  0
LINE
  5
93C0
  8
0
 10
18.14396458005891
 20
9.864652996531726
 30
0.0
 11
18.14411100632045
 21
9.8657160130408101
 31
0.0
  0
LINE
  5
93C1
  8
0
 10
18.14411100632045
 20
9.8657160130408101
 30
0.0
 11
18.14426619962294
 21
9.8667626240396622
 31
0.0
  0
LINE
  5
93C2
  8
0
 10
18.14426619962294
 20
9.8667626240396622
 30
0.0
 11
18.144399264959539
 21
9.8677897337738543
 31
0.0
  0
LINE
  5
93C3
  8
0
 10
18.144399264959539
 20
9.8677897337738543
 30
0.0
 11
18.144479307323358
 21
9.8687942464880507
 31
0.0
  0
LINE
  5
93C4
  8
0
 10
18.144479307323358
 20
9.8687942464880507
 30
0.0
 11
18.144475431707551
 21
9.8697730664280243
 31
0.0
  0
LINE
  5
93C5
  8
0
 10
18.144475431707551
 20
9.8697730664280243
 30
0.0
 11
18.144356743105231
 21
9.8707230978388836
 31
0.0
  0
LINE
  5
93C6
  8
0
 10
18.144356743105231
 20
9.8707230978388836
 30
0.0
 11
18.144101137713871
 21
9.8716377607017822
 31
0.0
  0
LINE
  5
93C7
  8
0
 10
18.144101137713871
 20
9.8716377607017822
 30
0.0
 11
18.143721676548289
 21
9.8724965379428742
 31
0.0
  0
LINE
  5
93C8
  8
0
 10
18.143721676548289
 20
9.8724965379428742
 30
0.0
 11
18.143240211827639
 21
9.8732754282236783
 31
0.0
  0
LINE
  5
93C9
  8
0
 10
18.143240211827639
 20
9.8732754282236783
 30
0.0
 11
18.142678595771098
 21
9.8739504302061505
 31
0.0
  0
LINE
  5
93CA
  8
0
 10
18.142678595771098
 20
9.8739504302061505
 30
0.0
 11
18.142058680597788
 21
9.8744975425522572
 31
0.0
  0
LINE
  5
93CB
  8
0
 10
18.142058680597788
 20
9.8744975425522572
 30
0.0
 11
18.14140231852689
 21
9.87489276392375
 31
0.0
  0
LINE
  5
93CC
  8
0
 10
18.14140231852689
 20
9.87489276392375
 30
0.0
 11
18.140731361777551
 21
9.8751120929825902
 31
0.0
  0
LINE
  5
93CD
  8
0
 10
18.140731361777551
 20
9.8751120929825902
 30
0.0
 11
18.140067662568949
 21
9.8751315283905061
 31
0.0
  0
LINE
  5
93CE
  8
0
 10
18.140067662568949
 20
9.8751315283905061
 30
0.0
 11
18.139428824127162
 21
9.8749369901031478
 31
0.0
  0
LINE
  5
93CF
  8
0
 10
18.139428824127162
 20
9.8749369901031478
 30
0.0
 11
18.138815453706119
 21
9.8745540832512617
 31
0.0
  0
LINE
  5
93D0
  8
0
 10
18.138815453706119
 20
9.8745540832512617
 30
0.0
 11
18.138223909566729
 21
9.8740183342599703
 31
0.0
  0
LINE
  5
93D1
  8
0
 10
18.138223909566729
 20
9.8740183342599703
 30
0.0
 11
18.137650549969852
 21
9.8733652695539078
 31
0.0
  0
LINE
  5
93D2
  8
0
 10
18.137650549969852
 20
9.8733652695539078
 30
0.0
 11
18.137091733176359
 21
9.8726304155572961
 31
0.0
  0
LINE
  5
93D3
  8
0
 10
18.137091733176359
 20
9.8726304155572961
 30
0.0
 11
18.136543817447151
 21
9.8718492986947641
 31
0.0
  0
LINE
  5
93D4
  8
0
 10
18.136543817447151
 20
9.8718492986947641
 30
0.0
 11
18.136003161043089
 21
9.8710574453916706
 31
0.0
  0
LINE
  5
93D5
  8
0
 10
18.136003161043089
 20
9.8710574453916706
 30
0.0
 11
18.135466122225051
 21
9.8702903820721932
 31
0.0
  0
LINE
  5
93D6
  8
0
 10
18.135466122225051
 20
9.8702903820721932
 30
0.0
 11
18.13493232000576
 21
9.869575042090668
 31
0.0
  0
LINE
  5
93D7
  8
0
 10
18.13493232000576
 20
9.869575042090668
 30
0.0
 11
18.134414416405221
 21
9.8689039865155284
 31
0.0
  0
LINE
  5
93D8
  8
0
 10
18.134414416405221
 20
9.8689039865155284
 30
0.0
 11
18.133928334195272
 21
9.8682611833462435
 31
0.0
  0
LINE
  5
93D9
  8
0
 10
18.133928334195272
 20
9.8682611833462435
 30
0.0
 11
18.133489996147759
 21
9.867630600580922
 31
0.0
  0
LINE
  5
93DA
  8
0
 10
18.133489996147759
 20
9.867630600580922
 30
0.0
 11
18.13311532503451
 21
9.8669962062183441
 31
0.0
  0
LINE
  5
93DB
  8
0
 10
18.13311532503451
 20
9.8669962062183441
 30
0.0
 11
18.132820243627378
 21
9.8663419682573021
 31
0.0
  0
LINE
  5
93DC
  8
0
 10
18.132820243627378
 20
9.8663419682573021
 30
0.0
 11
18.132620674698199
 21
9.8656518546954342
 31
0.0
  0
LINE
  5
93DD
  8
0
 10
18.132620674698199
 20
9.8656518546954342
 30
0.0
 11
18.132532541018801
 21
9.864909833532236
 31
0.0
  0
LINE
  5
93DE
  8
0
 10
18.132532541018801
 20
9.864909833532236
 30
0.0
 11
18.132566805533511
 21
9.8641049405452961
 31
0.0
  0
LINE
  5
93DF
  8
0
 10
18.132566805533511
 20
9.8641049405452961
 30
0.0
 11
18.1327145918765
 21
9.8632464826339383
 31
0.0
  0
LINE
  5
93E0
  8
0
 10
18.1327145918765
 20
9.8632464826339383
 30
0.0
 11
18.132962063854421
 21
9.8623488344755881
 31
0.0
  0
LINE
  5
93E1
  8
0
 10
18.132962063854421
 20
9.8623488344755881
 30
0.0
 11
18.133295385273929
 21
9.861426370748628
 31
0.0
  0
LINE
  5
93E2
  8
0
 10
18.133295385273929
 20
9.861426370748628
 30
0.0
 11
18.133700719941672
 21
9.8604934661316221
 31
0.0
  0
LINE
  5
93E3
  8
0
 10
18.133700719941672
 20
9.8604934661316221
 30
0.0
 11
18.1341642316643
 21
9.8595644953027204
 31
0.0
  0
LINE
  5
93E4
  8
0
 10
18.1341642316643
 20
9.8595644953027204
 30
0.0
 11
18.134672084248471
 21
9.858653832939126
 31
0.0
  0
LINE
  5
93E5
  8
0
 10
18.134672084248471
 20
9.858653832939126
 30
0.0
 11
18.13521044150081
 21
9.8577758537205682
 31
0.0
  0
LINE
  5
93E6
  8
0
 10
18.13521044150081
 20
9.8577758537205682
 30
0.0
 11
18.135763373660239
 21
9.8569417584822041
 31
0.0
  0
LINE
  5
93E7
  8
0
 10
18.135763373660239
 20
9.8569417584822041
 30
0.0
 11
18.136306576694508
 21
9.8561500526930086
 31
0.0
  0
LINE
  5
93E8
  8
0
 10
18.136306576694508
 20
9.8561500526930086
 30
0.0
 11
18.136813653003578
 21
9.8553960679791981
 31
0.0
  0
LINE
  5
93E9
  8
0
 10
18.136813653003578
 20
9.8553960679791981
 30
0.0
 11
18.137258204987521
 21
9.8546751359667688
 31
0.0
  0
LINE
  5
93EA
  8
0
 10
18.137258204987521
 20
9.8546751359667688
 30
0.0
 11
18.137613835046299
 21
9.8539825882830883
 31
0.0
  0
LINE
  5
93EB
  8
0
 10
18.137613835046299
 20
9.8539825882830883
 30
0.0
 11
18.137854145579912
 21
9.8533137565539164
 31
0.0
  0
LINE
  5
93EC
  8
0
 10
18.137854145579912
 20
9.8533137565539164
 30
0.0
 11
18.13795273898835
 21
9.8526639724059297
 31
0.0
  0
LINE
  5
93ED
  8
0
 10
18.13795273898835
 20
9.8526639724059297
 30
0.0
 11
18.137883217671629
 21
9.8520285674655881
 31
0.0
  0
LINE
  5
93EE
  8
0
 10
18.137883217671629
 20
9.8520285674655881
 30
0.0
 11
18.137628681628058
 21
9.8514035812997864
 31
0.0
  0
LINE
  5
93EF
  8
0
 10
18.137628681628058
 20
9.8514035812997864
 30
0.0
 11
18.13721022124918
 21
9.8507878852412833
 31
0.0
  0
LINE
  5
93F0
  8
0
 10
18.13721022124918
 20
9.8507878852412833
 30
0.0
 11
18.136658424524882
 21
9.8501810585628302
 31
0.0
  0
LINE
  5
93F1
  8
0
 10
18.136658424524882
 20
9.8501810585628302
 30
0.0
 11
18.136003879445031
 21
9.84958268053742
 31
0.0
  0
LINE
  5
93F2
  8
0
 10
18.136003879445031
 20
9.84958268053742
 30
0.0
 11
18.135277173999469
 21
9.8489923304377882
 31
0.0
  0
LINE
  5
93F3
  8
0
 10
18.135277173999469
 20
9.8489923304377882
 30
0.0
 11
18.13450889617808
 21
9.8484095875371622
 31
0.0
  0
LINE
  5
93F4
  8
0
 10
18.13450889617808
 20
9.8484095875371622
 30
0.0
 11
18.133729633970759
 21
9.8478340311084995
 31
0.0
  0
LINE
  5
93F5
  8
0
 10
18.133729633970759
 20
9.8478340311084995
 30
0.0
 11
18.132969975367359
 21
9.8472652404245764
 31
0.0
  0
LINE
  5
93F6
  8
0
 10
18.185814838482411
 20
9.8475804369625113
 30
0.0
 11
18.187327553639289
 21
9.8480161689424222
 31
0.0
  0
LINE
  5
93F7
  8
0
 10
18.18611812271347
 20
9.8691549791426461
 30
0.0
 11
18.185627937146549
 21
9.870448639803266
 31
0.0
  0
LINE
  5
93F8
  8
0
 10
18.185756946826491
 20
9.8793861320550551
 30
0.0
 11
18.18648528780087
 21
9.8797930162820649
 31
0.0
  0
LINE
  5
93F9
  8
0
 10
18.186300753528158
 20
9.8922931873248583
 30
0.0
 11
18.185454961495289
 21
9.8922495605886525
 31
0.0
  0
LINE
  5
93FA
  8
0
 10
18.15728414488451
 20
9.6685000217983035
 30
0.0
 11
18.159851625705489
 21
9.6783871517400222
 31
0.0
  0
LINE
  5
93FB
  8
0
 10
18.159851625705489
 20
9.6783871517400222
 30
0.0
 11
18.160834080101289
 21
9.6968048968133136
 31
0.0
  0
LINE
  5
93FC
  8
0
 10
18.127859999602581
 20
9.6819414534209045
 30
0.0
 11
18.136671523916821
 21
9.6666966721743322
 31
0.0
  0
LINE
  5
93FD
  8
0
 10
18.136671523916821
 20
9.6666966721743322
 30
0.0
 11
18.140511101244371
 21
9.6561210964118729
 31
0.0
  0
LINE
  5
93FE
  8
0
 10
18.140511101244371
 20
9.6561210964118729
 30
0.0
 11
18.148033063196142
 21
9.6525245855789272
 31
0.0
  0
LINE
  5
93FF
  8
0
 10
18.148033063196142
 20
9.6525245855789272
 30
0.0
 11
18.150994981263441
 21
9.6558561975966697
 31
0.0
  0
LINE
  5
9400
  8
0
 10
18.150994981263441
 20
9.6558561975966697
 30
0.0
 11
18.152416993033349
 21
9.6587657180962161
 31
0.0
  0
LINE
  5
9401
  8
0
 10
18.152416993033349
 20
9.6587657180962161
 30
0.0
 11
18.154009296898529
 21
9.6620245557141882
 31
0.0
  0
LINE
  5
9402
  8
0
 10
18.154009296898529
 20
9.6620245557141882
 30
0.0
 11
18.156373009400401
 21
9.6649879292695005
 31
0.0
  0
LINE
  5
9403
  8
0
 10
18.156373009400401
 20
9.6649879292695005
 30
0.0
 11
18.15728414488451
 21
9.6685000217983035
 31
0.0
  0
ARC
  5
9404
  8
0
 10
17.379768280568172
 20
9.7281211764868623
 30
0.0
 40
0.8044409367129516
 50
355.40189000000191
 51
1.126700999996852
  0
LINE
  5
9405
  8
0
 10
18.160834080101289
 20
9.6968048968133136
 30
0.0
 11
18.14054748844422
 21
9.714743786336383
 31
0.0
  0
LINE
  5
9406
  8
0
 10
18.10338742447545
 20
9.7145618503373043
 30
0.0
 11
18.127859999602581
 21
9.6819414534209045
 31
0.0
  0
LINE
  5
9407
  8
0
 10
18.362604014212689
 20
9.8498450928934744
 30
0.0
 11
18.383132216876739
 21
9.8351926952605027
 31
0.0
  0
LINE
  5
9408
  8
0
 10
18.383132216876739
 20
9.8351926952605027
 30
0.0
 11
18.373140291799562
 21
9.8193060438084103
 31
0.0
  0
ARC
  5
9409
  8
0
 10
18.398892240873199
 20
10.429932743783629
 30
0.0
 40
0.6904776822892869
 50
255.65818500000009
 51
263.46686500000021
  0
LINE
  5
940A
  8
0
 10
18.30261171008576
 20
9.8888740034462863
 30
0.0
 11
18.334840580731662
 21
9.8682191733266702
 31
0.0
  0
LINE
  5
940B
  8
0
 10
18.353483926443779
 20
9.8095207980259094
 30
0.0
 11
18.350476888248672
 21
9.800598656624512
 31
0.0
  0
LINE
  5
940C
  8
0
 10
18.350476888248672
 20
9.800598656624512
 30
0.0
 11
18.338914491626209
 21
9.8032854874609221
 31
0.0
  0
LINE
  5
940D
  8
0
 10
18.338914491626209
 20
9.8032854874609221
 30
0.0
 11
18.319131498814979
 21
9.8007296505440902
 31
0.0
  0
LINE
  5
940E
  8
0
 10
18.319131498814979
 20
9.8007296505440902
 30
0.0
 11
18.295868434210661
 21
9.8089327808765958
 31
0.0
  0
LINE
  5
940F
  8
0
 10
18.295868434210661
 20
9.8089327808765958
 30
0.0
 11
18.257380965191579
 21
9.8282252742342262
 31
0.0
  0
LINE
  5
9410
  8
0
 10
18.257380965191579
 20
9.8282252742342262
 30
0.0
 11
18.251669630304061
 21
9.8586609836715962
 31
0.0
  0
LINE
  5
9411
  8
0
 10
18.251669630304061
 20
9.8586609836715962
 30
0.0
 11
18.236175960610439
 21
9.881976445843744
 31
0.0
  0
LINE
  5
9412
  8
0
 10
18.32033227640984
 20
9.7439394200034641
 30
0.0
 11
18.326778632734211
 21
9.7432014875903388
 31
0.0
  0
LINE
  5
9413
  8
0
 10
18.326778632734211
 20
9.7432014875903388
 30
0.0
 11
18.333328328706141
 21
9.7434663864055437
 31
0.0
  0
LINE
  5
9414
  8
0
 10
18.333328328706141
 20
9.7434663864055437
 30
0.0
 11
18.339799428326419
 21
9.7439394200034641
 31
0.0
  0
ARC
  5
9415
  8
0
 10
18.336149064438061
 20
9.7938262709897117
 30
0.0
 40
0.0500207558816598
 50
274.18491599999982
 51
341.56505100000112
  0
LINE
  5
9416
  8
0
 10
18.334840580731662
 20
9.8682191733266702
 30
0.0
 11
18.362604014212689
 21
9.8498450928934744
 31
0.0
  0
LINE
  5
9417
  8
0
 10
18.373140291799562
 20
9.8193060438084103
 30
0.0
 11
18.353483926443779
 21
9.8095207980259094
 31
0.0
  0
LINE
  5
9418
  8
0
 10
18.221043251939289
 20
9.9887292127464136
 30
0.0
 11
18.27770831051248
 21
9.9962657295782265
 31
0.0
  0
LINE
  5
9419
  8
0
 10
18.23463750980105
 20
10.126197142781381
 30
0.0
 11
18.220568762853318
 21
10.11162916345164
 31
0.0
  0
LINE
  5
941A
  8
0
 10
18.207811410588
 20
9.9146259525198221
 30
0.0
 11
18.225676070223429
 21
9.9259685704553249
 31
0.0
  0
LINE
  5
941B
  8
0
 10
18.220568762853318
 20
10.11162916345164
 30
0.0
 11
18.203607961262001
 21
10.1172415251558
 31
0.0
  0
LINE
  5
941C
  8
0
 10
18.203607961262001
 20
10.1172415251558
 30
0.0
 11
18.20387868202884
 21
10.10228638602006
 31
0.0
  0
LINE
  5
941D
  8
0
 10
18.20387868202884
 20
10.10228638602006
 30
0.0
 11
18.190574066277851
 21
10.094071611782731
 31
0.0
  0
LINE
  5
941E
  8
0
 10
18.065237628670911
 20
10.08179748153133
 30
0.0
 11
18.073628516954969
 21
10.08860625436659
 31
0.0
  0
LINE
  5
941F
  8
0
 10
18.171245185720672
 20
10.082369488313351
 30
0.0
 11
18.14983059086844
 21
10.06565903065688
 31
0.0
  0
LINE
  5
9420
  8
0
 10
18.073628516954969
 20
10.08860625436659
 30
0.0
 11
18.081894233271552
 21
10.092211498127201
 31
0.0
  0
LINE
  5
9421
  8
0
 10
18.081894233271552
 20
10.092211498127201
 30
0.0
 11
18.094717082496601
 21
10.102348972003471
 31
0.0
  0
LINE
  5
9422
  8
0
 10
18.094717082496601
 20
10.102348972003471
 30
0.0
 11
18.130431846887561
 21
10.1328821991367
 31
0.0
  0
LINE
  5
9423
  8
0
 10
18.063089328392131
 20
10.01285247075497
 30
0.0
 11
18.074025865177259
 21
10.020035304004059
 31
0.0
  0
LINE
  5
9424
  8
0
 10
18.074025865177259
 20
10.020035304004059
 30
0.0
 11
18.083083366962441
 21
10.039323430897859
 31
0.0
  0
LINE
  5
9425
  8
0
 10
18.083083366962441
 20
10.039323430897859
 30
0.0
 11
18.070646222055739
 21
10.05279106130364
 31
0.0
  0
LINE
  5
9426
  8
0
 10
18.070646222055739
 20
10.05279106130364
 30
0.0
 11
18.066092000123259
 21
10.06987703486242
 31
0.0
  0
LINE
  5
9427
  8
0
 10
18.066092000123259
 20
10.06987703486242
 30
0.0
 11
18.065237628670911
 21
10.08179748153133
 31
0.0
  0
LINE
  5
9428
  8
0
 10
18.14983059086844
 20
10.06565903065688
 30
0.0
 11
18.123347986821919
 21
10.053103991222301
 31
0.0
  0
LINE
  5
9429
  8
0
 10
18.123347986821919
 20
10.053103991222301
 30
0.0
 11
18.109378213057781
 21
10.024547316784711
 31
0.0
  0
LINE
  5
942A
  8
0
 10
18.109378213057781
 20
10.024547316784711
 30
0.0
 11
18.08705248272144
 21
10.01223534384553
 31
0.0
  0
LINE
  5
942B
  8
0
 10
18.08705248272144
 20
10.01223534384553
 30
0.0
 11
18.069788939627419
 21
10.00653856383814
 31
0.0
  0
LINE
  5
942C
  8
0
 10
18.069788939627419
 20
10.00653856383814
 30
0.0
 11
18.070093136618119
 21
9.9903637257634728
 31
0.0
  0
LINE
  5
942D
  8
0
 10
18.070093136618119
 20
9.9903637257634728
 30
0.0
 11
18.066522824569411
 21
9.9775292326344243
 31
0.0
  0
LINE
  5
942E
  8
0
 10
18.190574066277851
 20
10.094071611782731
 30
0.0
 11
18.171245185720672
 21
10.082369488313351
 31
0.0
  0
LINE
  5
942F
  8
0
 10
18.18955085821824
 20
9.9069249655449241
 30
0.0
 11
18.207811410588
 21
9.9146259525198221
 31
0.0
  0
LINE
  5
9430
  8
0
 10
18.103821159897588
 20
9.9084124742744262
 30
0.0
 11
18.121859022604291
 21
9.9241724982712167
 31
0.0
  0
LINE
  5
9431
  8
0
 10
18.121859022604291
 20
9.9241724982712167
 30
0.0
 11
18.12988021693792
 21
9.9349416539368942
 31
0.0
  0
LINE
  5
9432
  8
0
 10
18.12988021693792
 20
9.9349416539368942
 30
0.0
 11
18.166276149709969
 21
9.9606892365463864
 31
0.0
  0
LINE
  5
9433
  8
0
 10
18.166276149709969
 20
9.9606892365463864
 30
0.0
 11
18.221043251939289
 21
9.9887292127464136
 31
0.0
  0
LINE
  5
9434
  8
0
 10
18.364107533310261
 20
10.062065430800191
 30
0.0
 11
18.377356840517489
 21
10.062551563790061
 31
0.0
  0
LINE
  5
9435
  8
0
 10
18.377356840517489
 20
10.062551563790061
 30
0.0
 11
18.389727032976481
 21
10.06941418968062
 31
0.0
  0
LINE
  5
9436
  8
0
 10
18.357254913899631
 20
9.9616604184911921
 30
0.0
 11
18.357693203407241
 21
9.9621184906957261
 31
0.0
  0
LINE
  5
9437
  8
0
 10
18.357693203407241
 20
9.9621184906957261
 30
0.0
 11
18.358118018279921
 21
9.9625816741647686
 31
0.0
  0
LINE
  5
9438
  8
0
 10
18.358118018279921
 20
9.9625816741647686
 30
0.0
 11
18.358530211342661
 21
9.9630507023282462
 31
0.0
  0
LINE
  5
9439
  8
0
 10
18.358530211342661
 20
9.9630507023282462
 30
0.0
 11
18.358930635420439
 21
9.9635263086149681
 31
0.0
  0
LINE
  5
943A
  8
0
 10
18.358930635420439
 20
9.9635263086149681
 30
0.0
 11
18.35932014333827
 21
9.9640092264544329
 31
0.0
  0
LINE
  5
943B
  8
0
 10
18.35932014333827
 20
9.9640092264544329
 30
0.0
 11
18.359699587921138
 21
9.9645001892767997
 31
0.0
  0
LINE
  5
943C
  8
0
 10
18.359699587921138
 20
9.9645001892767997
 30
0.0
 11
18.360071277482049
 21
9.9649954133813026
 31
0.0
  0
LINE
  5
943D
  8
0
 10
18.360071277482049
 20
9.9649954133813026
 30
0.0
 11
18.360443342285969
 21
9.9654730465488175
 31
0.0
  0
LINE
  5
943E
  8
0
 10
18.360443342285969
 20
9.9654730465488175
 30
0.0
 11
18.36082536808582
 21
9.965906719430448
 31
0.0
  0
LINE
  5
943F
  8
0
 10
18.36082536808582
 20
9.965906719430448
 30
0.0
 11
18.361226940634602
 21
9.9662700626774878
 31
0.0
  0
LINE
  5
9440
  8
0
 10
18.361226940634602
 20
9.9662700626774878
 30
0.0
 11
18.361657645685248
 21
9.9665367069403583
 31
0.0
  0
LINE
  5
9441
  8
0
 10
18.361657645685248
 20
9.9665367069403583
 30
0.0
 11
18.362127068990741
 21
9.9666802828714882
 31
0.0
  0
LINE
  5
9442
  8
0
 10
18.362127068990741
 20
9.9666802828714882
 30
0.0
 11
18.362644796304021
 21
9.9666744211210681
 31
0.0
  0
LINE
  5
9443
  8
0
 10
18.362644796304021
 20
9.9666744211210681
 30
0.0
 11
18.363220413378059
 21
9.9664927523404003
 31
0.0
  0
LINE
  5
9444
  8
0
 10
18.363220413378059
 20
9.9664927523404003
 30
0.0
 11
18.363860399313861
 21
9.966117545823856
 31
0.0
  0
LINE
  5
9445
  8
0
 10
18.363860399313861
 20
9.966117545823856
 30
0.0
 11
18.364558806604659
 21
9.9655656254396945
 31
0.0
  0
LINE
  5
9446
  8
0
 10
18.364558806604659
 20
9.9655656254396945
 30
0.0
 11
18.365306581091751
 21
9.9648624537000998
 31
0.0
  0
LINE
  5
9447
  8
0
 10
18.365306581091751
 20
9.9648624537000998
 30
0.0
 11
18.366094668616409
 21
9.9640334931163981
 31
0.0
  0
LINE
  5
9448
  8
0
 10
18.366094668616409
 20
9.9640334931163981
 30
0.0
 11
18.366914015019951
 21
9.9631042061998851
 31
0.0
  0
LINE
  5
9449
  8
0
 10
18.366914015019951
 20
9.9631042061998851
 30
0.0
 11
18.367755566143629
 21
9.9621000554620824
 31
0.0
  0
LINE
  5
944A
  8
0
 10
18.392496057190939
 20
10.010080501451499
 30
0.0
 11
18.391767889150529
 21
10.010840759875229
 31
0.0
  0
LINE
  5
944B
  8
0
 10
18.391767889150529
 20
10.010840759875229
 30
0.0
 11
18.391171604810289
 21
10.011155371754271
 31
0.0
  0
LINE
  5
944C
  8
0
 10
18.391171604810289
 20
10.011155371754271
 30
0.0
 11
18.39071452046112
 21
10.010962441893289
 31
0.0
  0
LINE
  5
944D
  8
0
 10
18.39071452046112
 20
10.010962441893289
 30
0.0
 11
18.390381922976669
 21
10.01030292579116
 31
0.0
  0
LINE
  5
944E
  8
0
 10
18.390381922976669
 20
10.01030292579116
 30
0.0
 11
18.390153591876281
 21
10.00924349162096
 31
0.0
  0
LINE
  5
944F
  8
0
 10
18.390153591876281
 20
10.00924349162096
 30
0.0
 11
18.390009306679271
 21
10.007850807554849
 31
0.0
  0
LINE
  5
9450
  8
0
 10
18.390009306679271
 20
10.007850807554849
 30
0.0
 11
18.38992884690499
 21
10.00619154176615
 31
0.0
  0
LINE
  5
9451
  8
0
 10
18.38992884690499
 20
10.00619154176615
 30
0.0
 11
18.389891992072769
 21
10.00433236242724
 31
0.0
  0
LINE
  5
9452
  8
0
 10
18.389891992072769
 20
10.00433236242724
 30
0.0
 11
18.389878521701959
 21
10.00233993771098
 31
0.0
  0
LINE
  5
9453
  8
0
 10
18.389878521701959
 20
10.00233993771098
 30
0.0
 11
18.389868215311878
 21
10.00028093579021
 31
0.0
  0
LINE
  5
9454
  8
0
 10
18.389868215311878
 20
10.00028093579021
 30
0.0
 11
18.389846063656378
 21
9.9982114791823662
 31
0.0
  0
LINE
  5
9455
  8
0
 10
18.389846063656378
 20
9.9982114791823662
 30
0.0
 11
18.389817902427421
 21
9.9961455077859664
 31
0.0
  0
LINE
  5
9456
  8
0
 10
18.389817902427421
 20
9.9961455077859664
 30
0.0
 11
18.38979477855144
 21
9.9940864158445422
 31
0.0
  0
LINE
  5
9457
  8
0
 10
18.38979477855144
 20
9.9940864158445422
 30
0.0
 11
18.38978773895488
 21
9.9920375976012021
 31
0.0
  0
LINE
  5
9458
  8
0
 10
18.38978773895488
 20
9.9920375976012021
 30
0.0
 11
18.389807830564219
 21
9.9900024473006361
 31
0.0
  0
LINE
  5
9459
  8
0
 10
18.389807830564219
 20
9.9900024473006361
 30
0.0
 11
18.389866100305881
 21
9.9879843591847859
 31
0.0
  0
LINE
  5
945A
  8
0
 10
18.389866100305881
 20
9.9879843591847859
 30
0.0
 11
18.389973595106341
 21
9.98598672749835
 31
0.0
  0
LINE
  5
945B
  8
0
 10
18.389973595106341
 20
9.98598672749835
 30
0.0
 11
18.390141361892031
 21
9.9840129464839702
 31
0.0
  0
LINE
  5
945C
  8
0
 10
18.390141361892031
 20
9.9840129464839702
 30
0.0
 11
18.390377753846909
 21
9.98206761902793
 31
0.0
  0
LINE
  5
945D
  8
0
 10
18.390377753846909
 20
9.98206761902793
 30
0.0
 11
18.39068034918489
 21
9.9801601825868147
 31
0.0
  0
LINE
  5
945E
  8
0
 10
18.39068034918489
 20
9.9801601825868147
 30
0.0
 11
18.391044032377351
 21
9.9783012832585882
 31
0.0
  0
LINE
  5
945F
  8
0
 10
18.391044032377351
 20
9.9783012832585882
 30
0.0
 11
18.391463687895701
 21
9.9765015671425719
 31
0.0
  0
LINE
  5
9460
  8
0
 10
18.391463687895701
 20
9.9765015671425719
 30
0.0
 11
18.391934200211331
 21
9.974771680337648
 31
0.0
  0
LINE
  5
9461
  8
0
 10
18.391934200211331
 20
9.974771680337648
 30
0.0
 11
18.392450453795639
 21
9.9731222689415464
 31
0.0
  0
LINE
  5
9462
  8
0
 10
18.238624091415961
 20
10.15787729445332
 30
0.0
 11
18.250110802662729
 21
10.138193274825881
 31
0.0
  0
LINE
  5
9463
  8
0
 10
18.250110802662729
 20
10.138193274825881
 30
0.0
 11
18.23463750980105
 21
10.126197142781381
 31
0.0
  0
LINE
  5
9464
  8
0
 10
18.27770831051248
 20
9.9962657295782265
 30
0.0
 11
18.314204671956102
 21
10.002141534608651
 31
0.0
  0
LINE
  5
9465
  8
0
 10
18.314204671956102
 20
10.002141534608651
 30
0.0
 11
18.328037629848819
 21
9.9999786794501144
 31
0.0
  0
LINE
  5
9466
  8
0
 10
18.328037629848819
 20
9.9999786794501144
 30
0.0
 11
18.33304159757137
 21
10.009926939887229
 31
0.0
  0
LINE
  5
9467
  8
0
 10
18.33304159757137
 20
10.009926939887229
 30
0.0
 11
18.339636413671119
 21
10.02657335607204
 31
0.0
  0
LINE
  5
9468
  8
0
 10
18.339636413671119
 20
10.02657335607204
 30
0.0
 11
18.35121190968551
 21
10.05054815430548
 31
0.0
  0
LINE
  5
9469
  8
0
 10
18.310597972707551
 20
9.9678254941798041
 30
0.0
 11
18.308193506541851
 21
9.9674441563254241
 31
0.0
  0
LINE
  5
946A
  8
0
 10
18.308193506541851
 20
9.9674441563254241
 30
0.0
 11
18.30838417546903
 21
9.96153633055882
 31
0.0
  0
LINE
  5
946B
  8
0
 10
18.310597972707551
 20
9.9678254941798041
 30
0.0
 11
18.31152400657054
 21
9.9679540134852616
 31
0.0
  0
LINE
  5
946C
  8
0
 10
18.31152400657054
 20
9.9679540134852616
 30
0.0
 11
18.312453193043261
 21
9.9680463985960142
 31
0.0
  0
LINE
  5
946D
  8
0
 10
18.312453193043261
 20
9.9680463985960142
 30
0.0
 11
18.313384318271481
 21
9.9681017199320632
 31
0.0
  0
LINE
  5
946E
  8
0
 10
18.313384318271481
 20
9.9681017199320632
 30
0.0
 11
18.31431616840095
 21
9.968119047914568
 31
0.0
  0
LINE
  5
946F
  8
0
 10
18.31431616840095
 20
9.968119047914568
 30
0.0
 11
18.315247529577409
 21
9.9680974529644537
 31
0.0
  0
LINE
  5
9470
  8
0
 10
18.315247529577409
 20
9.9680974529644537
 30
0.0
 11
18.316177187946639
 21
9.9680360055019701
 31
0.0
  0
LINE
  5
9471
  8
0
 10
18.316177187946639
 20
9.9680360055019701
 30
0.0
 11
18.31710392965438
 21
9.967933775948266
 31
0.0
  0
LINE
  5
9472
  8
0
 10
18.31710392965438
 20
9.967933775948266
 30
0.0
 11
18.318026540846379
 21
9.9677898347240408
 31
0.0
  0
LINE
  5
9473
  8
0
 10
18.318026540846379
 20
9.9677898347240408
 30
0.0
 11
18.318944814949479
 21
9.96760359764402
 31
0.0
  0
LINE
  5
9474
  8
0
 10
18.318944814949479
 20
9.96760359764402
 30
0.0
 11
18.31986257451485
 21
9.9673758620999671
 31
0.0
  0
LINE
  5
9475
  8
0
 10
18.31986257451485
 20
9.9673758620999671
 30
0.0
 11
18.320784649374691
 21
9.9671077708767282
 31
0.0
  0
LINE
  5
9476
  8
0
 10
18.320784649374691
 20
9.9671077708767282
 30
0.0
 11
18.321715869361238
 21
9.9668004667603327
 31
0.0
  0
LINE
  5
9477
  8
0
 10
18.321715869361238
 20
9.9668004667603327
 30
0.0
 11
18.322661064306729
 21
9.9664550925360782
 31
0.0
  0
LINE
  5
9478
  8
0
 10
18.322661064306729
 20
9.9664550925360782
 30
0.0
 11
18.323625064043391
 21
9.9660727909895286
 31
0.0
  0
LINE
  5
9479
  8
0
 10
18.323625064043391
 20
9.9660727909895286
 30
0.0
 11
18.324612698403449
 21
9.9656547049062247
 31
0.0
  0
LINE
  5
947A
  8
0
 10
18.324612698403449
 20
9.9656547049062247
 30
0.0
 11
18.325628797219132
 21
9.9652019770710467
 31
0.0
  0
LINE
  5
947B
  8
0
 10
18.325628797219132
 20
9.9652019770710467
 30
0.0
 11
18.32667599571969
 21
9.9647168106162063
 31
0.0
  0
LINE
  5
947C
  8
0
 10
18.32667599571969
 20
9.9647168106162063
 30
0.0
 11
18.327748150722389
 21
9.9642056500554101
 31
0.0
  0
LINE
  5
947D
  8
0
 10
18.327748150722389
 20
9.9642056500554101
 30
0.0
 11
18.328836924441511
 21
9.9636760002488245
 31
0.0
  0
LINE
  5
947E
  8
0
 10
18.328836924441511
 20
9.9636760002488245
 30
0.0
 11
18.329933979091361
 21
9.9631353660558943
 31
0.0
  0
LINE
  5
947F
  8
0
 10
18.329933979091361
 20
9.9631353660558943
 30
0.0
 11
18.331030976886201
 21
9.9625912523374538
 31
0.0
  0
LINE
  5
9480
  8
0
 10
18.331030976886201
 20
9.9625912523374538
 30
0.0
 11
18.332119580040331
 21
9.9620511639525304
 31
0.0
  0
LINE
  5
9481
  8
0
 10
18.332119580040331
 20
9.9620511639525304
 30
0.0
 11
18.33319145076803
 21
9.9615226057619513
 31
0.0
  0
LINE
  5
9482
  8
0
 10
18.35121190968551
 20
10.05054815430548
 30
0.0
 11
18.364107533310261
 21
10.062065430800191
 31
0.0
  0
LINE
  5
9483
  8
0
 10
18.374350859471381
 20
9.9289634453716644
 30
0.0
 11
18.374350859471381
 21
9.9289634453716644
 31
0.0
  0
LINE
  5
9484
  8
0
 10
18.36861026782876
 20
9.9610465034156661
 30
0.0
 11
18.369469065916611
 21
9.9599690125712641
 31
0.0
  0
LINE
  5
9485
  8
0
 10
18.369469065916611
 20
9.9599690125712641
 30
0.0
 11
18.370328828170511
 21
9.9588843129863545
 31
0.0
  0
LINE
  5
9486
  8
0
 10
18.370328828170511
 20
9.9588843129863545
 30
0.0
 11
18.371210110041819
 21
9.9577742049023037
 31
0.0
  0
LINE
  5
9487
  8
0
 10
18.371210110041819
 20
9.9577742049023037
 30
0.0
 11
18.372139388903921
 21
9.9566117561057581
 31
0.0
  0
LINE
  5
9488
  8
0
 10
18.372139388903921
 20
9.9566117561057581
 30
0.0
 11
18.3731431421302
 21
9.9553700343826641
 31
0.0
  0
LINE
  5
9489
  8
0
 10
18.3731431421302
 20
9.9553700343826641
 30
0.0
 11
18.37424784709405
 21
9.9540221075201281
 31
0.0
  0
LINE
  5
948A
  8
0
 10
18.37424784709405
 20
9.9540221075201281
 30
0.0
 11
18.375479981168859
 21
9.9525410433047838
 31
0.0
  0
LINE
  5
948B
  8
0
 10
18.375479981168859
 20
9.9525410433047838
 30
0.0
 11
18.376866021728009
 21
9.9508999095232866
 31
0.0
  0
LINE
  5
948C
  8
0
 10
18.376866021728009
 20
9.9508999095232866
 30
0.0
 11
18.378432446144881
 21
9.9490717739613501
 31
0.0
  0
LINE
  5
948D
  8
0
 10
18.378432446144881
 20
9.9490717739613501
 30
0.0
 11
18.380198283787891
 21
9.9470350890494483
 31
0.0
  0
LINE
  5
948E
  8
0
 10
18.380198283787891
 20
9.9470350890494483
 30
0.0
 11
18.3821527720056
 21
9.9447898457844968
 31
0.0
  0
LINE
  5
948F
  8
0
 10
18.3821527720056
 20
9.9447898457844968
 30
0.0
 11
18.38427770014157
 21
9.9423414198065476
 31
0.0
  0
LINE
  5
9490
  8
0
 10
18.38427770014157
 20
9.9423414198065476
 30
0.0
 11
18.386554857539391
 21
9.9396951867563441
 31
0.0
  0
LINE
  5
9491
  8
0
 10
18.386554857539391
 20
9.9396951867563441
 30
0.0
 11
18.388966033542651
 21
9.93685652227418
 31
0.0
  0
LINE
  5
9492
  8
0
 10
18.388966033542651
 20
9.93685652227418
 30
0.0
 11
18.391493017494909
 21
9.9338308020001023
 31
0.0
  0
LINE
  5
9493
  8
0
 10
18.391187524210221
 20
9.906849795654578
 30
0.0
 11
18.388815788046511
 21
9.9095749064886096
 31
0.0
  0
LINE
  5
9494
  8
0
 10
18.388815788046511
 20
9.9095749064886096
 30
0.0
 11
18.3865006368213
 21
9.9123231317228147
 31
0.0
  0
LINE
  5
9495
  8
0
 10
18.3865006368213
 20
9.9123231317228147
 30
0.0
 11
18.38428313405818
 21
9.9150458916024
 31
0.0
  0
LINE
  5
9496
  8
0
 10
18.38428313405818
 20
9.9150458916024
 30
0.0
 11
18.382204343280709
 21
9.9176946063735141
 31
0.0
  0
LINE
  5
9497
  8
0
 10
18.382204343280709
 20
9.9176946063735141
 30
0.0
 11
18.38029409678105
 21
9.9202301010452576
 31
0.0
  0
LINE
  5
9498
  8
0
 10
18.38029409678105
 20
9.9202301010452576
 30
0.0
 11
18.378537301925761
 21
9.9226508196868473
 31
0.0
  0
LINE
  5
9499
  8
0
 10
18.378537301925761
 20
9.9226508196868473
 30
0.0
 11
18.376907634849921
 21
9.9249646111297736
 31
0.0
  0
LINE
  5
949A
  8
0
 10
18.376907634849921
 20
9.9249646111297736
 30
0.0
 11
18.375378771688631
 21
9.9271793242075983
 31
0.0
  0
LINE
  5
949B
  8
0
 10
18.375378771688631
 20
9.9271793242075983
 30
0.0
 11
18.37392438857702
 21
9.9293028077524923
 31
0.0
  0
LINE
  5
949C
  8
0
 10
18.37392438857702
 20
9.9293028077524923
 30
0.0
 11
18.37251816165022
 21
9.9313429105977722
 31
0.0
  0
LINE
  5
949D
  8
0
 10
18.37251816165022
 20
9.9313429105977722
 30
0.0
 11
18.371133767043322
 21
9.933307481576092
 31
0.0
  0
LINE
  5
949E
  8
0
 10
18.371133767043322
 20
9.933307481576092
 30
0.0
 11
18.369744880891432
 21
9.9352043695196244
 31
0.0
  0
LINE
  5
949F
  8
0
 10
18.369744880891432
 20
9.9352043695196244
 30
0.0
 11
18.368330717480461
 21
9.9370387700284901
 31
0.0
  0
LINE
  5
94A0
  8
0
 10
18.368330717480461
 20
9.9370387700284901
 30
0.0
 11
18.36689264369932
 21
9.9388052657679964
 31
0.0
  0
LINE
  5
94A1
  8
0
 10
18.36689264369932
 20
9.9388052657679964
 30
0.0
 11
18.365437564587769
 21
9.9404957861711338
 31
0.0
  0
LINE
  5
94A2
  8
0
 10
18.365437564587769
 20
9.9404957861711338
 30
0.0
 11
18.363972385185502
 21
9.9421022606713905
 31
0.0
  0
LINE
  5
94A3
  8
0
 10
18.363972385185502
 20
9.9421022606713905
 30
0.0
 11
18.362504010532259
 21
9.9436166187008421
 31
0.0
  0
LINE
  5
94A4
  8
0
 10
18.362504010532259
 20
9.9436166187008421
 30
0.0
 11
18.361039345667731
 21
9.9450307896925061
 31
0.0
  0
LINE
  5
94A5
  8
0
 10
18.361039345667731
 20
9.9450307896925061
 30
0.0
 11
18.359585295631671
 21
9.9463367030791652
 31
0.0
  0
LINE
  5
94A6
  8
0
 10
18.359585295631671
 20
9.9463367030791652
 30
0.0
 11
18.358148765463799
 21
9.9475262882936004
 31
0.0
  0
LINE
  5
94A7
  8
0
 10
18.358148765463799
 20
9.9475262882936004
 30
0.0
 11
18.35673368289698
 21
9.9485943066213114
 31
0.0
  0
LINE
  5
94A8
  8
0
 10
18.334238251283569
 20
9.9610130826249605
 30
0.0
 11
18.335254779828311
 21
9.9605291949337662
 31
0.0
  0
LINE
  5
94A9
  8
0
 10
18.335254779828311
 20
9.9605291949337662
 30
0.0
 11
18.336248378751641
 21
9.9600739252066361
 31
0.0
  0
LINE
  5
94AA
  8
0
 10
18.336248378751641
 20
9.9600739252066361
 30
0.0
 11
18.337229526430011
 21
9.9596493514941304
 31
0.0
  0
LINE
  5
94AB
  8
0
 10
18.337229526430011
 20
9.9596493514941304
 30
0.0
 11
18.3382087012399
 21
9.9592575518458943
 31
0.0
  0
LINE
  5
94AC
  8
0
 10
18.3382087012399
 20
9.9592575518458943
 30
0.0
 11
18.339196381557748
 21
9.9589006043127046
 31
0.0
  0
LINE
  5
94AD
  8
0
 10
18.339196381557748
 20
9.9589006043127046
 30
0.0
 11
18.34020304576002
 21
9.9585805869446542
 31
0.0
  0
LINE
  5
94AE
  8
0
 10
18.34020304576002
 20
9.9585805869446542
 30
0.0
 11
18.341239172223169
 21
9.9582995777918697
 31
0.0
  0
LINE
  5
94AF
  8
0
 10
18.341239172223169
 20
9.9582995777918697
 30
0.0
 11
18.342315239323639
 21
9.9580596549042166
 31
0.0
  0
LINE
  5
94B0
  8
0
 10
18.342315239323639
 20
9.9580596549042166
 30
0.0
 11
18.343436945827591
 21
9.9578629081779582
 31
0.0
  0
LINE
  5
94B1
  8
0
 10
18.343436945827591
 20
9.9578629081779582
 30
0.0
 11
18.344590872059879
 21
9.9577114748860822
 31
0.0
  0
LINE
  5
94B2
  8
0
 10
18.344590872059879
 20
9.9577114748860822
 30
0.0
 11
18.345758818735131
 21
9.9576075041479708
 31
0.0
  0
LINE
  5
94B3
  8
0
 10
18.345758818735131
 20
9.9576075041479708
 30
0.0
 11
18.346922586567889
 21
9.957553145082322
 31
0.0
  0
LINE
  5
94B4
  8
0
 10
18.346922586567889
 20
9.957553145082322
 30
0.0
 11
18.348063976272751
 21
9.9575505468089887
 31
0.0
  0
LINE
  5
94B5
  8
0
 10
18.348063976272751
 20
9.9575505468089887
 30
0.0
 11
18.349164788564291
 21
9.9576018584464201
 31
0.0
  0
LINE
  5
94B6
  8
0
 10
18.349164788564291
 20
9.9576018584464201
 30
0.0
 11
18.35020682415707
 21
9.9577092291137834
 31
0.0
  0
LINE
  5
94B7
  8
0
 10
18.35020682415707
 20
9.9577092291137834
 30
0.0
 11
18.351171883765691
 21
9.957874807929322
 31
0.0
  0
LINE
  5
94B8
  8
0
 10
18.351171883765691
 20
9.957874807929322
 30
0.0
 11
18.352046450113939
 21
9.9580991890286423
 31
0.0
  0
LINE
  5
94B9
  8
0
 10
18.352046450113939
 20
9.9580991890286423
 30
0.0
 11
18.352835733962561
 21
9.958376746608792
 31
0.0
  0
LINE
  5
94BA
  8
0
 10
18.352835733962561
 20
9.958376746608792
 30
0.0
 11
18.353549628081499
 21
9.9587002998844127
 31
0.0
  0
LINE
  5
94BB
  8
0
 10
18.353549628081499
 20
9.9587002998844127
 30
0.0
 11
18.354198025240731
 21
9.959062668068098
 31
0.0
  0
LINE
  5
94BC
  8
0
 10
18.354198025240731
 20
9.959062668068098
 30
0.0
 11
18.35479081821018
 21
9.9594566703738021
 31
0.0
  0
LINE
  5
94BD
  8
0
 10
18.35479081821018
 20
9.9594566703738021
 30
0.0
 11
18.355337899759839
 21
9.9598751260148184
 31
0.0
  0
LINE
  5
94BE
  8
0
 10
18.355337899759839
 20
9.9598751260148184
 30
0.0
 11
18.355849162659648
 21
9.9603108542048631
 31
0.0
  0
LINE
  5
94BF
  8
0
 10
18.355849162659648
 20
9.9603108542048631
 30
0.0
 11
18.356334499679569
 21
9.9607566741569826
 31
0.0
  0
LINE
  5
94C0
  8
0
 10
18.355332066436858
 20
9.9495468467589419
 30
0.0
 11
18.353932957282229
 21
9.9503928292560868
 31
0.0
  0
LINE
  5
94C1
  8
0
 10
18.353932957282229
 20
9.9503928292560868
 30
0.0
 11
18.352525396631879
 21
9.9511411746620961
 31
0.0
  0
LINE
  5
94C2
  8
0
 10
18.352525396631879
 20
9.9511411746620961
 30
0.0
 11
18.351098425684629
 21
9.9518008035263321
 31
0.0
  0
LINE
  5
94C3
  8
0
 10
18.351098425684629
 20
9.9518008035263321
 30
0.0
 11
18.349641085639242
 21
9.9523806363990843
 31
0.0
  0
LINE
  5
94C4
  8
0
 10
18.349641085639242
 20
9.9523806363990843
 30
0.0
 11
18.34814241769455
 21
9.9528895938283224
 31
0.0
  0
LINE
  5
94C5
  8
0
 10
18.34814241769455
 20
9.9528895938283224
 30
0.0
 11
18.346591463049322
 21
9.9533365963648066
 31
0.0
  0
LINE
  5
94C6
  8
0
 10
18.346591463049322
 20
9.9533365963648066
 30
0.0
 11
18.344980494635291
 21
9.953730330504408
 31
0.0
  0
LINE
  5
94C7
  8
0
 10
18.344980494635291
 20
9.953730330504408
 30
0.0
 11
18.34331471231603
 21
9.9540785465308037
 31
0.0
  0
LINE
  5
94C8
  8
0
 10
18.34331471231603
 20
9.9540785465308037
 30
0.0
 11
18.341602547687948
 21
9.9543887606757764
 31
0.0
  0
LINE
  5
94C9
  8
0
 10
18.341602547687948
 20
9.9543887606757764
 30
0.0
 11
18.33985243234752
 21
9.9546684891697623
 31
0.0
  0
LINE
  5
94CA
  8
0
 10
18.33985243234752
 20
9.9546684891697623
 30
0.0
 11
18.338072797891229
 21
9.9549252482436223
 31
0.0
  0
LINE
  5
94CB
  8
0
 10
18.338072797891229
 20
9.9549252482436223
 30
0.0
 11
18.336272075915531
 21
9.9551665541289314
 31
0.0
  0
LINE
  5
94CC
  8
0
 10
18.336272075915531
 20
9.9551665541289314
 30
0.0
 11
18.334458698016881
 21
9.9553999230558876
 31
0.0
  0
LINE
  5
94CD
  8
0
 10
18.334458698016881
 20
9.9553999230558876
 30
0.0
 11
18.33264109579175
 21
9.9556328712562792
 31
0.0
  0
LINE
  5
94CE
  8
0
 10
18.33264109579175
 20
9.9556328712562792
 30
0.0
 11
18.330828153781439
 21
9.9558717809397823
 31
0.0
  0
LINE
  5
94CF
  8
0
 10
18.330828153781439
 20
9.9558717809397823
 30
0.0
 11
18.32903056830655
 21
9.9561184982367177
 31
0.0
  0
LINE
  5
94D0
  8
0
 10
18.32903056830655
 20
9.9561184982367177
 30
0.0
 11
18.327259488632571
 21
9.9563737352548234
 31
0.0
  0
LINE
  5
94D1
  8
0
 10
18.327259488632571
 20
9.9563737352548234
 30
0.0
 11
18.32552606402492
 21
9.9566382041039105
 31
0.0
  0
LINE
  5
94D2
  8
0
 10
18.32552606402492
 20
9.9566382041039105
 30
0.0
 11
18.32384144374905
 21
9.9569126168921684
 31
0.0
  0
LINE
  5
94D3
  8
0
 10
18.32384144374905
 20
9.9569126168921684
 30
0.0
 11
18.32221677707043
 21
9.9571976857287101
 31
0.0
  0
LINE
  5
94D4
  8
0
 10
18.32221677707043
 20
9.9571976857287101
 30
0.0
 11
18.320663213254491
 21
9.9574941227231122
 31
0.0
  0
LINE
  5
94D5
  8
0
 10
18.320663213254491
 20
9.9574941227231122
 30
0.0
 11
18.319191901566722
 21
9.9578026399831234
 31
0.0
  0
LINE
  5
94D6
  8
0
 10
18.319191901566722
 20
9.9578026399831234
 30
0.0
 11
18.317811799038509
 21
9.9581234293946164
 31
0.0
  0
LINE
  5
94D7
  8
0
 10
18.317811799038509
 20
9.9581234293946164
 30
0.0
 11
18.316523093765149
 21
9.9584546019504998
 31
0.0
  0
LINE
  5
94D8
  8
0
 10
18.316523093765149
 20
9.9584546019504998
 30
0.0
 11
18.31532378160793
 21
9.9587937484200122
 31
0.0
  0
LINE
  5
94D9
  8
0
 10
18.31532378160793
 20
9.9587937484200122
 30
0.0
 11
18.31421185842806
 21
9.9591384595732961
 31
0.0
  0
LINE
  5
94DA
  8
0
 10
18.31421185842806
 20
9.9591384595732961
 30
0.0
 11
18.313185320086831
 21
9.9594863261784141
 31
0.0
  0
LINE
  5
94DB
  8
0
 10
18.313185320086831
 20
9.9594863261784141
 30
0.0
 11
18.3122421624455
 21
9.9598349390057521
 31
0.0
  0
LINE
  5
94DC
  8
0
 10
18.3122421624455
 20
9.9598349390057521
 30
0.0
 11
18.311380381365311
 21
9.9601818888243034
 31
0.0
  0
LINE
  5
94DD
  8
0
 10
18.311380381365311
 20
9.9601818888243034
 30
0.0
 11
18.310597972707551
 21
9.9605247664032923
 31
0.0
  0
LINE
  5
94DE
  8
0
 10
18.278693675884259
 20
9.9135430694525422
 30
0.0
 11
18.286058445132699
 21
9.9051973012963064
 31
0.0
  0
LINE
  5
94DF
  8
0
 10
18.225676070223429
 20
9.9259685704553249
 30
0.0
 11
18.24424809702386
 21
9.9303990759083263
 31
0.0
  0
LINE
  5
94E0
  8
0
 10
18.24424809702386
 20
9.9303990759083263
 30
0.0
 11
18.256114690637009
 21
9.9299798953659302
 31
0.0
  0
LINE
  5
94E1
  8
0
 10
18.256114690637009
 20
9.9299798953659302
 30
0.0
 11
18.261926454196111
 21
9.9288882793709927
 31
0.0
  0
LINE
  5
94E2
  8
0
 10
18.278693675884259
 20
9.9135430694525422
 30
0.0
 11
18.273680975233731
 21
9.9192238390924103
 31
0.0
  0
LINE
  5
94E3
  8
0
 10
18.273680975233731
 20
9.9192238390924103
 30
0.0
 11
18.26937273077219
 21
9.9274895554087763
 31
0.0
  0
LINE
  5
94E4
  8
0
 10
18.26937273077219
 20
9.9274895554087763
 30
0.0
 11
18.261926454196111
 21
9.9288882793709927
 31
0.0
  0
LINE
  5
94E5
  8
0
 10
18.356334499679569
 20
9.9607566741569826
 30
0.0
 11
18.35680229693207
 21
9.9612067241209843
 31
0.0
  0
LINE
  5
94E6
  8
0
 10
18.35673368289698
 20
9.9485943066213114
 30
0.0
 11
18.355332066436858
 21
9.9495468467589419
 31
0.0
  0
LINE
  5
94E7
  8
0
 10
18.30838417546903
 20
9.96153633055882
 30
0.0
 11
18.310597972707551
 21
9.9605247664030685
 31
0.0
  0
LINE
  5
94E8
  8
0
 10
18.33319145076803
 20
9.9615226057619513
 30
0.0
 11
18.334238251283569
 21
9.9610130826249605
 31
0.0
  0
LINE
  5
94E9
  8
0
 10
18.35680229693207
 20
9.9612067241209843
 30
0.0
 11
18.357254913899631
 21
9.9616604184911921
 31
0.0
  0
LINE
  5
94EA
  8
0
 10
18.367755566143629
 20
9.9621000554620824
 30
0.0
 11
18.36861026782876
 21
9.9610465034156661
 31
0.0
  0
LINE
  5
94EB
  8
0
 10
18.413005285446388
 20
9.9060827117880326
 30
0.0
 11
18.41535088915705
 21
9.9031127018331482
 31
0.0
  0
ARC
  5
94EC
  8
0
 10
18.49489186247785
 20
10.017412514639309
 30
0.0
 40
0.160466095824399
 50
282.4976340000004
 51
5.3357755839129428
  0
ARC
  5
94ED
  8
0
 10
18.434094619636159
 20
10.00365525312349
 30
0.0
 40
0.1583906795371874
 50
270.3585265090901
 51
281.74765214791682
  0
ARC
  5
94EE
  8
0
 10
18.435089637603841
 20
9.8065255166948102
 30
0.0
 40
0.0387421580429976
 50
90.005767445201499
 51
152.781041066928
  0
LINE
  5
94EF
  8
0
 10
18.406339255367541
 20
9.8928055175781502
 30
0.0
 11
18.406339255367541
 21
9.8928055175781502
 31
0.0
  0
LINE
  5
94F0
  8
0
 10
18.41535088915705
 20
9.9031127018331482
 30
0.0
 11
18.417496530990821
 21
9.9005045654228017
 31
0.0
  0
LINE
  5
94F1
  8
0
 10
18.417496530990821
 20
9.9005045654228017
 30
0.0
 11
18.419411659439781
 21
9.8983130809292561
 31
0.0
  0
LINE
  5
94F2
  8
0
 10
18.419411659439781
 20
9.8983130809292561
 30
0.0
 11
18.421092738596741
 21
9.8965076816823458
 31
0.0
  0
LINE
  5
94F3
  8
0
 10
18.421092738596741
 20
9.8965076816823458
 30
0.0
 11
18.42254298645468
 21
9.8950364647525841
 31
0.0
  0
LINE
  5
94F4
  8
0
 10
18.42254298645468
 20
9.8950364647525841
 30
0.0
 11
18.423765621006631
 21
9.8938475272113902
 31
0.0
  0
LINE
  5
94F5
  8
0
 10
18.423765621006631
 20
9.8938475272113902
 30
0.0
 11
18.42476386024552
 21
9.8928889661294743
 31
0.0
  0
LINE
  5
94F6
  8
0
 10
18.42476386024552
 20
9.8928889661294743
 30
0.0
 11
18.425540922164348
 21
9.8921088785768863
 31
0.0
  0
LINE
  5
94F7
  8
0
 10
18.425540922164348
 20
9.8921088785768863
 30
0.0
 11
18.426100024756121
 21
9.8914553616250434
 31
0.0
  0
LINE
  5
94F8
  8
0
 10
18.426100024756121
 20
9.8914553616250434
 30
0.0
 11
18.42644438601382
 21
9.8908765123444482
 31
0.0
  0
LINE
  5
94F9
  8
0
 10
18.42644438601382
 20
9.8908765123444482
 30
0.0
 11
18.426579542666811
 21
9.8903297439710478
 31
0.0
  0
LINE
  5
94FA
  8
0
 10
18.426579542666811
 20
9.8903297439710478
 30
0.0
 11
18.426520306390149
 21
9.8898097344031122
 31
0.0
  0
LINE
  5
94FB
  8
0
 10
18.426520306390149
 20
9.8898097344031122
 30
0.0
 11
18.426283807595251
 21
9.889320477704814
 31
0.0
  0
LINE
  5
94FC
  8
0
 10
18.426283807595251
 20
9.889320477704814
 30
0.0
 11
18.425887176693539
 21
9.8888659679394042
 31
0.0
  0
LINE
  5
94FD
  8
0
 10
18.425887176693539
 20
9.8888659679394042
 30
0.0
 11
18.425347544096429
 21
9.8884501991710678
 31
0.0
  0
LINE
  5
94FE
  8
0
 10
18.425347544096429
 20
9.8884501991710678
 30
0.0
 11
18.424682040215352
 21
9.8880771654632937
 31
0.0
  0
LINE
  5
94FF
  8
0
 10
18.424682040215352
 20
9.8880771654632937
 30
0.0
 11
18.423907795461769
 21
9.8877508608795761
 31
0.0
  0
LINE
  5
9500
  8
0
 10
18.423907795461769
 20
9.8877508608795761
 30
0.0
 11
18.42304194024706
 21
9.8874752794843062
 31
0.0
  0
LINE
  5
9501
  8
0
 10
18.42304194024706
 20
9.8874752794843062
 30
0.0
 11
18.422099465339521
 21
9.887255182409028
 31
0.0
  0
LINE
  5
9502
  8
0
 10
18.422099465339521
 20
9.887255182409028
 30
0.0
 11
18.421086802934759
 21
9.8870983990616423
 31
0.0
  0
LINE
  5
9503
  8
0
 10
18.421086802934759
 20
9.8870983990616423
 30
0.0
 11
18.420008245585301
 21
9.8870135259185101
 31
0.0
  0
LINE
  5
9504
  8
0
 10
18.420008245585301
 20
9.8870135259185101
 30
0.0
 11
18.418868085843609
 21
9.8870091594542302
 31
0.0
  0
LINE
  5
9505
  8
0
 10
18.418868085843609
 20
9.8870091594542302
 30
0.0
 11
18.417670616262161
 21
9.8870938961458688
 31
0.0
  0
LINE
  5
9506
  8
0
 10
18.417670616262161
 20
9.8870938961458688
 30
0.0
 11
18.41642012939343
 21
9.8872763324688968
 31
0.0
  0
LINE
  5
9507
  8
0
 10
18.41642012939343
 20
9.8872763324688968
 30
0.0
 11
18.41512091778992
 21
9.8875650648997127
 31
0.0
  0
LINE
  5
9508
  8
0
 10
18.41512091778992
 20
9.8875650648997127
 30
0.0
 11
18.41377727400409
 21
9.8879686899140342
 31
0.0
  0
LINE
  5
9509
  8
0
 10
18.41377727400409
 20
9.8879686899140342
 30
0.0
 11
18.412390512807821
 21
9.8884973404942684
 31
0.0
  0
LINE
  5
950A
  8
0
 10
18.412390512807821
 20
9.8884973404942684
 30
0.0
 11
18.41095003785054
 21
9.8891672956481145
 31
0.0
  0
LINE
  5
950B
  8
0
 10
18.41095003785054
 20
9.8891672956481145
 30
0.0
 11
18.409442275001041
 21
9.8899963708895449
 31
0.0
  0
LINE
  5
950C
  8
0
 10
18.409442275001041
 20
9.8899963708895449
 30
0.0
 11
18.407853650128128
 21
9.891002381733184
 31
0.0
  0
LINE
  5
950D
  8
0
 10
18.407853650128128
 20
9.891002381733184
 30
0.0
 11
18.40617058910064
 21
9.8922031436927682
 31
0.0
  0
LINE
  5
950E
  8
0
 10
18.40617058910064
 20
9.8922031436927682
 30
0.0
 11
18.404379517787351
 21
9.8936164722829218
 31
0.0
  0
LINE
  5
950F
  8
0
 10
18.404379517787351
 20
9.8936164722829218
 30
0.0
 11
18.4024668620571
 21
9.8952601830176263
 31
0.0
  0
LINE
  5
9510
  8
0
 10
18.4024668620571
 20
9.8952601830176263
 30
0.0
 11
18.400419047778669
 21
9.8971520914108169
 31
0.0
  0
LINE
  5
9511
  8
0
 10
18.400419047778669
 20
9.8971520914108169
 30
0.0
 11
18.398231607096658
 21
9.8992989470987123
 31
0.0
  0
LINE
  5
9512
  8
0
 10
18.398231607096658
 20
9.8992989470987123
 30
0.0
 11
18.395936497258859
 21
9.9016632362049624
 31
0.0
  0
LINE
  5
9513
  8
0
 10
18.395936497258859
 20
9.9016632362049624
 30
0.0
 11
18.393574781788871
 21
9.9041963789752501
 31
0.0
  0
ARC
  5
9514
  8
0
 10
18.421931160326491
 20
10.250115935082009
 30
0.0
 40
0.4039823365729263
 50
276.3116059999997
 51
285.4594479999999
  0
LINE
  5
9515
  8
0
 10
18.561132576561999
 20
10.05886481270203
 30
0.0
 11
18.56575811740618
 21
10.08083977043156
 31
0.0
  0
LINE
  5
9516
  8
0
 10
18.56575811740618
 20
10.08083977043156
 30
0.0
 11
18.541669791109399
 21
10.102775429985741
 31
0.0
  0
LINE
  5
9517
  8
0
 10
18.531765195311841
 20
10.02218797074692
 30
0.0
 11
18.539349743247339
 21
10.0137475958711
 31
0.0
  0
LINE
  5
9518
  8
0
 10
18.539349743247339
 20
10.0137475958711
 30
0.0
 11
18.54925579453289
 21
10.022160316475031
 31
0.0
  0
LINE
  5
9519
  8
0
 10
18.54925579453289
 20
10.022160316475031
 30
0.0
 11
18.561378554032949
 21
10.03529027366676
 31
0.0
  0
LINE
  5
951A
  8
0
 10
18.561378554032949
 20
10.03529027366676
 30
0.0
 11
18.561132576561999
 21
10.05886481270203
 31
0.0
  0
LINE
  5
951B
  8
0
 10
18.432810933079871
 20
10.066689516156201
 30
0.0
 11
18.448209996053869
 21
10.065386854402041
 31
0.0
  0
LINE
  5
951C
  8
0
 10
18.448209996053869
 20
10.065386854402041
 30
0.0
 11
18.47879707624282
 21
10.053537726644651
 31
0.0
  0
LINE
  5
951D
  8
0
 10
18.47879707624282
 20
10.053537726644651
 30
0.0
 11
18.50337153552951
 21
10.040746898155691
 31
0.0
  0
LINE
  5
951E
  8
0
 10
18.50337153552951
 20
10.040746898155691
 30
0.0
 11
18.517198671470251
 21
10.032351643407299
 31
0.0
  0
LINE
  5
951F
  8
0
 10
18.420382521101121
 20
10.075313282519559
 30
0.0
 11
18.421544000520139
 21
10.064954574467709
 31
0.0
  0
LINE
  5
9520
  8
0
 10
18.44137356894716
 20
10.139939860418499
 30
0.0
 11
18.394505400060002
 21
10.147864992544321
 31
0.0
  0
LINE
  5
9521
  8
0
 10
18.526880577604761
 20
10.111274024381361
 30
0.0
 11
18.50016509547924
 21
10.129553498094751
 31
0.0
  0
LINE
  5
9522
  8
0
 10
18.50016509547924
 20
10.129553498094751
 30
0.0
 11
18.44137356894716
 21
10.139939860418499
 31
0.0
  0
LINE
  5
9523
  8
0
 10
18.40862654457548
 20
10.075774672213569
 30
0.0
 11
18.420382521101121
 21
10.075313282519559
 31
0.0
  0
LINE
  5
9524
  8
0
 10
18.396924421105641
 20
10.0769201412645
 30
0.0
 11
18.40862654457548
 21
10.075774672213569
 31
0.0
  0
LINE
  5
9525
  8
0
 10
18.421544000520139
 20
10.064954574467709
 30
0.0
 11
18.432810933079871
 21
10.066689516156201
 31
0.0
  0
LINE
  5
9526
  8
0
 10
18.443156553110519
 20
9.9614987494037432
 30
0.0
 11
18.442619458615379
 21
9.9634685823123164
 31
0.0
  0
LINE
  5
9527
  8
0
 10
18.442619458615379
 20
9.9634685823123164
 30
0.0
 11
18.441953095750019
 21
9.9653659620516901
 31
0.0
  0
LINE
  5
9528
  8
0
 10
18.441953095750019
 20
9.9653659620516901
 30
0.0
 11
18.4411447138332
 21
9.9671805580685469
 31
0.0
  0
LINE
  5
9529
  8
0
 10
18.4411447138332
 20
9.9671805580685469
 30
0.0
 11
18.440186493407261
 21
9.9689223143027395
 31
0.0
  0
LINE
  5
952A
  8
0
 10
18.440186493407261
 20
9.9689223143027395
 30
0.0
 11
18.4390718478205
 21
9.9706062433169738
 31
0.0
  0
LINE
  5
952B
  8
0
 10
18.4390718478205
 20
9.9706062433169738
 30
0.0
 11
18.437794190421169
 21
9.972247357673039
 31
0.0
  0
LINE
  5
952C
  8
0
 10
18.437794190421169
 20
9.972247357673039
 30
0.0
 11
18.436346934557591
 21
9.9738606699340782
 31
0.0
  0
LINE
  5
952D
  8
0
 10
18.436346934557591
 20
9.9738606699340782
 30
0.0
 11
18.434723493578002
 21
9.9754611926634862
 31
0.0
  0
LINE
  5
952E
  8
0
 10
18.434723493578002
 20
9.9754611926634862
 30
0.0
 11
18.432917280830701
 21
9.9770639384232656
 31
0.0
  0
LINE
  5
952F
  8
0
 10
18.432917280830701
 20
9.9770639384232656
 30
0.0
 11
18.430921709663959
 21
9.9786839197761221
 31
0.0
  0
LINE
  5
9530
  8
0
 10
18.430921709663959
 20
9.9786839197761221
 30
0.0
 11
18.428739108763811
 21
9.9803306111339207
 31
0.0
  0
LINE
  5
9531
  8
0
 10
18.428739108763811
 20
9.9803306111339207
 30
0.0
 11
18.426407468167302
 21
9.9819913343060254
 31
0.0
  0
LINE
  5
9532
  8
0
 10
18.426407468167302
 20
9.9819913343060254
 30
0.0
 11
18.423973693249231
 21
9.9836478729496321
 31
0.0
  0
LINE
  5
9533
  8
0
 10
18.423973693249231
 20
9.9836478729496321
 30
0.0
 11
18.421484689384389
 21
9.9852820107237221
 31
0.0
  0
LINE
  5
9534
  8
0
 10
18.421484689384389
 20
9.9852820107237221
 30
0.0
 11
18.418987361947611
 21
9.9868755312859321
 31
0.0
  0
LINE
  5
9535
  8
0
 10
18.418987361947611
 20
9.9868755312859321
 30
0.0
 11
18.416528616313631
 21
9.9884102182943444
 31
0.0
  0
LINE
  5
9536
  8
0
 10
18.416528616313631
 20
9.9884102182943444
 30
0.0
 11
18.414155357857311
 21
9.9898678554072742
 31
0.0
  0
LINE
  5
9537
  8
0
 10
18.414155357857311
 20
9.9898678554072742
 30
0.0
 11
18.411914491953411
 21
9.9912302262821342
 31
0.0
  0
LINE
  5
9538
  8
0
 10
18.411914491953411
 20
9.9912302262821342
 30
0.0
 11
18.409842248502951
 21
9.9924880066996504
 31
0.0
  0
LINE
  5
9539
  8
0
 10
18.409842248502951
 20
9.9924880066996504
 30
0.0
 11
18.407932155511801
 21
9.9936674409279878
 31
0.0
  0
LINE
  5
953A
  8
0
 10
18.407932155511801
 20
9.9936674409279878
 30
0.0
 11
18.40616706551203
 21
9.9948036653559011
 31
0.0
  0
LINE
  5
953B
  8
0
 10
18.40616706551203
 20
9.9948036653559011
 30
0.0
 11
18.40452983103571
 21
9.9959318163741937
 31
0.0
  0
LINE
  5
953C
  8
0
 10
18.40452983103571
 20
9.9959318163741937
 30
0.0
 11
18.40300330461492
 21
9.9970870303723078
 31
0.0
  0
LINE
  5
953D
  8
0
 10
18.40300330461492
 20
9.9970870303723078
 30
0.0
 11
18.40157033878172
 21
9.9983044437399222
 31
0.0
  0
LINE
  5
953E
  8
0
 10
18.40157033878172
 20
9.9983044437399222
 30
0.0
 11
18.40021378606821
 21
9.9996191928673799
 31
0.0
  0
LINE
  5
953F
  8
0
 10
18.40021378606821
 20
9.9996191928673799
 30
0.0
 11
18.39891649900644
 21
10.001066414143899
 31
0.0
  0
LINE
  5
9540
  8
0
 10
18.39891649900644
 20
10.001066414143899
 30
0.0
 11
18.397666325313999
 21
10.002660786583871
 31
0.0
  0
LINE
  5
9541
  8
0
 10
18.397666325313999
 20
10.002660786583871
 30
0.0
 11
18.396471093450572
 21
10.004335159693481
 31
0.0
  0
LINE
  5
9542
  8
0
 10
18.396471093450572
 20
10.004335159693481
 30
0.0
 11
18.395343627061369
 21
10.006001925604309
 31
0.0
  0
LINE
  5
9543
  8
0
 10
18.395343627061369
 20
10.006001925604309
 30
0.0
 11
18.394296749791561
 21
10.00757347644684
 31
0.0
  0
LINE
  5
9544
  8
0
 10
18.394296749791561
 20
10.00757347644684
 30
0.0
 11
18.39334328528636
 21
10.00896220435242
 31
0.0
  0
LINE
  5
9545
  8
0
 10
18.393007333120021
 20
9.9715639790538262
 30
0.0
 11
18.393599722655878
 21
9.970107456772892
 31
0.0
  0
LINE
  5
9546
  8
0
 10
18.393599722655878
 20
9.970107456772892
 30
0.0
 11
18.394222844214269
 21
9.9687609290172023
 31
0.0
  0
LINE
  5
9547
  8
0
 10
18.394222844214269
 20
9.9687609290172023
 30
0.0
 11
18.394873268964918
 21
9.9675229459842267
 31
0.0
  0
LINE
  5
9548
  8
0
 10
18.394873268964918
 20
9.9675229459842267
 30
0.0
 11
18.395547905417232
 21
9.9663896386916786
 31
0.0
  0
LINE
  5
9549
  8
0
 10
18.395547905417232
 20
9.9663896386916786
 30
0.0
 11
18.396243662080551
 21
9.9653571381559178
 31
0.0
  0
LINE
  5
954A
  8
0
 10
18.396243662080551
 20
9.9653571381559178
 30
0.0
 11
18.396957447464299
 21
9.9644215753949084
 31
0.0
  0
LINE
  5
954B
  8
0
 10
18.396957447464299
 20
9.9644215753949084
 30
0.0
 11
18.397686170077861
 21
9.9635790814258982
 31
0.0
  0
LINE
  5
954C
  8
0
 10
18.397686170077861
 20
9.9635790814258982
 30
0.0
 11
18.398426738430629
 21
9.9628257872659578
 31
0.0
  0
LINE
  5
954D
  8
0
 10
18.398426738430629
 20
9.9628257872659578
 30
0.0
 11
18.399176061031991
 21
9.9621578239321025
 31
0.0
  0
LINE
  5
954E
  8
0
 10
18.517198671470251
 20
10.032351643407299
 30
0.0
 11
18.531765195311841
 21
10.02218797074692
 31
0.0
  0
LINE
  5
954F
  8
0
 10
18.541669791109399
 20
10.102775429985741
 30
0.0
 11
18.526880577604761
 21
10.111274024381361
 31
0.0
  0
LINE
  5
9550
  8
0
 10
18.40550597831686
 20
9.9532240386265567
 30
0.0
 11
18.403545435989258
 21
9.9563023957332462
 31
0.0
  0
LINE
  5
9551
  8
0
 10
18.403545435989258
 20
9.9563023957332462
 30
0.0
 11
18.401980786395971
 21
9.9598232211901578
 31
0.0
  0
LINE
  5
9552
  8
0
 10
18.394117598739751
 20
9.9306234015741666
 30
0.0
 11
18.396821566620751
 21
9.9272396966366561
 31
0.0
  0
LINE
  5
9553
  8
0
 10
18.396821566620751
 20
9.9272396966366561
 30
0.0
 11
18.399583528022859
 21
9.9236968526595302
 31
0.0
  0
LINE
  5
9554
  8
0
 10
18.399583528022859
 20
9.9236968526595302
 30
0.0
 11
18.402369359996641
 21
9.920059194442274
 31
0.0
  0
LINE
  5
9555
  8
0
 10
18.463253919957399
 20
9.9229862755560081
 30
0.0
 11
18.451866181894211
 21
9.91900697138135
 31
0.0
  0
LINE
  5
9556
  8
0
 10
18.451866181894211
 20
9.91900697138135
 30
0.0
 11
18.454807723129601
 21
9.9295243276237581
 31
0.0
  0
LINE
  5
9557
  8
0
 10
18.454807723129601
 20
9.9295243276237581
 30
0.0
 11
18.454176041340322
 21
9.933755431221698
 31
0.0
  0
LINE
  5
9558
  8
0
 10
18.454176041340322
 20
9.933755431221698
 30
0.0
 11
18.454176041340322
 21
9.9361890071475045
 31
0.0
  0
LINE
  5
9559
  8
0
 10
18.46005184637113
 20
9.9384843117136281
 30
0.0
 11
18.458172811371181
 21
9.9394289234216942
 31
0.0
  0
LINE
  5
955A
  8
0
 10
18.458172811371181
 20
9.9394289234216942
 30
0.0
 11
18.454176041340322
 21
9.93829218729865
 31
0.0
  0
LINE
  5
955B
  8
0
 10
18.454176041340322
 20
9.93829218729865
 30
0.0
 11
18.454176041340322
 21
9.9361890071475045
 31
0.0
  0
LINE
  5
955C
  8
0
 10
18.402369359996641
 20
9.920059194442274
 30
0.0
 11
18.405141757133961
 21
9.9164028366155819
 31
0.0
  0
LINE
  5
955D
  8
0
 10
18.405141757133961
 20
9.9164028366155819
 30
0.0
 11
18.40786341402676
 21
9.9128038938104002
 31
0.0
  0
LINE
  5
955E
  8
0
 10
18.40786341402676
 20
9.9128038938104002
 30
0.0
 11
18.410497025266931
 21
9.9093384806574178
 31
0.0
  0
LINE
  5
955F
  8
0
 10
18.410497025266931
 20
9.9093384806574178
 30
0.0
 11
18.413005285446388
 21
9.9060827117880326
 31
0.0
  0
LINE
  5
9560
  8
0
 10
18.40550597831686
 20
9.9532240386265567
 30
0.0
 11
18.40658152258824
 21
9.9515754113558561
 31
0.0
  0
LINE
  5
9561
  8
0
 10
18.40658152258824
 20
9.9515754113558561
 30
0.0
 11
18.40768194234337
 21
9.9499739111943182
 31
0.0
  0
LINE
  5
9562
  8
0
 10
18.40768194234337
 20
9.9499739111943182
 30
0.0
 11
18.408810894780139
 21
9.9484174060801198
 31
0.0
  0
LINE
  5
9563
  8
0
 10
18.408810894780139
 20
9.9484174060801198
 30
0.0
 11
18.409972037096399
 21
9.9469037639494182
 31
0.0
  0
LINE
  5
9564
  8
0
 10
18.409972037096399
 20
9.9469037639494182
 30
0.0
 11
18.411169026489979
 21
9.9454308527410742
 31
0.0
  0
LINE
  5
9565
  8
0
 10
18.411169026489979
 20
9.9454308527410742
 30
0.0
 11
18.412405520158799
 21
9.9439965403921562
 31
0.0
  0
LINE
  5
9566
  8
0
 10
18.412405520158799
 20
9.9439965403921562
 30
0.0
 11
18.413685175300671
 21
9.9425986948397096
 31
0.0
  0
LINE
  5
9567
  8
0
 10
18.413685175300671
 20
9.9425986948397096
 30
0.0
 11
18.41501164911347
 21
9.9412351840219326
 31
0.0
  0
LINE
  5
9568
  8
0
 10
18.41501164911347
 20
9.9412351840219326
 30
0.0
 11
18.416385400227512
 21
9.9399055497815425
 31
0.0
  0
LINE
  5
9569
  8
0
 10
18.416385400227512
 20
9.9399055497815425
 30
0.0
 11
18.417794093003049
 21
9.9386160295866741
 31
0.0
  0
LINE
  5
956A
  8
0
 10
18.417794093003049
 20
9.9386160295866741
 30
0.0
 11
18.419222193232731
 21
9.9373745348098002
 31
0.0
  0
LINE
  5
956B
  8
0
 10
18.419222193232731
 20
9.9373745348098002
 30
0.0
 11
18.420654166709291
 21
9.936188976824722
 31
0.0
  0
LINE
  5
956C
  8
0
 10
18.420654166709291
 20
9.936188976824722
 30
0.0
 11
18.42207447922539
 21
9.9350672670041096
 31
0.0
  0
LINE
  5
956D
  8
0
 10
18.42207447922539
 20
9.9350672670041096
 30
0.0
 11
18.423467596573719
 21
9.9340173167217927
 31
0.0
  0
LINE
  5
956E
  8
0
 10
18.423467596573719
 20
9.9340173167217927
 30
0.0
 11
18.424817984547008
 21
9.933047037350434
 31
0.0
  0
LINE
  5
956F
  8
0
 10
18.424817984547008
 20
9.933047037350434
 30
0.0
 11
18.426110108937909
 21
9.9321643402633981
 31
0.0
  0
LINE
  5
9570
  8
0
 10
18.426110108937909
 20
9.9321643402633981
 30
0.0
 11
18.42733314005347
 21
9.9313768786173515
 31
0.0
  0
LINE
  5
9571
  8
0
 10
18.42733314005347
 20
9.9313768786173515
 30
0.0
 11
18.42849506625803
 21
9.9306912727038181
 31
0.0
  0
LINE
  5
9572
  8
0
 10
18.42849506625803
 20
9.9306912727038181
 30
0.0
 11
18.42960858043029
 21
9.9301138845962598
 31
0.0
  0
LINE
  5
9573
  8
0
 10
18.42960858043029
 20
9.9301138845962598
 30
0.0
 11
18.43068637544896
 21
9.9296510763701882
 31
0.0
  0
LINE
  5
9574
  8
0
 10
18.43068637544896
 20
9.9296510763701882
 30
0.0
 11
18.431741144192731
 21
9.9293092100992837
 31
0.0
  0
LINE
  5
9575
  8
0
 10
18.431741144192731
 20
9.9293092100992837
 30
0.0
 11
18.432785579540301
 21
9.9290946478586122
 31
0.0
  0
LINE
  5
9576
  8
0
 10
18.432785579540301
 20
9.9290946478586122
 30
0.0
 11
18.433832374370361
 21
9.9290137517220902
 31
0.0
  0
LINE
  5
9577
  8
0
 10
18.433832374370361
 20
9.9290137517220902
 30
0.0
 11
18.43489422156161
 21
9.9290728837645421
 31
0.0
  0
LINE
  5
9578
  8
0
 10
18.43489422156161
 20
9.9290728837645421
 30
0.0
 11
18.435978265892331
 21
9.9292774414204761
 31
0.0
  0
LINE
  5
9579
  8
0
 10
18.435978265892331
 20
9.9292774414204761
 30
0.0
 11
18.437069459739281
 21
9.9296289635656123
 31
0.0
  0
LINE
  5
957A
  8
0
 10
18.437069459739281
 20
9.9296289635656123
 30
0.0
 11
18.43814720737879
 21
9.9301280244348984
 31
0.0
  0
LINE
  5
957B
  8
0
 10
18.43814720737879
 20
9.9301280244348984
 30
0.0
 11
18.439190913087199
 21
9.9307751982639676
 31
0.0
  0
LINE
  5
957C
  8
0
 10
18.439190913087199
 20
9.9307751982639676
 30
0.0
 11
18.44017998114083
 21
9.9315710592884408
 31
0.0
  0
LINE
  5
957D
  8
0
 10
18.44017998114083
 20
9.9315710592884408
 30
0.0
 11
18.441093815816039
 21
9.9325161817437202
 31
0.0
  0
LINE
  5
957E
  8
0
 10
18.441093815816039
 20
9.9325161817437202
 30
0.0
 11
18.441911821389152
 21
9.9336111398656541
 31
0.0
  0
LINE
  5
957F
  8
0
 10
18.441911821389152
 20
9.9336111398656541
 30
0.0
 11
18.442613402136519
 21
9.9348565078892062
 31
0.0
  0
LINE
  5
9580
  8
0
 10
18.442613402136519
 20
9.9348565078892062
 30
0.0
 11
18.443183595717372
 21
9.9362503551133141
 31
0.0
  0
LINE
  5
9581
  8
0
 10
18.443183595717372
 20
9.9362503551133141
 30
0.0
 11
18.443629973322501
 21
9.9377807310918342
 31
0.0
  0
LINE
  5
9582
  8
0
 10
18.443629973322501
 20
9.9377807310918342
 30
0.0
 11
18.443965739525598
 21
9.9394331804396643
 31
0.0
  0
LINE
  5
9583
  8
0
 10
18.443965739525598
 20
9.9394331804396643
 30
0.0
 11
18.444204098900371
 21
9.9411932477739757
 31
0.0
  0
LINE
  5
9584
  8
0
 10
18.444204098900371
 20
9.9411932477739757
 30
0.0
 11
18.444358256020511
 21
9.9430464777108227
 31
0.0
  0
LINE
  5
9585
  8
0
 10
18.444358256020511
 20
9.9430464777108227
 30
0.0
 11
18.444441415459689
 21
9.9449784148666804
 31
0.0
  0
LINE
  5
9586
  8
0
 10
18.444441415459689
 20
9.9449784148666804
 30
0.0
 11
18.444466781791629
 21
9.9469746038580489
 31
0.0
  0
LINE
  5
9587
  8
0
 10
18.444466781791629
 20
9.9469746038580489
 30
0.0
 11
18.44444755959001
 21
9.9490205893005097
 31
0.0
  0
LINE
  5
9588
  8
0
 10
18.44444755959001
 20
9.9490205893005097
 30
0.0
 11
18.444392422085041
 21
9.9511017585123192
 31
0.0
  0
LINE
  5
9589
  8
0
 10
18.444392422085041
 20
9.9511017585123192
 30
0.0
 11
18.444291917133
 21
9.953202869615092
 31
0.0
  0
LINE
  5
958A
  8
0
 10
18.444291917133
 20
9.953202869615092
 30
0.0
 11
18.444132061246719
 21
9.955308523431988
 31
0.0
  0
LINE
  5
958B
  8
0
 10
18.444132061246719
 20
9.955308523431988
 30
0.0
 11
18.443898870939019
 21
9.9574033207873001
 31
0.0
  0
LINE
  5
958C
  8
0
 10
18.443898870939019
 20
9.9574033207873001
 30
0.0
 11
18.443578362722679
 21
9.9594718625035021
 31
0.0
  0
LINE
  5
958D
  8
0
 10
18.46005184637113
 20
9.9384843117136281
 30
0.0
 11
18.463383458388861
 21
9.9368075895447401
 31
0.0
  0
LINE
  5
958E
  8
0
 10
18.463383458388861
 20
9.9368075895447401
 30
0.0
 11
18.467461735747388
 21
9.9335734952223902
 31
0.0
  0
LINE
  5
958F
  8
0
 10
18.467461735747388
 20
9.9335734952223902
 30
0.0
 11
18.470561925174099
 21
9.9252393709703046
 31
0.0
  0
LINE
  5
9590
  8
0
 10
18.470561925174099
 20
9.9252393709703046
 30
0.0
 11
18.463253919957399
 21
9.9229862755560081
 31
0.0
  0
LINE
  5
9591
  8
0
 10
18.401980786395971
 20
9.9598232211901578
 30
0.0
 11
18.399176061031991
 21
9.9621578239321025
 31
0.0
  0
LINE
  5
9592
  8
0
 10
18.443578362722679
 20
9.9594718625035021
 30
0.0
 11
18.443156553110519
 21
9.9614987494037432
 31
0.0
  0
ARC
  5
9593
  8
0
 10
18.537412633640031
 20
10.03554339005427
 30
0.0
 40
0.1157877381489796
 50
26.136799622363959
 51
50.830632613623422
  0
ARC
  5
9594
  8
0
 10
18.49180254477529
 20
10.021114912874269
 30
0.0
 40
0.1632461015583798
 50
3.9409786127344719
 51
23.630412125361509
  0
ARC
  5
9595
  8
0
 10
18.336219097260731
 20
10.266433678353669
 30
0.0
 40
0.103082026182291
 50
3.061415527924586
 51
61.359892000001032
  0
ARC
  5
9596
  8
0
 10
18.366608577809391
 20
10.263787771545131
 30
0.0
 40
0.032864329862301
 50
5.556756111201695
 51
42.59127294653382
  0
ARC
  5
9597
  8
0
 10
18.321780486963629
 20
10.22260284553613
 30
0.0
 40
0.0937392487503252
 50
42.568796895839697
 51
104.4247059999998
  0
ARC
  5
9598
  8
0
 10
-18.41847891220425
 20
10.44207760297672
 30
0.0
 40
0.1606174665757504
210
0.0
220
0.0
230
-1.0
 50
344.17384599999849
 51
6.6578431552748611
  0
ARC
  5
9599
  8
0
 10
18.135649384074899
 20
10.408772874282009
 30
0.0
 40
0.0581785108152356
 50
116.54869068684521
 51
184.07575243617049
  0
ARC
  5
959A
  8
0
 10
14.825444164576311
 20
10.068382188791469
 30
0.0
 40
3.4201217066346001
 50
5.4171073892208561
 51
7.2630351398035851
  0
LINE
  5
959B
  8
0
 10
18.204632624809609
 20
10.227520939467
 30
0.0
 11
18.22775014061456
 21
10.239090613529459
 31
0.0
  0
LINE
  5
959C
  8
0
 10
18.229089189568811
 20
10.30939505009246
 30
0.0
 11
18.21180526964288
 21
10.323102836017361
 31
0.0
  0
LINE
  5
959D
  8
0
 10
18.239635655571622
 20
10.18116364686602
 30
0.0
 11
18.215053918844959
 21
10.17789607631971
 31
0.0
  0
LINE
  5
959E
  8
0
 10
18.21180526964288
 20
10.323102836017361
 30
0.0
 11
18.206664486048911
 21
10.304820451327711
 31
0.0
  0
LINE
  5
959F
  8
0
 10
18.139713340315289
 20
10.383605148917461
 30
0.0
 11
18.139335794689408
 21
10.382586689671809
 31
0.0
  0
LINE
  5
95A0
  8
0
 10
18.139335794689408
 20
10.382586689671809
 30
0.0
 11
18.139098615529679
 21
10.381564032632239
 31
0.0
  0
LINE
  5
95A1
  8
0
 10
18.139098615529679
 20
10.381564032632239
 30
0.0
 11
18.138979859648941
 21
10.380539860406079
 31
0.0
  0
LINE
  5
95A2
  8
0
 10
18.138979859648941
 20
10.380539860406079
 30
0.0
 11
18.138948740064819
 21
10.37951243038923
 31
0.0
  0
LINE
  5
95A3
  8
0
 10
18.138948740064819
 20
10.37951243038923
 30
0.0
 11
18.13897446979497
 21
10.378479999974831
 31
0.0
  0
LINE
  5
95A4
  8
0
 10
18.13897446979497
 20
10.378479999974831
 30
0.0
 11
18.139026261856991
 21
10.3774408265574
 31
0.0
  0
LINE
  5
95A5
  8
0
 10
18.139026261856991
 20
10.3774408265574
 30
0.0
 11
18.13907332926852
 21
10.376393167531431
 31
0.0
  0
LINE
  5
95A6
  8
0
 10
18.13907332926852
 20
10.376393167531431
 30
0.0
 11
18.139084885047239
 21
10.375335280290971
 31
0.0
  0
LINE
  5
95A7
  8
0
 10
18.139084885047239
 20
10.375335280290971
 30
0.0
 11
18.139030142210711
 21
10.374265422230559
 31
0.0
  0
LINE
  5
95A8
  8
0
 10
18.139030142210711
 20
10.374265422230559
 30
0.0
 11
18.138883598448839
 21
10.37318535727581
 31
0.0
  0
LINE
  5
95A9
  8
0
 10
18.138883598448839
 20
10.37318535727581
 30
0.0
 11
18.13864089014039
 21
10.37211087548234
 31
0.0
  0
LINE
  5
95AA
  8
0
 10
18.13864089014039
 20
10.37211087548234
 30
0.0
 11
18.138302938336341
 21
10.37106127343668
 31
0.0
  0
LINE
  5
95AB
  8
0
 10
18.138302938336341
 20
10.37106127343668
 30
0.0
 11
18.137870664087689
 21
10.370055847725769
 31
0.0
  0
LINE
  5
95AC
  8
0
 10
18.137870664087689
 20
10.370055847725769
 30
0.0
 11
18.137344988445442
 21
10.369113894936611
 31
0.0
  0
LINE
  5
95AD
  8
0
 10
18.137344988445442
 20
10.369113894936611
 30
0.0
 11
18.136726832460589
 21
10.368254711655929
 31
0.0
  0
LINE
  5
95AE
  8
0
 10
18.136726832460589
 20
10.368254711655929
 30
0.0
 11
18.136017117184121
 21
10.36749759447116
 31
0.0
  0
LINE
  5
95AF
  8
0
 10
18.136017117184121
 20
10.36749759447116
 30
0.0
 11
18.13521676366706
 21
10.3668618399688
 31
0.0
  0
LINE
  5
95B0
  8
0
 10
18.13521676366706
 20
10.3668618399688
 30
0.0
 11
18.134328062692081
 21
10.366358732444709
 31
0.0
  0
LINE
  5
95B1
  8
0
 10
18.134328062692081
 20
10.366358732444709
 30
0.0
 11
18.133358783968681
 21
10.36596750703211
 31
0.0
  0
LINE
  5
95B2
  8
0
 10
18.133358783968681
 20
10.36596750703211
 30
0.0
 11
18.132318066938112
 21
10.3656593865728
 31
0.0
  0
LINE
  5
95B3
  8
0
 10
18.132318066938112
 20
10.3656593865728
 30
0.0
 11
18.13121505104154
 21
10.365405593907999
 31
0.0
  0
LINE
  5
95B4
  8
0
 10
18.13121505104154
 20
10.365405593907999
 30
0.0
 11
18.130058875720199
 21
10.36517735188044
 31
0.0
  0
LINE
  5
95B5
  8
0
 10
18.130058875720199
 20
10.36517735188044
 30
0.0
 11
18.128858680415309
 21
10.36494588333175
 31
0.0
  0
LINE
  5
95B6
  8
0
 10
18.128858680415309
 20
10.36494588333175
 30
0.0
 11
18.127623604568061
 21
10.364682411103781
 31
0.0
  0
LINE
  5
95B7
  8
0
 10
18.127623604568061
 20
10.364682411103781
 30
0.0
 11
18.126362787619669
 21
10.364358158038151
 31
0.0
  0
LINE
  5
95B8
  8
0
 10
18.126362787619669
 20
10.364358158038151
 30
0.0
 11
18.125086908360469
 21
10.363949053149319
 31
0.0
  0
LINE
  5
95B9
  8
0
 10
18.125086908360469
 20
10.363949053149319
 30
0.0
 11
18.123812802977259
 21
10.363449850142841
 31
0.0
  0
LINE
  5
95BA
  8
0
 10
18.123812802977259
 20
10.363449850142841
 30
0.0
 11
18.122558847005969
 21
10.362860008895041
 31
0.0
  0
LINE
  5
95BB
  8
0
 10
18.122558847005969
 20
10.362860008895041
 30
0.0
 11
18.121343415982501
 21
10.362178989284979
 31
0.0
  0
LINE
  5
95BC
  8
0
 10
18.121343415982501
 20
10.362178989284979
 30
0.0
 11
18.120184885442811
 21
10.361406251188541
 31
0.0
  0
LINE
  5
95BD
  8
0
 10
18.120184885442811
 20
10.361406251188541
 30
0.0
 11
18.119101630922781
 21
10.36054125448435
 31
0.0
  0
LINE
  5
95BE
  8
0
 10
18.119101630922781
 20
10.36054125448435
 30
0.0
 11
18.11811202795835
 21
10.359583459049629
 31
0.0
  0
LINE
  5
95BF
  8
0
 10
18.11811202795835
 20
10.359583459049629
 30
0.0
 11
18.117234452085441
 21
10.358532324761869
 31
0.0
  0
LINE
  5
95C0
  8
0
 10
18.117234452085441
 20
10.358532324761869
 30
0.0
 11
18.116482090821261
 21
10.357389639236761
 31
0.0
  0
LINE
  5
95C1
  8
0
 10
18.116482090821261
 20
10.357389639236761
 30
0.0
 11
18.115847379608059
 21
10.35616650104429
 31
0.0
  0
LINE
  5
95C2
  8
0
 10
18.115847379608059
 20
10.35616650104429
 30
0.0
 11
18.115317565869422
 21
10.35487633649244
 31
0.0
  0
LINE
  5
95C3
  8
0
 10
18.115317565869422
 20
10.35487633649244
 30
0.0
 11
18.114879897028871
 21
10.35353257188966
 31
0.0
  0
LINE
  5
95C4
  8
0
 10
18.114879897028871
 20
10.35353257188966
 30
0.0
 11
18.114521620509979
 21
10.352148633544161
 31
0.0
  0
LINE
  5
95C5
  8
0
 10
18.114521620509979
 20
10.352148633544161
 30
0.0
 11
18.114229983736319
 21
10.350737947764159
 31
0.0
  0
LINE
  5
95C6
  8
0
 10
18.114229983736319
 20
10.350737947764159
 30
0.0
 11
18.11399223413143
 21
10.349313940857421
 31
0.0
  0
LINE
  5
95C7
  8
0
 10
18.11399223413143
 20
10.349313940857421
 30
0.0
 11
18.113795619118861
 21
10.347890039132601
 31
0.0
  0
LINE
  5
95C8
  8
0
 10
18.113795619118861
 20
10.347890039132601
 30
0.0
 11
18.11363356649753
 21
10.346479489330701
 31
0.0
  0
LINE
  5
95C9
  8
0
 10
18.11363356649753
 20
10.346479489330701
 30
0.0
 11
18.113524225567851
 21
10.345094819924491
 31
0.0
  0
LINE
  5
95CA
  8
0
 10
18.113524225567851
 20
10.345094819924491
 30
0.0
 11
18.11349192600558
 21
10.343748379820219
 31
0.0
  0
LINE
  5
95CB
  8
0
 10
18.11349192600558
 20
10.343748379820219
 30
0.0
 11
18.11356099748652
 21
10.342452517923901
 31
0.0
  0
LINE
  5
95CC
  8
0
 10
18.11356099748652
 20
10.342452517923901
 30
0.0
 11
18.113755769686421
 21
10.34121958314131
 31
0.0
  0
LINE
  5
95CD
  8
0
 10
18.113755769686421
 20
10.34121958314131
 30
0.0
 11
18.11410057228105
 21
10.340061924378221
 31
0.0
  0
LINE
  5
95CE
  8
0
 10
18.11410057228105
 20
10.340061924378221
 30
0.0
 11
18.114619734946171
 21
10.338991890540671
 31
0.0
  0
LINE
  5
95CF
  8
0
 10
18.114619734946171
 20
10.338991890540671
 30
0.0
 11
18.115337587357569
 21
10.33802183053489
 31
0.0
  0
LINE
  5
95D0
  8
0
 10
18.13294838562879
 20
10.342590364766229
 30
0.0
 11
18.132869789277109
 21
10.339564405227049
 31
0.0
  0
ARC
  5
95D1
  8
0
 10
17.937211123921269
 20
10.401204206811601
 30
0.0
 40
0.1404488633495502
 50
346.67496717791983
 51
1.400873055739229
  0
LINE
  5
95D2
  8
0
 10
18.129033497966471
 20
10.365225168096231
 30
0.0
 11
18.129033497966471
 21
10.365225168096231
 31
0.0
  0
LINE
  5
95D3
  8
0
 10
18.13294838562879
 20
10.342590364766229
 30
0.0
 11
18.132998642132019
 21
10.343873883679169
 31
0.0
  0
LINE
  5
95D4
  8
0
 10
18.132998642132019
 20
10.343873883679169
 30
0.0
 11
18.133075350423901
 21
10.345095079562491
 31
0.0
  0
LINE
  5
95D5
  8
0
 10
18.133075350423901
 20
10.345095079562491
 30
0.0
 11
18.1331722138132
 21
10.346267564925251
 31
0.0
  0
LINE
  5
95D6
  8
0
 10
18.1331722138132
 20
10.346267564925251
 30
0.0
 11
18.13328293560868
 21
10.347404952274919
 31
0.0
  0
LINE
  5
95D7
  8
0
 10
18.13328293560868
 20
10.347404952274919
 30
0.0
 11
18.133401219119129
 21
10.348520854120119
 31
0.0
  0
LINE
  5
95D8
  8
0
 10
18.133401219119129
 20
10.348520854120119
 30
0.0
 11
18.13352076765333
 21
10.34962888296922
 31
0.0
  0
LINE
  5
95D9
  8
0
 10
18.13352076765333
 20
10.34962888296922
 30
0.0
 11
18.133635284520039
 21
10.35074265133084
 31
0.0
  0
LINE
  5
95DA
  8
0
 10
18.133635284520039
 20
10.35074265133084
 30
0.0
 11
18.13373847302806
 21
10.35187577171291
 31
0.0
  0
LINE
  5
95DB
  8
0
 10
18.13373847302806
 20
10.35187577171291
 30
0.0
 11
18.13382807887664
 21
10.35303436739899
 31
0.0
  0
LINE
  5
95DC
  8
0
 10
18.13382807887664
 20
10.35303436739899
 30
0.0
 11
18.133918017326948
 21
10.354194604773051
 31
0.0
  0
LINE
  5
95DD
  8
0
 10
18.133918017326948
 20
10.354194604773051
 30
0.0
 11
18.1340262460307
 21
10.35532516099488
 31
0.0
  0
LINE
  5
95DE
  8
0
 10
18.1340262460307
 20
10.35532516099488
 30
0.0
 11
18.134170722639539
 21
10.356394713223141
 31
0.0
  0
LINE
  5
95DF
  8
0
 10
18.134170722639539
 20
10.356394713223141
 30
0.0
 11
18.134369404805149
 21
10.357371938617231
 31
0.0
  0
LINE
  5
95E0
  8
0
 10
18.134369404805149
 20
10.357371938617231
 30
0.0
 11
18.134640250179189
 21
10.358225514336249
 31
0.0
  0
LINE
  5
95E1
  8
0
 10
18.134640250179189
 20
10.358225514336249
 30
0.0
 11
18.135001216413361
 21
10.35892411754002
 31
0.0
  0
LINE
  5
95E2
  8
0
 10
18.135001216413361
 20
10.35892411754002
 30
0.0
 11
18.135470261159309
 21
10.359436425387219
 31
0.0
  0
LINE
  5
95E3
  8
0
 10
18.135470261159309
 20
10.359436425387219
 30
0.0
 11
18.136061810899442
 21
10.359741761846861
 31
0.0
  0
LINE
  5
95E4
  8
0
 10
18.136061810899442
 20
10.359741761846861
 30
0.0
 11
18.136776167439049
 21
10.3598620381249
 31
0.0
  0
LINE
  5
95E5
  8
0
 10
18.136776167439049
 20
10.3598620381249
 30
0.0
 11
18.13761010141414
 21
10.359829812237191
 31
0.0
  0
LINE
  5
95E6
  8
0
 10
18.13761010141414
 20
10.359829812237191
 30
0.0
 11
18.138560383460739
 21
10.35967764219958
 31
0.0
  0
LINE
  5
95E7
  8
0
 10
18.138560383460739
 20
10.35967764219958
 30
0.0
 11
18.139623784214841
 21
10.359438086026779
 31
0.0
  0
LINE
  5
95E8
  8
0
 10
18.139623784214841
 20
10.359438086026779
 30
0.0
 11
18.140797074312481
 21
10.35914370173554
 31
0.0
  0
LINE
  5
95E9
  8
0
 10
18.140797074312481
 20
10.35914370173554
 30
0.0
 11
18.142077024389671
 21
10.35882704734035
 31
0.0
  0
LINE
  5
95EA
  8
0
 10
18.142077024389671
 20
10.35882704734035
 30
0.0
 11
18.143460405082401
 21
10.358520680857961
 31
0.0
  0
LINE
  5
95EB
  8
0
 10
18.143460405082401
 20
10.358520680857961
 30
0.0
 11
18.14493787558802
 21
10.35825526039843
 31
0.0
  0
LINE
  5
95EC
  8
0
 10
18.14493787558802
 20
10.35825526039843
 30
0.0
 11
18.146475649349139
 21
10.35805384445484
 31
0.0
  0
LINE
  5
95ED
  8
0
 10
18.146475649349139
 20
10.35805384445484
 30
0.0
 11
18.14803382836968
 21
10.357937591615149
 31
0.0
  0
LINE
  5
95EE
  8
0
 10
18.14803382836968
 20
10.357937591615149
 30
0.0
 11
18.149572514653538
 21
10.35792766046824
 31
0.0
  0
LINE
  5
95EF
  8
0
 10
18.149572514653538
 20
10.35792766046824
 30
0.0
 11
18.15105181020467
 21
10.358045209601411
 31
0.0
  0
LINE
  5
95F0
  8
0
 10
18.15105181020467
 20
10.358045209601411
 30
0.0
 11
18.152431817026962
 21
10.35831139760375
 31
0.0
  0
LINE
  5
95F1
  8
0
 10
18.152431817026962
 20
10.35831139760375
 30
0.0
 11
18.153672637124352
 21
10.35874738306233
 31
0.0
  0
LINE
  5
95F2
  8
0
 10
18.153672637124352
 20
10.35874738306233
 30
0.0
 11
18.154734372500759
 21
10.359374324566019
 31
0.0
  0
LINE
  5
95F3
  8
0
 10
18.154734372500759
 20
10.359374324566019
 30
0.0
 11
18.155587461399069
 21
10.360204777119851
 31
0.0
  0
LINE
  5
95F4
  8
0
 10
18.155587461399069
 20
10.360204777119851
 30
0.0
 11
18.156243687017952
 21
10.361216881398359
 31
0.0
  0
LINE
  5
95F5
  8
0
 10
18.156243687017952
 20
10.361216881398359
 30
0.0
 11
18.156725168795099
 21
10.362380174491809
 31
0.0
  0
LINE
  5
95F6
  8
0
 10
18.156725168795099
 20
10.362380174491809
 30
0.0
 11
18.157054026168151
 21
10.363664193491781
 31
0.0
  0
LINE
  5
95F7
  8
0
 10
18.157054026168151
 20
10.363664193491781
 30
0.0
 11
18.157252378574778
 21
10.36503847548942
 31
0.0
  0
LINE
  5
95F8
  8
0
 10
18.157252378574778
 20
10.36503847548942
 30
0.0
 11
18.157342345452591
 21
10.36647255757566
 31
0.0
  0
LINE
  5
95F9
  8
0
 10
18.157342345452591
 20
10.36647255757566
 30
0.0
 11
18.157346046239269
 21
10.36793597684208
 31
0.0
  0
LINE
  5
95FA
  8
0
 10
18.157346046239269
 20
10.36793597684208
 30
0.0
 11
18.1572856003725
 21
10.36939827037917
 31
0.0
  0
LINE
  5
95FB
  8
0
 10
18.1572856003725
 20
10.36939827037917
 30
0.0
 11
18.157179229879659
 21
10.37083319107659
 31
0.0
  0
LINE
  5
95FC
  8
0
 10
18.157179229879659
 20
10.37083319107659
 30
0.0
 11
18.157029567147259
 21
10.37223135501676
 31
0.0
  0
LINE
  5
95FD
  8
0
 10
18.157029567147259
 20
10.37223135501676
 30
0.0
 11
18.156835347151549
 21
10.373587594080609
 31
0.0
  0
LINE
  5
95FE
  8
0
 10
18.156835347151549
 20
10.373587594080609
 30
0.0
 11
18.156595304868791
 21
10.374896740147721
 31
0.0
  0
LINE
  5
95FF
  8
0
 10
18.156595304868791
 20
10.374896740147721
 30
0.0
 11
18.156308175275232
 21
10.376153625098819
 31
0.0
  0
LINE
  5
9600
  8
0
 10
18.156308175275232
 20
10.376153625098819
 30
0.0
 11
18.15597269334712
 21
10.37735308081505
 31
0.0
  0
LINE
  5
9601
  8
0
 10
18.15597269334712
 20
10.37735308081505
 30
0.0
 11
18.15558759406073
 21
10.37848993917645
 31
0.0
  0
LINE
  5
9602
  8
0
 10
18.15558759406073
 20
10.37848993917645
 30
0.0
 11
18.155151612392299
 21
10.37955903206352
 31
0.0
  0
LINE
  5
9603
  8
0
 10
18.155151612392299
 20
10.37955903206352
 30
0.0
 11
18.154664777716931
 21
10.38055710547564
 31
0.0
  0
LINE
  5
9604
  8
0
 10
18.154664777716931
 20
10.38055710547564
 30
0.0
 11
18.154132297004999
 21
10.381488561883989
 31
0.0
  0
LINE
  5
9605
  8
0
 10
18.154132297004999
 20
10.381488561883989
 30
0.0
 11
18.153560671625751
 21
10.382359717879799
 31
0.0
  0
LINE
  5
9606
  8
0
 10
18.153560671625751
 20
10.382359717879799
 30
0.0
 11
18.15295640294838
 21
10.38317689005361
 31
0.0
  0
LINE
  5
9607
  8
0
 10
18.15295640294838
 20
10.38317689005361
 30
0.0
 11
18.152325992342121
 21
10.383946394995521
 31
0.0
  0
LINE
  5
9608
  8
0
 10
18.152325992342121
 20
10.383946394995521
 30
0.0
 11
18.15167594117619
 21
10.384674549295809
 31
0.0
  0
LINE
  5
9609
  8
0
 10
18.15167594117619
 20
10.384674549295809
 30
0.0
 11
18.151012750819831
 21
10.385367669545071
 31
0.0
  0
LINE
  5
960A
  8
0
 10
18.151012750819831
 20
10.385367669545071
 30
0.0
 11
18.150342922642249
 21
10.38603207233427
 31
0.0
  0
LINE
  5
960B
  8
0
 10
18.150342922642249
 20
10.38603207233427
 30
0.0
 11
18.149671273209488
 21
10.38666935813171
 31
0.0
  0
LINE
  5
960C
  8
0
 10
18.149671273209488
 20
10.38666935813171
 30
0.0
 11
18.14899587987502
 21
10.387262262915771
 31
0.0
  0
LINE
  5
960D
  8
0
 10
18.14899587987502
 20
10.387262262915771
 30
0.0
 11
18.148313135189071
 21
10.387788806544441
 31
0.0
  0
LINE
  5
960E
  8
0
 10
18.148313135189071
 20
10.387788806544441
 30
0.0
 11
18.147619431701909
 21
10.38822700887475
 31
0.0
  0
LINE
  5
960F
  8
0
 10
18.147619431701909
 20
10.38822700887475
 30
0.0
 11
18.146911161963828
 21
10.38855488976264
 31
0.0
  0
LINE
  5
9610
  8
0
 10
18.146911161963828
 20
10.38855488976264
 30
0.0
 11
18.14618471852507
 21
10.388750469066951
 31
0.0
  0
LINE
  5
9611
  8
0
 10
18.14618471852507
 20
10.388750469066951
 30
0.0
 11
18.14543649393589
 21
10.38879176664363
 31
0.0
  0
LINE
  5
9612
  8
0
 10
18.14543649393589
 20
10.38879176664363
 30
0.0
 11
18.14466288074658
 21
10.388656802350161
 31
0.0
  0
LINE
  5
9613
  8
0
 10
18.14466288074658
 20
10.388656802350161
 30
0.0
 11
18.143864585380499
 21
10.38833139418033
 31
0.0
  0
LINE
  5
9614
  8
0
 10
18.143864585380499
 20
10.38833139418033
 30
0.0
 11
18.143059569753451
 21
10.3878325526764
 31
0.0
  0
LINE
  5
9615
  8
0
 10
18.143059569753451
 20
10.3878325526764
 30
0.0
 11
18.142270109654341
 21
10.387185086518
 31
0.0
  0
LINE
  5
9616
  8
0
 10
18.142270109654341
 20
10.387185086518
 30
0.0
 11
18.141518480872062
 21
10.38641380438342
 31
0.0
  0
LINE
  5
9617
  8
0
 10
18.141518480872062
 20
10.38641380438342
 30
0.0
 11
18.140826959195518
 21
10.385543514952809
 31
0.0
  0
LINE
  5
9618
  8
0
 10
18.140826959195518
 20
10.385543514952809
 30
0.0
 11
18.140217820413621
 21
10.384599026904411
 31
0.0
  0
LINE
  5
9619
  8
0
 10
18.140217820413621
 20
10.384599026904411
 30
0.0
 11
18.139713340315289
 21
10.383605148917461
 31
0.0
  0
LINE
  5
961A
  8
0
 10
18.116275550110199
 20
10.33716172193953
 30
0.0
 11
18.117443407475712
 21
10.33641205702337
 31
0.0
  0
LINE
  5
961B
  8
0
 10
18.117443407475712
 20
10.33641205702337
 30
0.0
 11
18.118848034644969
 21
10.335770956729901
 31
0.0
  0
LINE
  5
961C
  8
0
 10
18.118848034644969
 20
10.335770956729901
 30
0.0
 11
18.1204963068088
 21
10.335236542000059
 31
0.0
  0
LINE
  5
961D
  8
0
 10
18.1204963068088
 20
10.335236542000059
 30
0.0
 11
18.122395099158069
 21
10.33480693377714
 31
0.0
  0
LINE
  5
961E
  8
0
 10
18.122395099158069
 20
10.33480693377714
 30
0.0
 11
18.124551286883591
 21
10.33448025300321
 31
0.0
  0
LINE
  5
961F
  8
0
 10
18.124551286883591
 20
10.33448025300321
 30
0.0
 11
18.126971745176242
 21
10.334254620620181
 31
0.0
  0
LINE
  5
9620
  8
0
 10
18.126971745176242
 20
10.334254620620181
 30
0.0
 11
18.12966334922686
 21
10.334128157570371
 31
0.0
  0
LINE
  5
9621
  8
0
 10
18.13268785327789
 20
10.334045194754699
 30
0.0
 11
18.12966334922686
 21
10.334128157570371
 31
0.0
  0
LINE
  5
9622
  8
0
 10
18.175495210662461
 20
10.29741347292792
 30
0.0
 11
18.154748684799369
 21
10.262841266611749
 31
0.0
  0
LINE
  5
9623
  8
0
 10
18.154748684799369
 20
10.262841266611749
 30
0.0
 11
18.12518044620607
 21
10.2506253558804
 31
0.0
  0
LINE
  5
9624
  8
0
 10
18.12518044620607
 20
10.2506253558804
 30
0.0
 11
18.099847677674621
 21
10.222940518750869
 31
0.0
  0
LINE
  5
9625
  8
0
 10
18.115337587357569
 20
10.33802183053489
 30
0.0
 11
18.116275550110199
 21
10.33716172193953
 31
0.0
  0
LINE
  5
9626
  8
0
 10
18.132869789277109
 20
10.339564405227049
 30
0.0
 11
18.13268785327789
 21
10.334045194754699
 31
0.0
  0
LINE
  5
9627
  8
0
 10
18.206664486048911
 20
10.304820451327711
 30
0.0
 11
18.175495210662461
 21
10.29741347292792
 31
0.0
  0
LINE
  5
9628
  8
0
 10
18.215053918844959
 20
10.17789607631971
 30
0.0
 11
18.195147209554261
 21
10.170331905216241
 31
0.0
  0
LINE
  5
9629
  8
0
 10
18.191924759136061
 20
10.163381950046171
 30
0.0
 11
18.217366689267031
 21
10.16426979772222
 31
0.0
  0
LINE
  5
962A
  8
0
 10
18.17057420575555
 20
10.17397790264044
 30
0.0
 11
18.166098580174729
 21
10.188765660657269
 31
0.0
  0
LINE
  5
962B
  8
0
 10
18.166098580174729
 20
10.188765660657269
 30
0.0
 11
18.183267516549162
 21
10.20138037509876
 31
0.0
  0
LINE
  5
962C
  8
0
 10
18.097173946230079
 20
10.206954894115141
 30
0.0
 11
18.077406963786778
 21
10.210229742101079
 31
0.0
  0
LINE
  5
962D
  8
0
 10
18.077406963786778
 20
10.210229742101079
 30
0.0
 11
18.06294669056874
 21
10.19496895048677
 31
0.0
  0
LINE
  5
962E
  8
0
 10
18.195147209554261
 20
10.170331905216241
 30
0.0
 11
18.17057420575555
 21
10.17397790264044
 31
0.0
  0
LINE
  5
962F
  8
0
 10
18.183267516549162
 20
10.20138037509876
 30
0.0
 11
18.204632624809609
 21
10.227520939467
 31
0.0
  0
LINE
  5
9630
  8
0
 10
18.099847677674621
 20
10.222940518750869
 30
0.0
 11
18.097173946230079
 21
10.206954894115141
 31
0.0
  0
ARC
  5
9631
  8
0
 10
-18.41537418691458
 20
10.4273579855228
 30
0.0
 40
0.1885715689839664
210
0.0
220
0.0
230
-1.0
 50
329.9239329999981
 51
348.9639769999971
  0
ARC
  5
9632
  8
0
 10
-18.281659960415539
 20
10.338199157489029
 30
0.0
 40
0.0299481209596716
210
0.0
220
0.0
230
-1.0
 50
235.944996
 51
349.72231199999862
  0
LINE
  5
9633
  8
0
 10
18.2441680451842
 20
10.25344609161197
 30
0.0
 11
18.25832848787552
 21
10.25804980013617
 31
0.0
  0
LINE
  5
9634
  8
0
 10
18.25832848787552
 20
10.25804980013617
 30
0.0
 11
18.26642973404881
 21
10.281075620197489
 31
0.0
  0
LINE
  5
9635
  8
0
 10
18.26642973404881
 20
10.281075620197489
 30
0.0
 11
18.24696258213223
 21
10.29954721832631
 31
0.0
  0
LINE
  5
9636
  8
0
 10
18.22775014061456
 20
10.239090613529459
 30
0.0
 11
18.2441680451842
 21
10.25344609161197
 31
0.0
  0
LINE
  5
9637
  8
0
 10
18.24696258213223
 20
10.29954721832631
 30
0.0
 11
18.229089189568811
 21
10.30939505009246
 31
0.0
  0
ARC
  5
9638
  8
0
 10
-18.29338554109227
 20
10.39696329712228
 30
0.0
 40
0.0294648989457422
210
0.0
220
0.0
230
-1.0
 50
251.1909500000001
 51
2.5488450000021312
  0
LINE
  5
9639
  8
0
 10
18.3546701491587
 20
10.165891211347111
 30
0.0
 11
18.336814222451199
 21
10.17936175272961
 31
0.0
  0
LINE
  5
963A
  8
0
 10
18.336814222451199
 20
10.17936175272961
 30
0.0
 11
18.317581404101631
 21
10.17598065412016
 31
0.0
  0
LINE
  5
963B
  8
0
 10
18.317581404101631
 20
10.17598065412016
 30
0.0
 11
18.31503430011254
 21
10.198901679045539
 31
0.0
  0
LINE
  5
963C
  8
0
 10
18.31503430011254
 20
10.198901679045539
 30
0.0
 11
18.26530464182963
 21
10.19314522403055
 31
0.0
  0
LINE
  5
963D
  8
0
 10
18.26530464182963
 20
10.19314522403055
 30
0.0
 11
18.25537966920016
 21
10.186675579898059
 31
0.0
  0
LINE
  5
963E
  8
0
 10
18.25537966920016
 20
10.186675579898059
 30
0.0
 11
18.239635655571622
 21
10.18116364686602
 31
0.0
  0
ARC
  5
963F
  8
0
 10
18.32740427583089
 20
10.248401567875129
 30
0.0
 40
0.1231360796950428
 50
61.781831376361247
 51
101.4854784804825
  0
ARC
  5
9640
  8
0
 10
18.159789039721769
 20
10.467773976133451
 30
0.0
 40
0.1113200882269908
 50
49.067058000001552
 51
72.217435000000492
  0
ARC
  5
9641
  8
0
 10
18.201959690886561
 20
10.55424516250582
 30
0.0
 40
0.0308545625078438
 50
355.59419036477749
 51
64.085314639206516
  0
ARC
  5
9642
  8
0
 10
18.183871798259261
 20
10.504818628673529
 30
0.0
 40
0.0833866858056544
 50
38.259234046839168
 51
103.3732192694921
  0
ARC
  5
9643
  8
0
 10
18.193787783768091
 20
10.49468594913832
 30
0.0
 40
0.025083880084515
 50
14.036242999997681
 51
67.166345999999052
  0
LINE
  5
9644
  8
0
 10
18.189849233256961
 20
10.57503907481008
 30
0.0
 11
18.193787783768091
 21
10.57377571123151
 31
0.0
  0
ARC
  5
9645
  8
0
 10
-18.170668812475139
 20
10.567691771417669
 30
0.0
 40
0.020720327079213
210
0.0
220
0.0
230
-1.0
 50
266.63353899999942
 51
356.63353899999748
  0
ARC
  5
9646
  8
0
 10
-18.171750240054511
 20
10.552010343772499
 30
0.0
 40
0.026134742416012
210
0.0
220
0.0
230
-1.0
 50
33.607863999999189
 51
112.1866780000003
  0
ARC
  5
9647
  8
0
 10
-18.057508987424029
 20
10.81226324096132
 30
0.0
 40
0.250370133711158
210
0.0
220
0.0
230
-1.0
 50
244.6803130000001
 51
254.2075959999994
  0
LINE
  5
9648
  8
0
 10
18.171137543435599
 20
10.577851355018529
 30
0.0
 11
18.171137543435599
 21
10.577851355018529
 31
0.0
  0
LINE
  5
9649
  8
0
 10
18.18161990414022
 20
10.57620928715686
 30
0.0
 11
18.1854492930518
 21
10.57464754853981
 31
0.0
  0
LINE
  5
964A
  8
0
 10
18.0604578060994
 20
10.549584045286791
 30
0.0
 11
18.055075411498471
 21
10.551874983389091
 31
0.0
  0
ARC
  5
964B
  8
0
 10
-18.221469709921461
 20
10.568985700243941
 30
0.0
 40
0.0542358491115982
210
0.0
220
0.0
230
-1.0
 50
289.32416899999902
 51
336.09461099999959
  0
LINE
  5
964C
  8
0
 10
18.1854492930518
 20
10.57464754853981
 30
0.0
 11
18.189849233256961
 21
10.57503907481008
 31
0.0
  0
ARC
  5
964D
  8
0
 10
18.184859989813319
 20
10.51467734410584
 30
0.0
 40
0.0768381221667468
 50
3.9347819999985312
 51
32.93511599999924
  0
ARC
  5
964E
  8
0
 10
17.708500789622249
 20
10.514278332349701
 30
0.0
 40
0.5530452836628448
 50
354.4404940156054
 51
0.5876029673891453
  0
ARC
  5
964F
  8
0
 10
18.140791320837319
 20
10.243774628158221
 30
0.0
 40
0.2996890421519972
 50
359.74307375487308
 51
5.3925213306160691
  0
ARC
  5
9650
  8
0
 10
18.426189918196229
 20
10.253766298970501
 30
0.0
 40
0.0070955039695956
 50
120.9637570000009
 51
210.96375700000019
  0
ARC
  5
9651
  8
0
 10
-18.462587306456271
 20
10.216628067321819
 30
0.0
 40
0.0309494966993808
210
0.0
220
0.0
230
-1.0
 50
233.6197979999985
 51
325.30484599999869
  0
LINE
  5
9652
  8
0
 10
18.427406706159019
 20
10.208745144347629
 30
0.0
 11
18.426482471282981
 21
10.20563476650476
 31
0.0
  0
LINE
  5
9653
  8
0
 10
18.426482471282981
 20
10.20563476650476
 30
0.0
 11
18.419148267282409
 21
10.20585600067988
 31
0.0
  0
LINE
  5
9654
  8
0
 10
18.419148267282409
 20
10.20585600067988
 30
0.0
 11
18.417673857944731
 21
10.208745144347629
 31
0.0
  0
ARC
  5
9655
  8
0
 10
-18.5816942554499
 20
10.292458991797041
 30
0.0
 40
0.18414834097092
210
0.0
220
0.0
230
-1.0
 50
332.96088100000031
 51
352.04385489126952
  0
ARC
  5
9656
  8
0
 10
18.49572952139949
 20
10.245010445788459
 30
0.0
 40
0.0553123603852414
 50
182.67315462523041
 51
254.49653585089101
  0
ARC
  5
9657
  8
0
 10
18.353792489898449
 20
10.21117872027321
 30
0.0
 40
0.084232001175064
 50
351.69432399999738
 51
35.297143000000069
  0
ARC
  5
9658
  8
0
 10
-18.382387007023929
 20
10.22212981193819
 30
0.0
 40
0.0469685975587384
210
0.0
220
0.0
230
-1.0
 50
143.42696899999839
 51
196.55707099999719
  0
ARC
  5
9659
  8
0
 10
17.829256482775289
 20
10.650414292510041
 30
0.0
 40
0.1510058064112368
 50
97.267335394170019
 51
159.71996028223811
  0
ARC
  5
965A
  8
0
 10
17.825428515842511
 20
10.671449144028649
 30
0.0
 40
0.1003835514418542
 50
48.43557500000211
 51
97.847627999999531
  0
ARC
  5
965B
  8
0
 10
17.81837855845918
 20
10.67022904777445
 30
0.0
 40
0.1302379061430622
 50
42.804549694953323
 51
93.620483886717864
  0
ARC
  5
965C
  8
0
 10
-17.807202895184609
 20
10.779932486155969
 30
0.0
 40
0.0101054531406978
210
0.0
220
0.0
230
-1.0
 50
243.4349489999997
 51
3.945186000002348
  0
ARC
  5
965D
  8
0
 10
17.781302486335591
 20
10.80861287707307
 30
0.0
 40
0.0300514606072288
 50
301.75948000000051
 51
343.75679324223017
  0
LINE
  5
965E
  8
0
 10
17.797120729851809
 20
10.78062675392902
 30
0.0
 11
17.79717603839558
 21
10.781436005253671
 31
0.0
  0
LINE
  5
965F
  8
0
 10
17.79717603839558
 20
10.781436005253671
 30
0.0
 11
17.796430828542771
 21
10.782633871872569
 31
0.0
  0
LINE
  5
9660
  8
0
 10
17.796430828542771
 20
10.782633871872569
 30
0.0
 11
17.797120729851809
 21
10.78306032985483
 31
0.0
  0
LINE
  5
9661
  8
0
 10
17.751433962095369
 20
10.711020206671259
 30
0.0
 11
17.751433962095369
 21
10.711020206671259
 31
0.0
  0
ARC
  5
9662
  8
0
 10
-17.76529794035617
 20
10.69095996058536
 30
0.0
 40
0.0588264582439272
210
0.0
220
0.0
230
-1.0
 50
142.10902499999841
 51
185.1118939999991
  0
ARC
  5
9663
  8
0
 10
17.842140428986909
 20
10.691802688133739
 30
0.0
 40
0.019238640301562
 50
198.43494899999851
 51
235.30484599999841
  0
ARC
  5
9664
  8
0
 10
-17.783736062261159
 20
10.71370487146396
 30
0.0
 40
0.025581656978382
210
0.0
220
0.0
230
-1.0
 50
25.34617599999936
 51
98.826550009906882
  0
ARC
  5
9665
  8
0
 10
17.817806125219171
 20
10.76967566226425
 30
0.0
 40
0.043019858631659
 50
225.5154962313826
 51
261.86989799999952
  0
ARC
  5
9666
  8
0
 10
17.911497342865701
 20
10.753858874235659
 30
0.0
 40
0.0054420696086806
 50
63.434948999999889
 51
153.4349489999976
  0
ARC
  5
9667
  8
0
 10
17.951649890149639
 20
10.72100559924047
 30
0.0
 40
0.0572006781548938
 50
141.91122700000059
 51
156.1612599999996
  0
ARC
  5
9668
  8
0
 10
-17.896895887312269
 20
10.74899172238451
 30
0.0
 40
0.0054420696086806
210
0.0
220
0.0
230
-1.0
 50
243.4349489999997
 51
333.43494899999757
  0
LINE
  5
9669
  8
0
 10
19.388516370520641
 20
9.4032446123751416
 30
0.0
 11
19.388516370520641
 21
8.6658812953426079
 31
0.0
  0
ARC
  5
966A
  8
0
 10
-18.164538297045421
 20
9.0558560154636325
 30
0.0
 40
0.6036287137014368
210
0.0
220
0.0
230
-1.0
 50
171.01236299999761
 51
178.90273499999901
  0
LINE
  5
966B
  8
0
 10
18.836148488471551
 20
8.7267206934818642
 30
0.0
 11
18.836148488471551
 21
9.3623599546306178
 31
0.0
  0
LINE
  5
966C
  8
0
 10
18.887253582908571
 20
9.3813424290449294
 30
0.0
 11
18.887253582908571
 21
8.7220456660461423
 31
0.0
  0
LINE
  5
966D
  8
0
 10
18.977247861050941
 20
8.6877834786730546
 30
0.0
 11
18.977247861050941
 21
9.3789088531193521
 31
0.0
  0
LINE
  5
966E
  8
0
 10
19.035617296064821
 20
9.3946965313875808
 30
0.0
 11
19.36420389907282
 21
8.825801583169774
 31
0.0
  0
LINE
  5
966F
  8
0
 10
19.001560332498752
 20
9.3388480015792066
 30
0.0
 11
19.001560332498752
 21
8.6902170545984063
 31
0.0
  0
LINE
  5
9670
  8
0
 10
19.36420389907282
 20
8.825801583169774
 30
0.0
 11
19.36420389907282
 21
9.4008110364497881
 31
0.0
  0
LINE
  5
9671
  8
0
 10
19.388516370520641
 20
8.6658812953426079
 30
0.0
 11
19.001560332498752
 21
9.3388480015792066
 31
0.0
  0
LINE
  5
9672
  8
0
 10
18.81911491248054
 20
8.6683148712684162
 30
0.0
 11
18.901855038461989
 21
8.6683148712684162
 31
0.0
  0
ARC
  5
9673
  8
0
 10
-18.702710804691339
 20
8.7339530133231165
 30
0.0
 40
0.1336356301473682
210
0.0
220
0.0
230
-1.0
 50
183.1026619999983
 51
209.41774699999741
  0
ARC
  5
9674
  8
0
 10
18.993240763126401
 20
8.7220456660461423
 30
0.0
 40
0.1060104680257426
 50
180.0
 51
210.45326099999829
  0
LINE
  5
9675
  8
0
 10
18.962646405497502
 20
8.6683148712684162
 30
0.0
 11
19.013728212126619
 21
8.6683148712684162
 31
0.0
  0
ARC
  5
9676
  8
0
 10
18.858004096185891
 20
8.7620060889148537
 30
0.0
 40
0.1404560468861426
 50
318.16036199999797
 51
328.09984299999712
  0
ARC
  5
9677
  8
0
 10
-19.048319339786389
 20
8.7018638695246864
 30
0.0
 40
0.0481868410095182
210
0.0
220
0.0
230
-1.0
 50
315.87690799999848
 51
346.0138840000003
  0
ARC
  5
9678
  8
0
 10
-18.125602537724259
 20
9.0503804696313601
 30
0.0
 40
0.6426794565741034
210
0.0
220
0.0
230
-1.0
 50
178.48115000000081
 51
185.21407099999681
  0
ARC
  5
9679
  8
0
 10
-18.977294436666739
 20
9.3728249133055161
 30
0.0
 40
0.0904425684444514
210
0.0
220
0.0
230
-1.0
 50
5.4037910000000497
 51
33.476277999999901
  0
ARC
  5
967A
  8
0
 10
18.816026366957772
 20
9.3104659857005974
 30
0.0
 40
0.1751490587054822
 50
23.00259699999771
 51
39.856534999998651
  0
ARC
  5
967B
  8
0
 10
-18.704250710988731
 20
9.3623599546306178
 30
0.0
 40
0.1319123323627526
210
0.0
220
0.0
230
-1.0
 50
152.77314599999701
 51
180.0
  0
ARC
  5
967C
  8
0
 10
-18.206082290851398
 20
9.0582022621094822
 30
0.0
 40
0.5622433680867739
210
0.0
220
0.0
230
-1.0
 50
162.1588269999971
 51
170.58718400000211
  0
LINE
  5
967D
  8
0
 10
18.821548488406108
 20
9.4227117642917602
 30
0.0
 11
18.901855038461989
 21
9.4227117642917602
 31
0.0
  0
ARC
  5
967E
  8
0
 10
19.085192672620401
 20
9.41767140936917
 30
0.0
 40
0.0546404747738644
 50
174.70655800000009
 51
204.8639990000004
  0
LINE
  5
967F
  8
0
 10
18.950478525869642
 20
9.4227117642917602
 30
0.0
 11
19.030786531413529
 21
9.4227117642917602
 31
0.0
  0
ARC
  5
9680
  8
0
 10
-19.448137525209152
 20
9.37951724710069
 30
0.0
 40
0.064169554669032
210
0.0
220
0.0
230
-1.0
 50
21.700536999999041
 51
42.310230000000203
  0
ARC
  5
9681
  8
0
 10
19.215758678588919
 20
9.3326709105335741
 30
0.0
 40
0.1633377736360938
 50
24.655898999999469
 51
33.453308999999557
  0
LINE
  5
9682
  8
0
 10
19.35203601944497
 20
9.4227117642917602
 30
0.0
 11
19.400684250148501
 21
9.4227117642917602
 31
0.0
  0
LINE
  5
9683
  8
0
 10
19.619656596858199
 20
9.3935103086728304
 30
0.0
 11
19.619656596858199
 21
8.7194199657053524
 31
0.0
  0
LINE
  5
9684
  8
0
 10
19.670760235807219
 20
8.7165803086297728
 30
0.0
 11
19.670760235807219
 21
9.3935103086728304
 31
0.0
  0
LINE
  5
9685
  8
0
 10
19.605055141304771
 20
8.6683148712684162
 30
0.0
 11
19.685361691360651
 21
8.6683148712684162
 31
0.0
  0
ARC
  5
9686
  8
0
 10
19.444846666855259
 20
8.741726774697776
 30
0.0
 40
0.176226119820867
 50
335.38143000000059
 51
352.72777799999682
  0
ARC
  5
9687
  8
0
 10
-19.757556806827299
 20
8.7165803086297728
 30
0.0
 40
0.086843146635875
210
0.0
220
0.0
230
-1.0
 50
326.23571499999832
 51
0.0
  0
LINE
  5
9688
  8
0
 10
19.429840585639571
 20
9.4227117642917602
 30
0.0
 11
19.858142671100278
 21
9.4227117642917602
 31
0.0
  0
LINE
  5
9689
  8
0
 10
19.670760235807219
 20
9.3935103086728304
 30
0.0
 11
19.828939759993421
 21
9.3935103086728304
 31
0.0
  0
ARC
  5
968A
  8
0
 10
-19.476077072737439
 20
9.3557898818264622
 30
0.0
 40
0.0404480113466794
210
0.0
220
0.0
230
-1.0
 50
15.708638000001001
 51
68.838739999999788
  0
ARC
  5
968B
  8
0
 10
-20.329032335258479
 20
9.5115358300872668
 30
0.0
 40
0.9035698575041822
210
0.0
220
0.0
230
-1.0
 50
350.77868099999978
 51
354.35850299999771
  0
LINE
  5
968C
  8
0
 10
19.619656596858199
 20
9.3935103086728304
 30
0.0
 11
19.461475617184011
 21
9.3935103086728304
 31
0.0
  0
ARC
  5
968D
  8
0
 10
-19.809297949517578
 20
9.3550941585656329
 30
0.0
 40
0.0431450305991226
210
0.0
220
0.0
230
-1.0
 50
117.0812150000009
 51
164.3399709999982
  0
ARC
  5
968E
  8
0
 10
19.566024775264012
 20
9.4323529167625058
 30
0.0
 40
0.2922779995155818
 50
347.02738699999958
 51
358.1097970000003
  0
TEXT
  5
968F
  8
0
 10
21.669328232630122
 20
584.14806785389828
 30
0.0
 40
0.0625
  1

 72
     1
 11
21.669328232630122
 21
584.1793178538984
 31
0.0
 73
     2
  0
TEXT
  5
9690
  8
0
 10
17.05435386001772
 20
7.5188156906813202
 30
0.0
 40
0.125
  1
ANACONDA DRIVE
 72
     4
 11
17.875782431446289
 21
7.5813156906813202
 31
0.0
  0
TEXT
  5
9691
  8
0
 10
17.456139574303432
 20
7.2688156906813202
 30
0.0
 40
0.125
  1
TARBORO
 72
     4
 11
17.875782431446289
 21
7.3313156906813202
 31
0.0
  0
TEXT
  5
9692
  8
0
 10
17.063282431446289
 20
7.0188156906813202
 30
0.0
 40
0.125
  1
NORTH CAROLINA
 72
     4
 11
17.875782431446289
 21
7.0813156906813202
 31
0.0
  0
TEXT
  5
9693
  8
0
 10
17.598996717160581
 20
6.7688156906813202
 30
0.0
 40
0.125
  1
27886
 72
     4
 11
17.875782431446289
 21
6.8313156906813202
 31
0.0
  0
TEXT
  5
9694
  8
0
 10
17.23887766954153
 20
6.2688156906813202
 30
0.0
 40
0.125
  1
800.662.5550
 72
     4
 11
17.875782431446289
 21
6.3313156906813202
 31
0.0
  0
TEXT
  5
9695
  8
0
 10
21.669328232630122
 20
584.02676125358312
 30
0.0
 40
0.0625
  1

 72
     4
 11
21.669328232630122
 21
584.02676125358312
 31
0.0
  0
TEXT
  5
9696
  8
0
 10
17.096020526684391
 20
5.7896490240146532
 30
0.0
 40
0.125
  1
focalpointap.com
 72
     4
 11
17.875782431446289
 21
5.8313156906813202
 31
0.0
  0
LINE
  5
9697
  8
0
 10
0.0
 20
1.0625
 30
0.0
 11
20.0
 21
1.0625
 31
0.0
  0
LINE
  5
9698
  8
0
 10
17.395523052287231
 20
9.756247445702936
 30
0.0
 11
17.48618147150718
 21
9.8469058649228902
 31
0.0
  0
LINE
  5
9699
  8
0
 10
18.242369664935971
 20
9.7574298716993901
 30
0.0
 11
18.144990727276571
 21
9.8548088093588024
 31
0.0
  0
LINE
  5
969A
  8
0
 10
18.190184888790981
 20
9.7530461053494637
 30
0.0
 11
18.112376967104641
 21
9.8308540270357945
 31
0.0
  0
LINE
  5
969B
  8
0
 10
18.183812185917279
 20
9.7028502657282427
 30
0.0
 11
18.125206310166579
 21
9.761456141478936
 31
0.0
  0
LINE
  5
969C
  8
0
 10
18.178640829636119
 20
9.6514530795144715
 30
0.0
 11
18.158172585425952
 21
9.6719213237246482
 31
0.0
  0
LINE
  5
969D
  8
0
 10
18.157226098020399
 20
9.6162992686352737
 30
0.0
 11
17.91453602686018
 21
9.8589893397954871
 31
0.0
  0
LINE
  5
969E
  8
0
 10
18.11994505682128
 20
9.5970117673394562
 30
0.0
 11
17.878790782860129
 21
9.8381660413006067
 31
0.0
  0
LINE
  5
969F
  8
0
 10
18.06018998488187
 20
9.6001982967839616
 30
0.0
 11
17.86097258424239
 21
9.7994156974234397
 31
0.0
  0
LINE
  5
96A0
  8
0
 10
17.980583230050609
 20
9.6232365091202894
 30
0.0
 11
17.853597661551941
 21
9.7502220776189592
 31
0.0
  0
LINE
  5
96A1
  8
0
 10
17.920502148959262
 20
9.6267490477167037
 30
0.0
 11
17.846656916805191
 21
9.700594279870792
 31
0.0
  0
LINE
  5
96A2
  8
0
 10
17.880582362447871
 20
9.6101002917331702
 30
0.0
 11
17.841276899469459
 21
9.6494057547115943
 31
0.0
  0
LINE
  5
96A3
  8
0
 10
17.836896888146711
 20
9.5972172235394115
 30
0.0
 11
17.718143947619339
 21
9.7159701640667944
 31
0.0
  0
LINE
  5
96A4
  8
0
 10
17.77011209440435
 20
9.6074334747868502
 30
0.0
 11
17.622333592063029
 21
9.7552119771281696
 31
0.0
  0
LINE
  5
96A5
  8
0
 10
17.686337753091699
 20
9.6346392736045772
 30
0.0
 11
17.593570120113512
 21
9.7274069065827682
 31
0.0
  0
LINE
  5
96A6
  8
0
 10
17.647361797076421
 20
9.6170466871249403
 30
0.0
 11
17.57164608259507
 21
9.6927624016062861
 31
0.0
  0
LINE
  5
96A7
  8
0
 10
17.603779396640441
 20
9.6040605450659964
 30
0.0
 11
17.337083394220219
 21
9.8707565474862022
 31
0.0
  0
LINE
  5
96A8
  8
0
 10
17.55403115190736
 20
9.597240247304148
 30
0.0
 11
17.459683682824839
 21
9.6915877163866657
 31
0.0
  0
LINE
  5
96A9
  8
0
 10
17.347476067876389
 20
9.7472267888401944
 30
0.0
 11
16.980604704983691
 21
10.11409815173289
 31
0.0
  0
LINE
  5
96AA
  8
0
 10
17.2920780823769
 20
9.7460562318447543
 30
0.0
 11
17.259051808981571
 21
9.7790825052400834
 31
0.0
  0
LINE
  5
96AB
  8
0
 10
18.311339694647231
 20
9.7450283844830601
 30
0.0
 11
18.1854480906199
 21
9.8709199885103924
 31
0.0
  0
LINE
  5
96AC
  8
0
 10
18.361958391861631
 20
9.7509782297635841
 30
0.0
 11
18.308435188119351
 21
9.8045014335058678
 31
0.0
  0
LINE
  5
96AD
  8
0
 10
18.3857702977628
 20
9.7837348663573422
 30
0.0
 11
18.357823872927771
 21
9.8116812911923734
 31
0.0
  0
LINE
  5
96AE
  8
0
 10
18.401049287653379
 20
9.8250244189616787
 30
0.0
 11
18.235430918019372
 21
9.9906427885956823
 31
0.0
  0
LINE
  5
96AF
  8
0
 10
18.43734433467473
 20
9.8452979144352604
 30
0.0
 11
18.326090100068811
 21
9.9565521490411708
 31
0.0
  0
LINE
  5
96B0
  8
0
 10
18.487689369945521
 20
9.85152142165939
 30
0.0
 11
18.331784016509829
 21
10.00742677509508
 31
0.0
  0
LINE
  5
96B1
  8
0
 10
18.533995467224749
 20
9.8617838668750881
 30
0.0
 11
18.470545138535989
 21
9.9252341955638475
 31
0.0
  0
LINE
  5
96B2
  8
0
 10
18.574348471680342
 20
9.8779994049144122
 30
0.0
 11
18.38535767864138
 21
10.06699019795337
 31
0.0
  0
LINE
  5
96B3
  8
0
 10
18.606651902298449
 20
9.9022645167912344
 30
0.0
 11
18.443097041603291
 21
10.065819377486379
 31
0.0
  0
LINE
  5
96B4
  8
0
 10
18.631789182200698
 20
9.9336957793839105
 30
0.0
 11
18.546048468696629
 21
10.019436492887969
 31
0.0
  0
LINE
  5
96B5
  8
0
 10
18.64908141091756
 20
9.9729720931619763
 30
0.0
 11
18.561490112832711
 21
10.060563391246809
 31
0.0
  0
LINE
  5
96B6
  8
0
 10
18.655247148945779
 20
10.023374897628671
 30
0.0
 11
18.48931627851784
 21
10.189305768056609
 31
0.0
  0
LINE
  5
96B7
  8
0
 10
18.62963786853388
 20
10.10555272053549
 30
0.0
 11
18.607247884779511
 21
10.127942704289859
 31
0.0
  0
LINE
  5
96B8
  8
0
 10
18.232384965791429
 20
10.55937416577286
 30
0.0
 11
18.20675514332882
 21
10.58500398823548
 31
0.0
  0
LINE
  5
96B9
  8
0
 10
17.450859146335581
 20
9.7550149972563673
 30
0.0
 11
17.518284791411421
 21
9.8224406423322073
 31
0.0
  0
LINE
  5
96BA
  8
0
 10
17.459138254737219
 20
9.7067255631630722
 30
0.0
 11
17.541595856022859
 21
9.7891831644487262
 31
0.0
  0
LINE
  5
96BB
  8
0
 10
17.463497859173302
 20
9.654516625104236
 30
0.0
 11
17.532235163302069
 21
9.723253929232996
 31
0.0
  0
LINE
  5
96BC
  8
0
 10
17.483879439057191
 20
9.6183296624932062
 30
0.0
 11
17.537591233722061
 21
9.6720414571580662
 31
0.0
  0
LINE
  5
96BD
  8
0
 10
17.519410484387159
 20
9.5972921653282501
 30
0.0
 11
17.66473603807032
 21
9.7426177190114061
 31
0.0
  0
LINE
  5
96BE
  8
0
 10
17.578224829016438
 20
9.599537967462604
 30
0.0
 11
17.698888131865839
 21
9.7202012703120086
 31
0.0
  0
LINE
  5
96BF
  8
0
 10
17.655532856685848
 20
9.6202774526370902
 30
0.0
 11
17.740519203770418
 21
9.7052637997216582
 31
0.0
  0
LINE
  5
96C0
  8
0
 10
17.719867873658259
 20
9.6280439271145788
 30
0.0
 11
17.76891065938975
 21
9.677086712846064
 31
0.0
  0
LINE
  5
96C1
  8
0
 10
17.759556810681531
 20
9.6111643216429261
 30
0.0
 11
17.800710358332658
 21
9.6523178692940554
 31
0.0
  0
LINE
  5
96C2
  8
0
 10
17.8028170037569
 20
9.5978559722233694
 30
0.0
 11
18.030750628615468
 21
9.8257895970819398
 31
0.0
  0
LINE
  5
96C3
  8
0
 10
17.86698957996995
 20
9.6054600059415112
 30
0.0
 11
18.04394075570244
 21
9.7824111816739912
 31
0.0
  0
LINE
  5
96C4
  8
0
 10
17.95366632874072
 20
9.6355682122173398
 30
0.0
 11
18.068935422786911
 21
9.7508373062635378
 31
0.0
  0
LINE
  5
96C5
  8
0
 10
17.992821592975211
 20
9.6181549339569017
 30
0.0
 11
18.09649048537899
 21
9.7218238263606782
 31
0.0
  0
LINE
  5
96C6
  8
0
 10
18.036030276146519
 20
9.6047950746333015
 30
0.0
 11
18.12156606809658
 21
9.6903308665833503
 31
0.0
  0
LINE
  5
96C7
  8
0
 10
18.085276351296962
 20
9.5974726072888021
 30
0.0
 11
18.142820592546801
 21
9.6550168485386436
 31
0.0
  0
LINE
  5
96C8
  8
0
 10
18.29213096223442
 20
9.7477586757313563
 30
0.0
 11
18.46918810020281
 21
9.9248158136997322
 31
0.0
  0
LINE
  5
96C9
  8
0
 10
18.34565860023579
 20
9.7447177712377862
 30
0.0
 11
18.386431400569471
 21
9.7854905715714686
 31
0.0
  0
LINE
  5
96CA
  8
0
 10
18.514358277306389
 20
9.8568489058134734
 30
0.0
 11
18.653986405284289
 21
9.9964770337913702
 31
0.0
  0
LINE
  5
96CB
  8
0
 10
17.327168605274132
 20
9.7444615411847533
 30
0.0
 11
17.407225658023581
 21
9.8245185939342115
 31
0.0
  0
LINE
  5
96CC
  8
0
 10
17.278676455677338
 20
9.7525379340828966
 30
0.0
 11
17.389569098359861
 21
9.8634305767654098
 31
0.0
  0
LINE
  5
96CD
  8
0
 10
17.256202366286988
 20
9.7866323871874723
 30
0.0
 11
17.358191611026449
 21
9.8886216319269273
 31
0.0
  0
LINE
  5
96CE
  8
0
 10
17.24106487149739
 20
9.8280634348927904
 30
0.0
 11
17.28530732589811
 21
9.8723058892935178
 31
0.0
  0
LINE
  5
96CF
  8
0
 10
17.221228715409591
 20
9.8647958212999178
 30
0.0
 11
17.27154439458786
 21
9.9151115004781882
 31
0.0
  0
LINE
  5
96D0
  8
0
 10
17.17818368547178
 20
9.8783193338570339
 30
0.0
 11
17.290745771004111
 21
9.990881419389364
 31
0.0
  0
LINE
  5
96D1
  8
0
 10
17.13345435988883
 20
9.8901585507690086
 30
0.0
 11
17.190044394066419
 21
9.9467485849465938
 31
0.0
  0
LINE
  5
96D2
  8
0
 10
17.094698831046792
 20
9.9079715644218904
 30
0.0
 11
17.259412953154499
 21
10.072685686529599
 31
0.0
  0
LINE
  5
96D3
  8
0
 10
17.060881550702842
 20
9.9307228265728646
 30
0.0
 11
17.20804272551575
 21
10.077884001385771
 31
0.0
  0
LINE
  5
96D4
  8
0
 10
17.031553501773072
 20
9.9579633201380169
 30
0.0
 11
17.10426518346879
 21
10.03067500183373
 31
0.0
  0
LINE
  5
96D5
  8
0
 10
17.00663631519712
 20
9.9896146760569842
 30
0.0
 11
17.060246904330249
 21
10.04322526519012
 31
0.0
  0
LINE
  5
96D6
  8
0
 10
16.989480678272258
 20
10.029027581627039
 30
0.0
 11
17.040139050160811
 21
10.0796859535156
 31
0.0
  0
LINE
  5
96D7
  8
0
 10
16.978635810262041
 20
10.07475125611176
 30
0.0
 11
17.121481461041149
 21
10.21759690689086
 31
0.0
  0
LINE
  5
96D8
  8
0
 10
17.391279395896731
 20
10.54396338424136
 30
0.0
 11
17.409628192934719
 21
10.562312181279349
 31
0.0
  0
LINE
  5
96D9
  8
0
 10
17.967328555519401
 20
10.654724948560119
 30
0.0
 11
17.85453240135131
 21
10.76752110272821
 31
0.0
  0
LINE
  5
96DA
  8
0
 10
17.662820197682471
 20
10.64579855854233
 30
0.0
 11
17.797098473038432
 21
10.78007683389829
 31
0.0
  0
LINE
  5
96DB
  8
0
 10
17.379130272821651
 20
10.47524571867136
 30
0.0
 11
17.481168317558389
 21
10.577283763408101
 31
0.0
  0
LINE
  5
96DC
  8
0
 10
17.384405131708441
 20
10.42395203506323
 30
0.0
 11
17.43696847761915
 21
10.47651538097394
 31
0.0
  0
LINE
  5
96DD
  8
0
 10
17.228389196325949
 20
10.32450464217567
 30
0.0
 11
17.238764798976561
 21
10.33488024482627
 31
0.0
  0
LINE
  5
96DE
  8
0
 10
17.154658756445251
 20
9.8834755577764088
 30
0.0
 11
16.982391725180779
 21
10.05574258904087
 31
0.0
  0
LINE
  5
96DF
  8
0
 10
18.446708469718381
 20
9.8457676407203838
 30
0.0
 11
18.652234814710681
 21
10.051293985712681
 31
0.0
  0
LINE
  5
96E0
  8
0
 10
18.428461306240742
 20
10.25016074033371
 30
0.0
 11
18.420550098692541
 21
10.258071947881909
 31
0.0
  0
LINE
  5
96E1
  8
0
 10
18.159891081938529
 20
10.57529950713085
 30
0.0
 11
18.153969648727369
 21
10.581220940342
 31
0.0
  0
LINE
  5
96E2
  8
0
 10
18.223646325912359
 20
10.45497572066208
 30
0.0
 11
18.10882089035016
 21
10.56980115622429
 31
0.0
  0
LINE
  5
96E3
  8
0
 10
17.505041164222671
 20
10.148608270113
 30
0.0
 11
17.56019559760459
 21
10.20376270349492
 31
0.0
  0
LINE
  5
96E4
  8
0
 10
17.467184727261291
 20
10.16732037564654
 30
0.0
 11
17.530369244801602
 21
10.230504893186851
 31
0.0
  0
LINE
  5
96E5
  8
0
 10
17.43370818973316
 20
10.19041238061333
 30
0.0
 11
17.50065713623988
 21
10.257361327120041
 31
0.0
  0
LINE
  5
96E6
  8
0
 10
17.40232027943388
 20
10.215593012808981
 30
0.0
 11
17.471059202254839
 21
10.28433193562994
 31
0.0
  0
LINE
  5
96E7
  8
0
 10
17.372237661743341
 20
10.242078937613361
 30
0.0
 11
17.441575378802579
 21
10.311416654672589
 31
0.0
  0
LINE
  5
96E8
  8
0
 10
17.257314114985991
 20
10.233368539195061
 30
0.0
 11
17.206776874737699
 21
10.283905779443341
 31
0.0
  0
LINE
  5
96E9
  8
0
 10
17.27053697415317
 20
10.2767142225228
 30
0.0
 11
17.225824380982178
 21
10.321426815693791
 31
0.0
  0
LINE
  5
96EA
  8
0
 10
17.343448980536149
 20
10.26985879890109
 30
0.0
 11
17.412205607444111
 21
10.338615425809049
 31
0.0
  0
LINE
  5
96EB
  8
0
 10
17.361995558394732
 20
10.344973919254601
 30
0.0
 11
17.426995532349771
 21
10.40997389320964
 31
0.0
  0
LINE
  5
96EC
  8
0
 10
17.225360315848881
 20
10.20875379583725
 30
0.0
 11
17.203298777416599
 21
10.23081533426952
 31
0.0
  0
LINE
  5
96ED
  8
0
 10
17.168724280506709
 20
10.20882128868449
 30
0.0
 11
17.153645870605679
 21
10.223899698585511
 31
0.0
  0
LINE
  5
96EE
  8
0
 10
17.225811450812841
 20
10.208789811672711
 30
0.0
 11
17.259174275647819
 21
10.24215263650769
 31
0.0
  0
LINE
  5
96EF
  8
0
 10
17.124690960348811
 20
10.196286066347451
 30
0.0
 11
17.107540078605702
 21
10.21343694809058
 31
0.0
  0
LINE
  5
96F0
  8
0
 10
17.09166690136621
 20
10.17274158283514
 30
0.0
 11
17.068025087531709
 21
10.19638339666964
 31
0.0
  0
LINE
  5
96F1
  8
0
 10
17.062569290708989
 20
10.145270650997441
 30
0.0
 11
17.033806567380111
 21
10.17403337432631
 31
0.0
  0
LINE
  5
96F2
  8
0
 10
17.169291908424309
 20
10.20883881177909
 30
0.0
 11
17.28282357128462
 21
10.322370474639399
 31
0.0
  0
LINE
  5
96F3
  8
0
 10
17.043965843380079
 20
10.107305555831431
 30
0.0
 11
17.004339855910128
 21
10.146931543301379
 31
0.0
  0
LINE
  5
96F4
  8
0
 10
17.28733576585369
 20
10.0336412608426
 30
0.0
 11
17.243785958134879
 21
10.077191068561399
 31
0.0
  0
LINE
  5
96F5
  8
0
 10
17.28944000663131
 20
9.9749684775700462
 30
0.0
 11
17.18705175908212
 21
10.07735672511923
 31
0.0
  0
LINE
  5
96F6
  8
0
 10
17.336227539784559
 20
9.9797946456748878
 30
0.0
 11
17.375543904037752
 21
10.01911100992808
 31
0.0
  0
LINE
  5
96F7
  8
0
 10
17.278013864102331
 20
9.9298260776041047
 30
0.0
 11
17.14501354904499
 21
10.062826392661441
 31
0.0
  0
LINE
  5
96F8
  8
0
 10
17.377024283814769
 20
9.9640228472101686
 30
0.0
 11
17.425142265964599
 21
10.01214082936
 31
0.0
  0
LINE
  5
96F9
  8
0
 10
17.358806917354912
 20
9.9621701093413737
 30
0.0
 11
17.337373929410742
 21
9.9836030972855401
 31
0.0
  0
LINE
  5
96FA
  8
0
 10
17.468273853755999
 20
9.9421353321615538
 30
0.0
 11
17.50869662365583
 21
9.9825581020613878
 31
0.0
  0
LINE
  5
96FB
  8
0
 10
17.427172986072222
 20
9.9576030069727022
 30
0.0
 11
17.469456205447141
 21
9.9998862263476234
 31
0.0
  0
LINE
  5
96FC
  8
0
 10
17.41773226761741
 20
9.9598133015737975
 30
0.0
 11
17.357980978191168
 21
10.019564591000041
 31
0.0
  0
LINE
  5
96FD
  8
0
 10
17.503285066254971
 20
9.9205780021656054
 30
0.0
 11
17.543302002432291
 21
9.9605949383429202
 31
0.0
  0
LINE
  5
96FE
  8
0
 10
17.534198836980849
 20
9.8949232303965537
 30
0.0
 11
17.57371606586862
 21
9.9344404592843265
 31
0.0
  0
LINE
  5
96FF
  8
0
 10
17.55694687525023
 20
9.861102726171012
 30
0.0
 11
17.600075226807402
 21
9.9042310777281841
 31
0.0
  0
LINE
  5
9700
  8
0
 10
17.56687916911465
 20
9.8144664775405062
 30
0.0
 11
17.622045959177211
 21
9.86963326760306
 31
0.0
  0
LINE
  5
9701
  8
0
 10
17.54120844690728
 20
9.7797685797889944
 30
0.0
 11
17.47249578516978
 21
9.8484812415264962
 31
0.0
  0
LINE
  5
9702
  8
0
 10
17.575921410135681
 20
9.7669401760666208
 30
0.0
 11
17.612615498093639
 21
9.8036342640245682
 31
0.0
  0
LINE
  5
9703
  8
0
 10
17.52212458810563
 20
9.7422838960957137
 30
0.0
 11
17.439418983995189
 21
9.8249895002061614
 31
0.0
  0
LINE
  5
9704
  8
0
 10
17.615061279923768
 20
9.8190528317623542
 30
0.0
 11
17.42107759623709
 21
10.013036515449031
 31
0.0
  0
LINE
  5
9705
  8
0
 10
17.62222268957602
 20
9.8684599646050302
 30
0.0
 11
17.507470909206049
 21
9.9832117449749944
 31
0.0
  0
LINE
  5
9706
  8
0
 10
17.781139708716989
 20
9.9721584746479301
 30
0.0
 11
17.83016870718663
 21
10.021187473117561
 31
0.0
  0
LINE
  5
9707
  8
0
 10
17.28257459826019
 20
10.321245140910699
 30
0.0
 11
17.256543937581
 21
10.3472758015899
 31
0.0
  0
LINE
  5
9708
  8
0
 10
17.516039172904659
 20
10.14434910876116
 30
0.0
 11
17.354478092179249
 21
10.305910189486569
 31
0.0
  0
LINE
  5
9709
  8
0
 10
17.819557617550839
 20
10.067144925976701
 30
0.0
 11
17.900312029326759
 21
10.147899337752619
 31
0.0
  0
LINE
  5
970A
  8
0
 10
17.789200519922879
 20
10.09335637084366
 30
0.0
 11
17.825303619885119
 21
10.1294594708059
 31
0.0
  0
LINE
  5
970B
  8
0
 10
17.725387645171541
 20
10.08611203858724
 30
0.0
 11
17.775707132359742
 21
10.136431525775439
 31
0.0
  0
LINE
  5
970C
  8
0
 10
17.631141288345471
 20
10.04843422425609
 30
0.0
 11
17.677702854316639
 21
10.094995790227269
 31
0.0
  0
LINE
  5
970D
  8
0
 10
17.606228799295021
 20
10.08009027770057
 30
0.0
 11
17.650360902784112
 21
10.124222381189661
 31
0.0
  0
LINE
  5
970E
  8
0
 10
17.585689243687501
 20
10.116119264587979
 30
0.0
 11
17.620191342799451
 21
10.15062136369993
 31
0.0
  0
LINE
  5
970F
  8
0
 10
17.547722179985051
 20
10.13472074338045
 30
0.0
 11
17.590136269951081
 21
10.17713483334648
 31
0.0
  0
LINE
  5
9710
  8
0
 10
17.580970710575549
 20
10.337674901455721
 30
0.0
 11
17.686646892888682
 21
10.443351083768849
 31
0.0
  0
LINE
  5
9711
  8
0
 10
17.425841145586642
 20
10.404252763563949
 30
0.0
 11
17.384081422088592
 21
10.446012487061999
 31
0.0
  0
LINE
  5
9712
  8
0
 10
17.557879193684862
 20
10.371151927059969
 30
0.0
 11
17.604637201068918
 21
10.417909934444021
 31
0.0
  0
LINE
  5
9713
  8
0
 10
17.407373776913779
 20
10.366151589741881
 30
0.0
 11
17.379845251422822
 21
10.393680115232851
 31
0.0
  0
LINE
  5
9714
  8
0
 10
17.53706133846234
 20
10.40690261433236
 30
0.0
 11
17.577569000084321
 21
10.44741027595434
 31
0.0
  0
LINE
  5
9715
  8
0
 10
17.542248561292791
 20
10.468658379657731
 30
0.0
 11
17.5912611318433
 21
10.517670950208251
 31
0.0
  0
LINE
  5
9716
  8
0
 10
17.44115636052431
 20
10.502074633616131
 30
0.0
 11
17.394571259260839
 21
10.54865973487961
 31
0.0
  0
LINE
  5
9717
  8
0
 10
17.433343340554948
 20
10.45331911109057
 30
0.0
 11
17.380674593123
 21
10.505987858522509
 31
0.0
  0
LINE
  5
9718
  8
0
 10
17.516257900420278
 20
10.49923626128014
 30
0.0
 11
17.547648200463371
 21
10.53062656132324
 31
0.0
  0
LINE
  5
9719
  8
0
 10
17.525889867966882
 20
10.56543677132167
 30
0.0
 11
17.5304049901473
 21
10.56995189350209
 31
0.0
  0
LINE
  5
971A
  8
0
 10
17.45498276597835
 20
10.544816770657009
 30
0.0
 11
17.427496708951541
 21
10.572302827683821
 31
0.0
  0
LINE
  5
971B
  8
0
 10
17.487076295948039
 20
10.569291783182249
 30
0.0
 11
17.478567103505512
 21
10.577800975624781
 31
0.0
  0
LINE
  5
971C
  8
0
 10
17.55206466796616
 20
10.56087195365904
 30
0.0
 11
17.543606807448789
 21
10.56932981417641
 31
0.0
  0
LINE
  5
971D
  8
0
 10
17.575433456860871
 20
10.55841181772073
 30
0.0
 11
17.587081334116771
 21
10.57005969497663
 31
0.0
  0
LINE
  5
971E
  8
0
 10
17.632220527411771
 20
10.558630345776709
 30
0.0
 11
17.723267920999511
 21
10.64967773936446
 31
0.0
  0
LINE
  5
971F
  8
0
 10
17.61195614667519
 20
10.55754901744495
 30
0.0
 11
17.596859355077822
 21
10.57264580904231
 31
0.0
  0
LINE
  5
9720
  8
0
 10
17.824051256940582
 20
10.693892532810599
 30
0.0
 11
17.883493708333219
 21
10.75333498420323
 31
0.0
  0
LINE
  5
9721
  8
0
 10
17.816102714492072
 20
10.62937544786717
 30
0.0
 11
17.835910783031348
 21
10.649183516406451
 31
0.0
  0
LINE
  5
9722
  8
0
 10
17.729157714380442
 20
10.6666216197194
 30
0.0
 11
17.689117415621229
 21
10.7066619184786
 31
0.0
  0
LINE
  5
9723
  8
0
 10
17.747611044246671
 20
10.704736832348081
 30
0.0
 11
17.709695356439269
 21
10.742652520155479
 31
0.0
  0
LINE
  5
9724
  8
0
 10
17.802908013234411
 20
10.72931783159934
 30
0.0
 11
17.843738819912399
 21
10.770148638277339
 31
0.0
  0
LINE
  5
9725
  8
0
 10
17.772318954440109
 20
10.73659746464957
 30
0.0
 11
17.738108089951659
 21
10.770808329138021
 31
0.0
  0
LINE
  5
9726
  8
0
 10
17.71710946770958
 20
10.622101323895331
 30
0.0
 11
17.673174475825441
 21
10.66603631577947
 31
0.0
  0
LINE
  5
9727
  8
0
 10
17.810705016268638
 20
10.56740920714881
 30
0.0
 11
17.859734287246422
 21
10.616438478126589
 31
0.0
  0
LINE
  5
9728
  8
0
 10
17.695897010976019
 20
10.586745238133959
 30
0.0
 11
17.653101962447799
 21
10.629540286662181
 31
0.0
  0
LINE
  5
9729
  8
0
 10
17.662212714704928
 20
10.56386099191012
 30
0.0
 11
17.62952729582609
 21
10.59654641078896
 31
0.0
  0
LINE
  5
972A
  8
0
 10
17.666934756865501
 20
10.50257040725462
 30
0.0
 11
17.641408757322331
 21
10.5280964067978
 31
0.0
  0
LINE
  5
972B
  8
0
 10
17.81275783849977
 20
10.512893486885019
 30
0.0
 11
17.862994537546388
 21
10.563130185931641
 31
0.0
  0
LINE
  5
972C
  8
0
 10
17.815768038847551
 20
10.459335144737871
 30
0.0
 11
17.865656645242922
 21
10.50922375113324
 31
0.0
  0
LINE
  5
972D
  8
0
 10
17.690045128426171
 20
10.422891493199019
 30
0.0
 11
17.59620413221565
 21
10.516732489409559
 31
0.0
  0
LINE
  5
972E
  8
0
 10
17.819708627675649
 20
10.406707191071041
 30
0.0
 11
17.862370846997461
 21
10.449369410392871
 31
0.0
  0
LINE
  5
972F
  8
0
 10
17.706235331376661
 20
10.35013274775363
 30
0.0
 11
17.607797708111161
 21
10.44857037101913
 31
0.0
  0
LINE
  5
9730
  8
0
 10
17.82453630987192
 20
10.354966330772401
 30
0.0
 11
17.851092858865201
 21
10.38152287976567
 31
0.0
  0
LINE
  5
9731
  8
0
 10
17.830211874238891
 20
10.304073352644441
 30
0.0
 11
17.875714022678409
 21
10.34957550108396
 31
0.0
  0
LINE
  5
9732
  8
0
 10
17.723005487620231
 20
10.27679404901513
 30
0.0
 11
17.543099438865671
 21
10.456700097769691
 31
0.0
  0
LINE
  5
9733
  8
0
 10
17.834916238338579
 20
10.252209174249201
 30
0.0
 11
17.946145239009731
 21
10.363438174920351
 31
0.0
  0
LINE
  5
9734
  8
0
 10
17.845605642565399
 20
10.2063300359811
 30
0.0
 11
17.93472904125364
 21
10.295453434669341
 31
0.0
  0
LINE
  5
9735
  8
0
 10
17.738962579079761
 20
10.20426841506068
 30
0.0
 11
17.53749673991393
 21
10.405734254226511
 31
0.0
  0
LINE
  5
9736
  8
0
 10
17.667147687483169
 20
10.04980913667757
 30
0.0
 11
17.387245252129169
 21
10.32971157203157
 31
0.0
  0
LINE
  5
9737
  8
0
 10
17.74327755674296
 20
10.086816352407631
 30
0.0
 11
17.720061365433491
 21
10.1100325437171
 31
0.0
  0
LINE
  5
9738
  8
0
 10
17.67732862513521
 20
10.09619674152046
 30
0.0
 11
17.642067294888541
 21
10.131458071767129
 31
0.0
  0
LINE
  5
9739
  8
0
 10
17.85645738909151
 20
10.047476155022441
 30
0.0
 11
17.924017956135419
 21
10.11503672206635
 31
0.0
  0
LINE
  5
973A
  8
0
 10
17.819294243086759
 20
10.067368208558751
 30
0.0
 11
17.678060286008069
 21
10.208602165637441
 31
0.0
  0
LINE
  5
973B
  8
0
 10
17.888147934427892
 20
10.0225981578639
 30
0.0
 11
17.96390276679368
 21
10.09835299022969
 31
0.0
  0
LINE
  5
973C
  8
0
 10
17.7626972884878
 20
9.9542595356729464
 30
0.0
 11
17.74745972893647
 21
9.9694970952242716
 31
0.0
  0
LINE
  5
973D
  8
0
 10
17.80436302080513
 20
9.9388132442411425
 30
0.0
 11
17.869044553987159
 21
10.003494777423169
 31
0.0
  0
LINE
  5
973E
  8
0
 10
17.824161208363961
 20
9.9020428893050561
 30
0.0
 11
17.901648107332971
 21
9.9795297882740535
 31
0.0
  0
LINE
  5
973F
  8
0
 10
17.856240993577181
 20
9.8775541320233415
 30
0.0
 11
17.995314293097788
 21
10.016627431543951
 31
0.0
  0
LINE
  5
9740
  8
0
 10
17.866008336605201
 20
9.830752932556436
 30
0.0
 11
17.87035995453294
 21
9.8351045504841821
 31
0.0
  0
LINE
  5
9741
  8
0
 10
17.853373443100729
 20
9.7615494965570377
 30
0.0
 11
18.066667561798258
 21
9.9748436152545743
 31
0.0
  0
LINE
  5
9742
  8
0
 10
17.847445279787941
 20
9.6990527907493274
 30
0.0
 11
18.069560335041469
 21
9.9211678460028612
 31
0.0
  0
LINE
  5
9743
  8
0
 10
17.604939183333379
 20
10.305074831718629
 30
0.0
 11
17.639281397996911
 21
10.33941704638216
 31
0.0
  0
LINE
  5
9744
  8
0
 10
17.629772609545949
 20
10.273339715436281
 30
0.0
 11
17.706296130056831
 21
10.349863235947151
 31
0.0
  0
LINE
  5
9745
  8
0
 10
17.655461549530258
 20
10.242460112925659
 30
0.0
 11
17.71678183862155
 21
10.303780402016949
 31
0.0
  0
LINE
  5
9746
  8
0
 10
17.678101174845889
 20
10.20853119574636
 30
0.0
 11
17.72728096992218
 21
10.257710990822661
 31
0.0
  0
LINE
  5
9747
  8
0
 10
17.699372118221181
 20
10.17323359662673
 30
0.0
 11
17.737438604650791
 21
10.211300083056351
 31
0.0
  0
LINE
  5
9748
  8
0
 10
17.72180469018441
 20
10.13909762609504
 30
0.0
 11
17.747454624355392
 21
10.16474756026602
 31
0.0
  0
LINE
  5
9749
  8
0
 10
18.025818466537022
 20
10.273405774962869
 30
0.0
 11
18.22195726341981
 21
10.46954457184567
 31
0.0
  0
LINE
  5
974A
  8
0
 10
17.904193825501281
 20
10.20874279612393
 30
0.0
 11
17.833260187162171
 21
10.27967643446304
 31
0.0
  0
LINE
  5
974B
  8
0
 10
17.916289449523742
 20
10.253215714596401
 30
0.0
 11
17.825702370847988
 21
10.34380279327214
 31
0.0
  0
LINE
  5
974C
  8
0
 10
18.076086982270049
 20
10.380242833190829
 30
0.0
 11
18.209820973471
 21
10.513976824391779
 31
0.0
  0
LINE
  5
974D
  8
0
 10
17.933790424987201
 20
10.29228328162786
 30
0.0
 11
17.876725476705928
 21
10.34934822990912
 31
0.0
  0
LINE
  5
974E
  8
0
 10
17.94117301768927
 20
10.34146923142071
 30
0.0
 11
17.89503061367666
 21
10.387611635433309
 31
0.0
  0
LINE
  5
974F
  8
0
 10
18.103989985701741
 20
10.46471437911744
 30
0.0
 11
18.177087893490381
 21
10.53781228690608
 31
0.0
  0
LINE
  5
9750
  8
0
 10
17.95504415946931
 20
10.38416663213561
 30
0.0
 11
17.905563758045759
 21
10.433647033559151
 31
0.0
  0
LINE
  5
9751
  8
0
 10
17.972035165750771
 20
10.423744168349071
 30
0.0
 11
17.911000263012959
 21
10.48477907108688
 31
0.0
  0
LINE
  5
9752
  8
0
 10
18.053781053275291
 20
10.471073989185911
 30
0.0
 11
18.169699137769811
 21
10.586992073680429
 31
0.0
  0
LINE
  5
9753
  8
0
 10
17.97856270273871
 20
10.47378517385604
 30
0.0
 11
17.907984208406599
 21
10.54436366818816
 31
0.0
  0
LINE
  5
9754
  8
0
 10
18.04252817514244
 20
10.46638824394725
 30
0.0
 11
18.005560025160658
 21
10.503356393929019
 31
0.0
  0
LINE
  5
9755
  8
0
 10
17.858389430209709
 20
10.424252818900269
 30
0.0
 11
17.815250874118419
 21
10.467391374991561
 31
0.0
  0
LINE
  5
9756
  8
0
 10
17.90603179609224
 20
10.43646181699272
 30
0.0
 11
17.98429107919954
 21
10.51472110010002
 31
0.0
  0
LINE
  5
9757
  8
0
 10
17.864326162755908
 20
10.474884628849001
 30
0.0
 11
17.812128995863041
 21
10.527081795741861
 31
0.0
  0
LINE
  5
9758
  8
0
 10
17.910703588124932
 20
10.497702151520331
 30
0.0
 11
17.95791268388443
 21
10.544911247279829
 31
0.0
  0
LINE
  5
9759
  8
0
 10
17.864865349044539
 20
10.530913985055291
 30
0.0
 11
17.811187167999261
 21
10.58459216610057
 31
0.0
  0
LINE
  5
975A
  8
0
 10
17.907530062947568
 20
10.55109716883789
 30
0.0
 11
17.943970798628019
 21
10.58753790451834
 31
0.0
  0
LINE
  5
975B
  8
0
 10
17.861291408359129
 20
10.591056468235619
 30
0.0
 11
17.817473493638548
 21
10.6348743829562
 31
0.0
  0
LINE
  5
975C
  8
0
 10
17.901373872492051
 20
10.6015095208773
 30
0.0
 11
17.964826580343949
 21
10.664962228729189
 31
0.0
  0
LINE
  5
975D
  8
0
 10
17.85075277761764
 20
10.37532092899742
 30
0.0
 11
17.819740090447478
 21
10.406333616167579
 31
0.0
  0
LINE
  5
975E
  8
0
 10
17.978439989960751
 20
10.16945875589168
 30
0.0
 11
18.22758700820604
 21
10.418605774136971
 31
0.0
  0
LINE
  5
975F
  8
0
 10
17.997859056371752
 20
10.13230927980776
 30
0.0
 11
18.235692200712119
 21
10.37014242414814
 31
0.0
  0
LINE
  5
9760
  8
0
 10
18.230652191000789
 20
10.308533871941879
 30
0.0
 11
18.252697475492312
 21
10.33057915643341
 31
0.0
  0
LINE
  5
9761
  8
0
 10
17.970812197650719
 20
10.08555588147957
 30
0.0
 11
17.939619647637748
 21
10.116748431492541
 31
0.0
  0
LINE
  5
9762
  8
0
 10
18.166413153031691
 20
10.187726291477849
 30
0.0
 11
18.171202798857902
 21
10.19251593730406
 31
0.0
  0
LINE
  5
9763
  8
0
 10
18.07900025503546
 20
10.043744850986689
 30
0.0
 11
18.198880073888908
 21
10.163624669840139
 31
0.0
  0
LINE
  5
9764
  8
0
 10
18.032421893855648
 20
10.13708327026449
 30
0.0
 11
17.98237765339789
 21
10.18712751072224
 31
0.0
  0
LINE
  5
9765
  8
0
 10
18.050211451625952
 20
10.1758622549891
 30
0.0
 11
18.00264941429403
 21
10.223424292321029
 31
0.0
  0
LINE
  5
9766
  8
0
 10
18.074976996691341
 20
10.207665252418639
 30
0.0
 11
18.0207771224817
 21
10.26186512662829
 31
0.0
  0
LINE
  5
9767
  8
0
 10
18.10769468994874
 20
10.231516101656171
 30
0.0
 11
18.040476764822351
 21
10.29873402678256
 31
0.0
  0
LINE
  5
9768
  8
0
 10
18.13931456571472
 20
10.25646476838511
 30
0.0
 11
18.061498362607541
 21
10.334280971492291
 31
0.0
  0
LINE
  5
9769
  8
0
 10
18.167784164199599
 20
10.284563712395149
 30
0.0
 11
18.075527168557159
 21
10.376820708037579
 31
0.0
  0
LINE
  5
976A
  8
0
 10
18.204589145756302
 20
10.30432727333338
 30
0.0
 11
18.150884504117279
 21
10.358031914972401
 31
0.0
  0
LINE
  5
976B
  8
0
 10
18.261610619741521
 20
10.190737256853231
 30
0.0
 11
18.218091262882311
 21
10.23425661371243
 31
0.0
  0
LINE
  5
976C
  8
0
 10
18.224014066842589
 20
10.11519672476232
 30
0.0
 11
18.181165370146068
 21
10.158045421458841
 31
0.0
  0
LINE
  5
976D
  8
0
 10
18.365810857592461
 20
10.16084982605893
 30
0.0
 11
18.416350933412829
 21
10.21138990187931
 31
0.0
  0
LINE
  5
976E
  8
0
 10
18.155775602853051
 20
10.070298103761999
 30
0.0
 11
18.110355314494061
 21
10.11571839212098
 31
0.0
  0
LINE
  5
976F
  8
0
 10
18.121065985314509
 20
10.048439178805619
 30
0.0
 11
18.078690871136299
 21
10.090814292983829
 31
0.0
  0
LINE
  5
9770
  8
0
 10
18.325821789732029
 20
10.17742930069342
 30
0.0
 11
18.401746004082352
 21
10.25335351504374
 31
0.0
  0
LINE
  5
9771
  8
0
 10
18.069203261246329
 20
9.9871648178839578
 30
0.0
 11
18.044937570504221
 21
10.011430508626059
 31
0.0
  0
LINE
  5
9772
  8
0
 10
18.095849813060081
 20
10.017086808565139
 30
0.0
 11
18.08005728702868
 21
10.032879334596529
 31
0.0
  0
LINE
  5
9773
  8
0
 10
18.189326151809539
 20
10.093316097300439
 30
0.0
 11
18.14335187176205
 21
10.13929037734793
 31
0.0
  0
LINE
  5
9774
  8
0
 10
18.23963588697076
 20
10.15614344712907
 30
0.0
 11
18.237591528398919
 21
10.15818780570091
 31
0.0
  0
LINE
  5
9775
  8
0
 10
18.287543419587202
 20
10.195719473043511
 30
0.0
 11
18.384285239464798
 21
10.29246129292112
 31
0.0
  0
LINE
  5
9776
  8
0
 10
18.40724104397648
 20
10.14571146994802
 30
0.0
 11
18.449919434011989
 21
10.188389859983531
 31
0.0
  0
LINE
  5
9777
  8
0
 10
18.33064007208829
 20
10.178276347001381
 30
0.0
 11
18.31566183476891
 21
10.19325458432076
 31
0.0
  0
LINE
  5
9778
  8
0
 10
18.42232391686856
 20
10.14316104471604
 30
0.0
 11
18.054446917482071
 21
10.51103804410252
 31
0.0
  0
LINE
  5
9779
  8
0
 10
18.502572763729528
 20
10.12790610471122
 30
0.0
 11
18.542972858108641
 21
10.168306199090329
 31
0.0
  0
LINE
  5
977A
  8
0
 10
18.455535984149009
 20
10.13743786762562
 30
0.0
 11
18.502989896127641
 21
10.184891779604261
 31
0.0
  0
LINE
  5
977B
  8
0
 10
18.536805746059311
 20
10.10557054454608
 30
0.0
 11
18.579178096071139
 21
10.147942894557911
 31
0.0
  0
LINE
  5
977C
  8
0
 10
18.490855297242732
 20
10.1311982068368
 30
0.0
 11
18.30690003040468
 21
10.315153473674849
 31
0.0
  0
LINE
  5
977D
  8
0
 10
18.564988839572891
 20
10.07718509556473
 30
0.0
 11
18.611951573690511
 21
10.124147829682361
 31
0.0
  0
LINE
  5
977E
  8
0
 10
18.07400339928617
 20
9.8690423677526322
 30
0.0
 11
18.164136893826839
 21
9.9591758622933142
 31
0.0
  0
LINE
  5
977F
  8
0
 10
18.03535885080521
 20
9.8513036008403141
 30
0.0
 11
17.90975112869301
 21
9.9769113229525104
 31
0.0
  0
LINE
  5
9780
  8
0
 10
18.122841008805061
 20
9.8613114347766064
 30
0.0
 11
18.25474056787877
 21
9.9932109938503118
 31
0.0
  0
LINE
  5
9781
  8
0
 10
18.118313606558779
 20
9.8002154900353862
 30
0.0
 11
18.137912910013231
 21
9.8198147934898472
 31
0.0
  0
LINE
  5
9782
  8
0
 10
18.12594874029703
 20
9.7512820812787062
 30
0.0
 11
18.244347005860899
 21
9.8696803468425927
 31
0.0
  0
LINE
  5
9783
  8
0
 10
18.03718183766194
 20
9.7929120714886562
 30
0.0
 11
17.811539852447751
 21
10.01855405670285
 31
0.0
  0
LINE
  5
9784
  8
0
 10
18.143430031897459
 20
9.7121948303842363
 30
0.0
 11
18.258766135669401
 21
9.8275309341561758
 31
0.0
  0
LINE
  5
9785
  8
0
 10
17.946195643281229
 20
10.61928931830337
 30
0.0
 11
17.774386491992122
 21
10.79109846959248
 31
0.0
  0
LINE
  5
9786
  8
0
 10
17.99962269103602
 20
10.586621254431421
 30
0.0
 11
18.005216916955739
 21
10.59221548035114
 31
0.0
  0
LINE
  5
9787
  8
0
 10
18.03038353138782
 20
10.560813552288289
 30
0.0
 11
18.040027302034709
 21
10.570457322935191
 31
0.0
  0
LINE
  5
9788
  8
0
 10
18.054819405494019
 20
10.52868088389957
 30
0.0
 11
18.09509872896119
 21
10.568960207366731
 31
0.0
  0
LINE
  5
9789
  8
0
 10
18.207586139655142
 20
10.568310533070839
 30
0.0
 11
18.21949072843217
 21
10.58021512184788
 31
0.0
  0
LINE
  5
978A
  8
0
 10
18.23023837597281
 20
10.391815128106719
 30
0.0
 11
18.053367923196241
 21
10.56868558088328
 31
0.0
  0
LINE
  5
978B
  8
0
 10
18.389922217536601
 20
10.005857116563231
 30
0.0
 11
18.349264530163541
 21
10.04651480393629
 31
0.0
  0
LINE
  5
978C
  8
0
 10
18.444029910348188
 20
9.9562261663400342
 30
0.0
 11
18.518940229540981
 21
10.031136485532819
 31
0.0
  0
LINE
  5
978D
  8
0
 10
18.418447623761342
 20
9.9872124222481133
 30
0.0
 11
18.482727283617951
 21
10.051492082104719
 31
0.0
  0
LINE
  5
978E
  8
0
 10
18.313275194122429
 20
9.8820399926092097
 30
0.0
 11
18.368305252329471
 21
9.9370700508162422
 31
0.0
  0
LINE
  5
978F
  8
0
 10
18.240096487783049
 20
9.9294086763370881
 30
0.0
 11
18.194411188492499
 21
9.9750939756276278
 31
0.0
  0
LINE
  5
9790
  8
0
 10
18.283154601036021
 20
9.9084879420177181
 30
0.0
 11
18.33057340415828
 21
9.9559067451399805
 31
0.0
  0
LINE
  5
9791
  8
0
 10
18.248352216779772
 20
9.9302541002563878
 30
0.0
 11
18.384752677046482
 21
10.066654560523091
 31
0.0
  0
LINE
  5
9792
  8
0
 10
18.347587136481241
 20
9.8597833924730889
 30
0.0
 11
18.392829025174819
 21
9.9050252811666724
 31
0.0
  0
LINE
  5
9793
  8
0
 10
18.246507562676701
 20
9.8664290589485049
 30
0.0
 11
18.223803042709001
 21
9.889133578916196
 31
0.0
  0
LINE
  5
9794
  8
0
 10
17.200920366542899
 20
9.9576245574230722
 30
0.0
 11
17.285039031178769
 21
10.04174322205894
 31
0.0
  0
LINE
  5
9795
  8
0
 10
17.186459072409239
 20
9.9648123268022655
 30
0.0
 11
17.11644351775082
 21
10.034827881460689
 31
0.0
  0
LINE
  5
9796
  8
0
 10
17.37136655561347
 20
10.34559026854726
 30
0.0
 11
17.3576436980665
 21
10.359313126094239
 31
0.0
  0
LINE
  5
9797
  8
0
 10
17.309099312175341
 20
10.351288969490479
 30
0.0
 11
17.299312847501369
 21
10.36107543416446
 31
0.0
  0
LINE
  5
9798
  8
0
 10
17.31273273411621
 20
10.352279637471
 30
0.0
 11
17.322331644750189
 21
10.36187854810497
 31
0.0
  0
LINE
  5
9799
  8
0
 10
17.64704234426701
 20
10.34717799265227
 30
0.0
 11
17.69595672097163
 21
10.396092369356881
 31
0.0
  0
LINE
  5
979A
  8
0
 10
17.834299722116459
 20
10.674616696973221
 30
0.0
 11
17.824290532703461
 21
10.68462588638622
 31
0.0
  0
LINE
  5
979B
  8
0
 10
17.84916923979873
 20
10.66244197317382
 30
0.0
 11
17.92807390592899
 21
10.741346639304091
 31
0.0
  0
LINE
  5
979C
  8
0
 10
17.952913356540218
 20
10.556003062549451
 30
0.0
 11
17.89935962720995
 21
10.60955679187972
 31
0.0
  0
LINE
  5
979D
  8
0
 10
17.876147562265121
 20
10.63276885682455
 30
0.0
 11
17.850874999455129
 21
10.65804141963455
 31
0.0
  0
LINE
  5
979E
  8
0
 10
17.875895200680961
 20
10.632599391561129
 30
0.0
 11
17.949405524058019
 21
10.70610971493819
 31
0.0
  0
LINE
  5
979F
  8
0
 10
17.88250356505754
 20
10.356365043463081
 30
0.0
 11
17.977579436863909
 21
10.45144091526946
 31
0.0
  0
LINE
  5
97A0
  8
0
 10
17.995333475880081
 20
10.46919495428563
 30
0.0
 11
18.024390029953011
 21
10.49825150835856
 31
0.0
  0
LINE
  5
97A1
  8
0
 10
18.13816830019822
 20
10.37074811889147
 30
0.0
 11
18.0807857731944
 21
10.42813064589528
 31
0.0
  0
LINE
  5
97A2
  8
0
 10
18.429303459235459
 20
10.224342427701931
 30
0.0
 11
18.43571767003203
 21
10.2307566384985
 31
0.0
  0
LINE
  5
97A3
  8
0
 10
18.217551290292409
 20
10.178228043807421
 30
0.0
 11
18.188273749698169
 21
10.207505584401661
 31
0.0
  0
LINE
  5
97A4
  8
0
 10
18.211985563769161
 20
10.17673015972041
 30
0.0
 11
18.347888381269669
 21
10.312632977220909
 31
0.0
  0
LINE
  5
97A5
  8
0
 10
18.18641628686753
 20
9.8683181703441516
 30
0.0
 11
18.213184497766129
 21
9.8950863812427396
 31
0.0
  0
LINE
  5
97A6
  8
0
 10
18.174857017754778
 20
9.8815110613755142
 30
0.0
 11
18.126271475938349
 21
9.9300966031919433
 31
0.0
  0
LINE
  5
97A7
  8
0
 10
18.133018346279169
 20
9.8667811903561944
 30
0.0
 11
18.095498383652298
 21
9.9043011529830682
 31
0.0
  0
LINE
  5
97A8
  8
0
 10
18.148311827919699
 20
9.8302137113963202
 30
0.0
 11
18.17247339633391
 21
9.8543752798105242
 31
0.0
  0
LINE
  5
97A9
  8
0
 10
18.379302951028279
 20
9.9480677495150562
 30
0.0
 11
18.396394558643639
 21
9.965159357130414
 31
0.0
  0
LINE
  5
97AA
  8
0
 10
18.40473846276447
 20
9.9169347187563162
 30
0.0
 11
18.42252868779369
 21
9.9347249437855414
 31
0.0
  0
LINE
  5
97AB
  8
0
 10
18.314528115493982
 20
9.9681141336159964
 30
0.0
 11
18.285174487386641
 21
9.9974677617233461
 31
0.0
  0
LINE
  5
97AC
  8
0
 10
18.33521485768285
 20
9.9605481986645437
 30
0.0
 11
18.44068968352542
 21
10.066023024507111
 31
0.0
  0
LINE
  5
97AD
  8
0
 10
18.06904359958283
 20
9.9307559370525347
 30
0.0
 11
17.854126955236762
 21
10.1456725813986
 31
0.0
  0
LINE
  5
97AE
  8
0
 10
18.05779915692132
 20
9.8854318372191301
 30
0.0
 11
17.815086615395959
 21
10.12814437874448
 31
0.0
  0
LINE
  5
97AF
  8
0
 10
18.178717084294821
 20
10.08689313775113
 30
0.0
 11
18.242706126552971
 21
10.150882180009271
 31
0.0
  0
LINE
  5
97B0
  8
0
 10
18.310535498663022
 20
10.198380920426651
 30
0.0
 11
18.252697358280219
 21
10.25621906080945
 31
0.0
  0
LINE
  5
97B1
  8
0
 10
17.884720583168331
 20
10.17164749596196
 30
0.0
 11
17.83763152994521
 21
10.218736549185079
 31
0.0
  0
LINE
  5
97B2
  8
0
 10
17.86051872469714
 20
10.164674575617919
 30
0.0
 11
17.904096415900231
 21
10.20825226682101
 31
0.0
  0
LINE
  5
97B3
  8
0
 10
17.9082493519449
 20
9.872993947896143
 30
0.0
 11
18.046834514390628
 21
10.011579110341881
 31
0.0
  0
LINE
  5
97B4
  8
0
 10
17.901160299967319
 20
9.872365066688344
 30
0.0
 11
17.780851263669351
 21
9.9926741029863262
 31
0.0
  0
LINE
  5
97B5
  8
0
 10
18.157628028100579
 20
9.6698242840924333
 30
0.0
 11
18.183557799106861
 21
9.6957540550987122
 31
0.0
  0
LINE
  5
97B6
  8
0
 10
18.456753953332289
 20
9.9390253807675482
 30
0.0
 11
18.444378096757148
 21
9.9514012373426901
 31
0.0
  0
LINE
  5
97B7
  8
0
 10
18.47030427876339
 20
9.9259319922603186
 30
0.0
 11
18.637732309171739
 21
10.093360022668669
 31
0.0
  0
LINE
  5
97B8
  8
0
 10
17.593542230723578
 20
10.463383506593599
 30
0.0
 11
17.65509992874366
 21
10.52494120461367
 31
0.0
  0
LINE
  5
97B9
  8
0
 10
17.61491718678807
 20
10.42818992016317
 30
0.0
 11
17.673670635095039
 21
10.48694336847014
 31
0.0
  0
LINE
  5
97BA
  8
0
 10
17.591959612190269
 20
10.46440846694002
 30
0.0
 11
17.518380071275061
 21
10.53798800785523
 31
0.0
  0
LINE
  5
97BB
  8
0
 10
18.074271984664541
 20
9.8689590094758941
 30
0.0
 11
18.073684005157311
 21
9.8695469889831422
 31
0.0
  0
LINE
  5
97BC
  8
0
 10
17.605736733898919
 20
9.7718088352922905
 30
0.0
 11
17.567323193282039
 21
9.8102223759091736
 31
0.0
  0
LINE
  5
97BD
  8
0
 10
17.593940073340551
 20
9.7283902967765616
 30
0.0
 11
17.619705074574959
 21
9.7541552980109678
 31
0.0
  0
LINE
  5
97BE
  8
0
 10
17.3951154069401
 20
9.7561559922714114
 30
0.0
 11
17.211452088359341
 21
9.9398193108521742
 31
0.0
  0
LINE
  5
97BF
  8
0
 10
17.11615167003049
 20
10.042561488395419
 30
0.0
 11
17.133138347215841
 21
10.059548165580781
 31
0.0
  0
LINE
  5
97C0
  8
0
 10
18.244696331928601
 20
9.7568925879204542
 30
0.0
 11
18.296510216589311
 21
9.8087064725811608
 31
0.0
  0
LINE
  5
97C1
  8
0
 10
18.201128879745291
 20
9.9118077418799206
 30
0.0
 11
18.158059846347431
 21
9.9548767752777945
 31
0.0
  0
LINE
  5
97C2
  8
0
 10
18.263008629948491
 20
10.28432176839465
 30
0.0
 11
18.28751602698777
 21
10.308829165433931
 31
0.0
  0
LINE
  5
97C3
  8
0
 10
18.197585379578431
 20
10.21889851802457
 30
0.0
 11
18.207785955256181
 21
10.22909909370235
 31
0.0
  0
TEXT
  5
97C4
  8
0
 10
17.909061284623512
 20
9.9726966632006686
 30
0.0
 40
0.000002
  1
S
 72
     1
 11
17.90906195129018
 21
9.9726976632006679
 31
0.0
 73
     2
  0
LINE
  5
97C5
  8
0
 10
17.90950253621952
 20
9.9873842171606082
 30
0.0
 11
17.97024098356108
 21
10.048122664502159
 31
0.0
  0
LINE
  5
97C6
  8
0
 10
17.909061957379251
 20
9.9726977049748662
 30
0.0
 11
17.909061957379251
 21
9.9726966629480742
 31
0.0
  0
LINE
  5
9852
  8
0
 10
10.17666531894452
 20
9.6321581720716125
 30
0.0
 11
10.13765551642155
 21
9.5720883439215498
 31
0.0
  0
ARC
  5
9853
  8
0
 10
10.21628755076326
 20
9.6064271938698962
 30
0.0
 40
0.0472440948004641
 50
127.4960348321145
 51
147.0000000008196
  0
ARC
  5
9854
  8
0
 10
10.19352096804654
 20
9.6361014340059459
 30
0.0
 40
0.0098425197500841
 50
65.774816523148942
 51
127.49603483126739
  0
ARC
  5
9855
  8
0
 10
10.225829936966189
 20
9.70790772209563
 30
0.0
 40
0.0688976382499465
 50
245.77481652317371
 51
48.225183476782561
  0
ARC
  5
9856
  8
0
 10
10.27828700372115
 20
9.7666296824624297
 30
0.0
 40
0.0098425197499862
 50
166.50396516794899
 51
228.22518347606851
  0
ARC
  5
9857
  8
0
 10
10.31465577443476
 20
9.7579009750553922
 30
0.0
 40
0.0472440947999316
 50
147.0000000002693
 51
166.50396516897459
  0
LINE
  5
9858
  8
0
 10
10.315970768604529
 20
9.8466697532715983
 30
0.0
 11
10.275033542616709
 21
9.7836319532571991
 31
0.0
  0
ARC
  5
9859
  8
0
 10
7.4088203184862884
 20
6.9191031433631958
 30
0.0
 40
0.5000000032998765
 50
142.0000000000154
 51
180.00000000002049
  0
LINE
  5
985A
  8
0
 10
8.1353880308870501
 20
8.6612020351734458
 30
0.0
 11
7.0148149390825054
 21
7.2269338830575256
 31
0.0
  0
ARC
  5
985B
  8
0
 10
10.723956837501881
 20
6.6387904333415513
 30
0.0
 40
3.2849409665629561
 50
115.1824447681939
 51
141.99999999999881
  0
ARC
  5
985C
  8
0
 10
9.1586872816396614
 20
9.9678047605289812
 30
0.0
 40
0.3937007899999576
 50
295.1824447682111
 51
322.00000000002029
  0
LINE
  5
985D
  8
0
 10
9.9832258034084642
 20
10.38368985676866
 30
0.0
 11
9.4689277378631758
 21
9.7254183513208403
 31
0.0
  0
ARC
  5
985E
  8
0
 10
10.29346625963219
 20
10.141303447560061
 30
0.0
 40
0.3937007900004138
 50
118.34193276318661
 51
141.99999999998681
  0
LINE
  5
985F
  8
0
 10
11.105611938389529
 20
10.531430770285491
 30
0.0
 11
10.106563710213781
 21
10.48781138263204
 31
0.0
  0
LINE
  5
9860
  8
0
 10
11.105611938389529
 20
10.341297054947161
 30
0.0
 11
11.105611938389529
 21
10.531430770285491
 31
0.0
  0
ARC
  5
9861
  8
0
 10
11.07411587518934
 20
10.34129705494702
 30
0.0
 40
0.0314960632001904
 50
269.86152100891258
 51
0.0000000002520526
  0
ARC
  5
9862
  8
0
 10
11.07346882788079
 20
10.07358129967643
 30
0.0
 40
0.2362204739997374
 50
89.861521008701757
 51
161.39226213589441
  0
ARC
  5
9863
  8
0
 10
10.53244452430396
 20
10.255737438792259
 30
0.0
 40
0.3346456715005738
 50
299.10191791088698
 51
341.39226213590558
  0
ARC
  5
9864
  8
0
 10
10.264369530349329
 20
10.737335205841459
 30
0.0
 40
0.8858267774998218
 50
274.12219528642521
 51
299.10191791088329
  0
ARC
  5
9865
  8
0
 10
10.3291781792104
 20
9.8380927605376982
 30
0.0
 40
0.0157480315998412
 50
94.122195286353332
 51
151.6061681221687
  0
ARC
  5
9866
  8
0
 10
10.356963645513771
 20
9.8158207280252867
 30
0.0
 40
0.0511811027004864
 50
144.445434050643
 51
164.3544274384189
  0
ARC
  5
9867
  8
0
 10
10.32094785994493
 20
9.8259074027068252
 30
0.0
 40
0.0137795276498075
 50
164.35442743803009
 51
231.09772855912411
  0
ARC
  5
9868
  8
0
 10
10.22575980604122
 20
9.7079491234421909
 30
0.0
 40
0.1377952764999882
 50
242.90227144094521
 51
51.097728559132428
  0
ARC
  5
9869
  8
0
 10
10.15671602533317
 20
9.5730125546452083
 30
0.0
 40
0.013779527650186
 50
62.902271439892488
 51
129.6455725607706
  0
ARC
  5
986A
  8
0
 10
10.18057960089107
 20
9.5442131175362874
 30
0.0
 40
0.0511811026998833
 50
129.6455725619565
 51
147.00000000027629
  0
LINE
  5
986B
  8
0
 10
10.13267048619787
 20
9.5644120705363633
 30
0.0
 11
10.13765551642155
 21
9.5720883439215498
 31
0.0
  0
ARC
  5
986C
  8
0
 10
10.143566599947709
 20
9.5573360515310224
 30
0.0
 40
0.0129921260697961
 50
147.0000000005584
 51
180.00000000105749
  0
LINE
  5
986D
  8
0
 10
10.13057447387814
 20
9.4132887059619037
 30
0.0
 11
10.130574473877919
 21
9.5573360515307826
 31
0.0
  0
ARC
  5
986E
  8
0
 10
10.0990784106778
 20
9.4132887059619677
 30
0.0
 40
0.0314960632003425
 50
282.6924970814012
 51
359.99999999988529
  0
ARC
  5
986F
  8
0
 10
10.72395683750141
 20
6.6387904333419421
 30
0.0
 40
2.8125000185622628
 50
102.69249708140551
 51
180.346904853853
  0
ARC
  5
9870
  8
0
 10
7.880012883990875
 20
6.6215711891735607
 30
0.0
 40
0.0314960631999624
 50
269.9999999997479
 51
0.346904854055085
  0
LINE
  5
9871
  8
0
 10
7.4009463026864131
 20
6.5900751259735983
 30
0.0
 11
7.8800128839907373
 21
6.5900751259735983
 31
0.0
  0
ARC
  5
9872
  8
0
 10
7.4009463026864131
 20
6.57039008647358
 30
0.0
 40
0.0196850395000183
 50
90.0
 51
180.0
  0
LINE
  5
9873
  8
0
 10
7.3812612631863947
 20
5.960525861667846
 30
0.0
 11
7.3812612631863947
 21
6.57039008647358
 31
0.0
  0
ARC
  5
9874
  8
0
 10
7.3497651999864573
 20
5.960525861667846
 30
0.0
 40
0.0314960631999384
 50
270.0
 51
0.0
  0
LINE
  5
9875
  8
0
 10
7.2968779657039766
 20
5.9290297984676812
 30
0.0
 11
7.3497651999864573
 21
5.9290297984679077
 31
0.0
  0
ARC
  5
9876
  8
0
 10
7.2968779657040344
 20
5.9093447589678334
 30
0.0
 40
0.0196850394998478
 50
90.000000000165485
 51
180.0000000004963
  0
LINE
  5
9877
  8
0
 10
7.2771929262041857
 20
5.8273244645709923
 30
0.0
 11
7.2771929262041857
 21
5.909344758967662
 31
0.0
  0
ARC
  5
9878
  8
0
 10
7.2456968630042482
 20
5.8273244645709923
 30
0.0
 40
0.0314960631999384
 50
270.0
 51
0.0
  0
LINE
  5
9879
  8
0
 10
7.2174960454481223
 20
5.795828401371053
 30
0.0
 11
7.2456968630042482
 21
5.795828401371053
 31
0.0
  0
ARC
  5
987A
  8
0
 10
7.2141527068291413
 20
5.5688837677470211
 30
0.0
 40
0.2269692592486209
 50
89.15598208677639
 51
106.4531228089204
  0
ARC
  5
987B
  8
0
 10
7.1576768582381121
 20
5.7723507008866051
 30
0.0
 40
0.0162127967476637
 50
118.79297287489899
 51
191.03132100336131
  0
ARC
  5
987C
  8
0
 10
7.2114736901955547
 20
5.803230485042695
 30
0.0
 40
0.0775517309397919
 50
205.98815551143559
 51
234.91700030531101
  0
ARC
  5
987D
  8
0
 10
6.6008779764206027
 20
5.0941915616254221
 30
0.0
 40
0.8585744829587817
 50
34.155260815379258
 51
48.756710221267561
  0
ARC
  5
987E
  8
0
 10
7.0786659044038158
 20
5.4720902984600146
 30
0.0
 40
0.2549379075220019
 50
359.43473908501562
 51
24.10939592142428
  0
ARC
  5
987F
  8
0
 10
6.677545447947753
 20
5.3864365618562342
 30
0.0
 40
0.6612929249300216
 50
336.99314495901359
 51
7.2224152873564744
  0
ARC
  5
9880
  8
0
 10
6.718061615197918
 20
5.3934225568250014
 30
0.0
 40
0.6271252955838538
 50
294.08718575181223
 51
334.95846523539592
  0
ARC
  5
9881
  8
0
 10
7.0922534952132654
 20
4.6418274596475166
 30
0.0
 40
0.2145935276382215
 50
123.4370915128748
 51
146.68956998755169
  0
ARC
  5
9882
  8
0
 10
6.575782159972257
 20
5.0712277783647179
 30
0.0
 40
0.4590460440642815
 50
263.37123049200471
 51
317.25847591189739
  0
ARC
  5
9883
  8
0
 10
6.548380558189062
 20
4.7229041139093058
 30
0.0
 40
0.1106530147135661
 50
247.4251866071946
 51
256.62916682090452
  0
ARC
  5
9884
  8
0
 10
6.500425877680061
 20
4.6120092132184558
 30
0.0
 40
0.0102971152802981
 50
57.871863999126589
 51
122.1755476982932
  0
LINE
  5
9885
  8
0
 10
6.4904491317620412
 20
4.6178979498953217
 30
0.0
 11
6.4949425083582417
 21
4.6207249027480506
 31
0.0
  0
ARC
  5
9886
  8
0
 10
6.4292322758163714
 20
4.7152007356587786
 30
0.0
 40
0.1149579730562529
 50
252.18599644941969
 51
302.17554769914341
  0
ARC
  5
9887
  8
0
 10
6.3890735923191047
 20
4.5666190910915514
 30
0.0
 40
0.0394521942386502
 50
82.733904593193884
 51
124.67370161289701
  0
ARC
  5
9888
  8
0
 10
6.3113343562572348
 20
4.6731142963643393
 30
0.0
 40
0.092416694064587
 50
270.87426208203948
 51
306.74970455096968
  0
ARC
  5
9889
  8
0
 10
6.4071474530713308
 20
5.2817224462003551
 30
0.0
 40
0.7073419768098913
 50
256.1658485508118
 51
262.33032924003379
  0
LINE
  5
988A
  8
0
 10
6.216715484475805
 20
4.6001438066467548
 30
0.0
 11
6.2380133109798024
 21
4.5948990961777412
 31
0.0
  0
ARC
  5
988B
  8
0
 10
6.2150866271212504
 20
4.5935293097081882
 30
0.0
 40
0.0068121029081927
 50
76.165848552086061
 51
151.25879045315691
  0
ARC
  5
988C
  8
0
 10
6.3937123388882418
 20
4.489733789158592
 30
0.0
 40
0.2134030506643926
 50
149.8853424537653
 51
160.2368776447951
  0
ARC
  5
988D
  8
0
 10
6.2929741946907098
 20
4.5239237078006438
 30
0.0
 40
0.1070544369741826
 50
159.22704188066021
 51
165.70426580054411
  0
ARC
  5
988E
  8
0
 10
6.1063021748796098
 20
4.5656406556629916
 30
0.0
 40
0.0843289318783626
 50
337.44061250604869
 51
349.55900329141468
  0
ARC
  5
988F
  8
0
 10
6.228441336314515
 20
4.5147947070710863
 30
0.0
 40
0.047971113652059
 50
157.3238403082253
 51
173.14798591257889
  0
ARC
  5
9890
  8
0
 10
6.1965896322622154
 20
4.5189263287718111
 30
0.0
 40
0.0158568590725233
 50
174.23939258464659
 51
224.8633965407634
  0
LINE
  5
9891
  8
0
 10
6.2130509722762852
 20
4.4800400673360476
 30
0.0
 11
6.1853504389746439
 21
4.5077406006376881
 31
0.0
  0
ARC
  5
9892
  8
0
 10
6.1907798924069084
 20
4.45776898746659
 30
0.0
 40
0.0314960632000249
 50
345.00000000007049
 51
45.000000000105651
  0
LINE
  5
9893
  8
0
 10
6.1867881021946749
 20
4.3211799800968569
 30
0.0
 11
6.2212027532782548
 21
4.4496172064647084
 31
0.0
  0
ARC
  5
9894
  8
0
 10
6.2058023902391284
 20
4.3160851169707479
 30
0.0
 40
0.0196850394998639
 50
165.00000000015291
 51
234.26129400368279
  0
ARC
  5
9895
  8
0
 10
6.1030405489225759
 20
4.1732805566234967
 30
0.0
 40
0.1562500010314063
 50
357.97114391482631
 51
54.26129400336302
  0
LINE
  5
9896
  8
0
 10
6.3813790035033051
 20
4.061533846451411
 30
0.0
 11
6.2591926005332041
 21
4.1677488660946969
 31
0.0
  0
ARC
  5
9897
  8
0
 10
6.2583679347560546
 20
3.9200257992245531
 30
0.0
 40
0.1875000012381295
 50
347.4365195422086
 51
49.000000000306592
  0
ARC
  5
9898
  8
0
 10
6.3193714104840524
 20
3.906430726560238
 30
0.0
 40
0.1250000008249747
 50
270.00000000002899
 51
347.43651954197583
  0
LINE
  5
9899
  8
0
 10
5.8319339246625139
 20
3.7814307257351478
 30
0.0
 11
6.3193714104841163
 21
3.781430725735262
 31
0.0
  0
LINE
  5
989A
  8
0
 10
5.8755533123164758
 20
4.7804789539117527
 30
0.0
 11
5.8319339246625139
 21
3.7814307257351478
 31
0.0
  0
ARC
  5
989B
  8
0
 10
6.2220612473913617
 20
4.5935764044910199
 30
0.0
 40
0.3937007900040731
 50
142.0000000001036
 51
151.65806723671699
  0
LINE
  5
989C
  8
0
 10
5.9790405937894837
 20
4.9220002375887901
 30
0.0
 11
5.911820791164252
 21
4.8359628137012427
 31
0.0
  0
ARC
  5
989D
  8
0
 10
6.3730459731932987
 20
4.6141694978943049
 30
0.0
 40
0.5000000032999976
 50
107.7323208546224
 51
142.00000000000381
  0
ARC
  5
989E
  8
0
 10
5.9712032558513188
 20
5.8708611567026932
 30
0.0
 40
0.8193754151459282
 50
287.73232085464321
 51
309.91338091193887
  0
ARC
  5
989F
  8
0
 10
6.1761237112591596
 20
5.6258953210290663
 30
0.0
 40
0.5000000032998768
 50
309.91338091190943
 51
8.648983732924437
  0
ARC
  5
98A0
  8
0
 10
7.1375062370150424
 20
5.7721315782843066
 30
0.0
 40
0.4724409479998834
 50
147.00000000000449
 51
188.6489837329338
  0
LINE
  5
98A1
  8
0
 10
6.8281555986266147
 20
6.1632120163632029
 30
0.0
 11
6.7412839188352862
 21
6.0294413603045172
 31
0.0
  0
ARC
  5
98A2
  8
0
 10
6.4088203118865197
 20
6.4355315356681793
 30
0.0
 40
0.50000000329989
 50
326.99999999997101
 51
359.9999999999801
  0
LINE
  5
98A3
  8
0
 10
6.9088203151864098
 20
6.9191031433630172
 30
0.0
 11
6.9088203151864098
 21
6.4355315356680052
 31
0.0
  0
LINE
  5
98F8
  8
0
 10
10.855611938389529
 20
10.531430770285491
 30
0.0
 11
4.9799658785667598
 21
10.531430770285491
 31
0.0
  0
LINE
  5
98F9
  8
0
 10
5.5819339246625139
 20
3.7814307257351478
 30
0.0
 11
4.979965878566758
 21
3.7814307257351492
 31
0.0
  0
LINE
  5
98FA
  8
0
 10
5.0424658785667598
 20
10.281430770285491
 30
0.0
 11
5.042465878566758
 21
4.0314307257351487
 31
0.0
  0
SOLID
  5
98FB
  8
0
 10
5.0007992119000928
 20
10.281430770285491
 30
0.0
 11
5.0841325452334267
 21
10.281430770285491
 31
0.0
 12
5.0424658785667598
 22
10.531430770285491
 32
0.0
 13
5.0424658785667598
 23
10.531430770285491
 33
0.0
  0
SOLID
  5
98FC
  8
0
 10
5.000799211900091
 20
4.0314307257351487
 30
0.0
 11
5.0841325452334249
 21
4.0314307257351487
 31
0.0
 12
5.042465878566758
 22
3.7814307257351478
 32
0.0
 13
5.042465878566758
 23
3.7814307257351478
 33
0.0
  0
LINE
  5
98FE
  8
0
 10
11.302614626791209
 20
10.37751540145408
 30
0.0
 11
12.04209016678881
 21
9.7997737909006446
 31
0.0
  0
LINE
  5
98FF
  8
0
 10
6.028936613064193
 20
3.6275153569037299
 30
0.0
 11
6.7684121530617967
 21
3.0497737463502941
 31
0.0
  0
LINE
  5
9900
  8
0
 10
11.83892412585698
 20
9.6412499447068178
 30
0.0
 11
6.8730768497927954
 21
3.2852552769598269
 31
0.0
  0
SOLID
  5
9901
  8
0
 10
11.806090344456701
 20
9.6669025061787206
 30
0.0
 11
11.87175790725726
 21
9.6155973832349151
 31
0.0
 12
11.9928394946884
 22
9.8382526331084978
 32
0.0
 13
11.9928394946884
 23
9.8382526331084978
 33
0.0
  0
SOLID
  5
9902
  8
0
 10
6.8402430683925148
 20
3.3109078384317301
 30
0.0
 11
6.9059106311930751
 21
3.259602715487925
 31
0.0
 12
6.7191614809613771
 22
3.0882525885581482
 32
0.0
 13
6.7191614809613771
 23
3.0882525885581482
 33
0.0
  0
LINE
  5
9904
  8
0
 10
11.105611938389529
 20
10.781430770285491
 30
0.0
 11
11.105611938389529
 21
11.31807755124111
 31
0.0
  0
LINE
  5
9905
  8
0
 10
5.8319339246625139
 20
4.0314307257351478
 30
0.0
 11
5.8319339246625148
 21
11.31807755124111
 31
0.0
  0
LINE
  5
9906
  8
0
 10
10.855611938389529
 20
11.25557755124111
 30
0.0
 11
6.0819339246625148
 21
11.25557755124111
 31
0.0
  0
SOLID
  5
9907
  8
0
 10
10.855611938389529
 20
11.29724421790778
 30
0.0
 11
10.855611938389529
 21
11.21391088457445
 31
0.0
 12
11.105611938389529
 22
11.25557755124111
 32
0.0
 13
11.105611938389529
 23
11.25557755124111
 33
0.0
  0
SOLID
  5
9908
  8
0
 10
6.0819339246625148
 20
11.29724421790778
 30
0.0
 11
6.0819339246625148
 21
11.21391088457445
 31
0.0
 12
5.8319339246625148
 22
11.25557755124111
 32
0.0
 13
5.8319339246625148
 23
11.25557755124111
 33
0.0
  0
TEXT
  5
990A
  8
0
 10
4.8103230214239003
 20
6.5076212242007996
 30
0.0
 40
0.25
  1
6 3/4"
 50
90.0
  0
TEXT
  5
990B
  8
0
 10
8.7736223913894165
 20
6.0949051429438557
 30
0.0
 40
0.25
  1
8 5/8"
 50
51.999999999999297
  0
TEXT
  5
990C
  8
0
 10
7.8437729315260247
 20
11.48772040838397
 30
0.0
 40
0.25
  1
5 1/4"
  0
ENDSEC
  0
EOF
