  0
SECTION
  2
HEADER
  9
$ACADVER
  1
AC1009
  9
$INSBASE
 10
0.0
 20
0.0
 30
0.0
  9
$EXTMIN
 10
-0.00097959487222
 20
-0.0010688323636003
 30
-0.0015258207003583
  9
$EXTMAX
 10
20.001424733468021
 20
14.000831823484219
 30
0.0000000349246037
  9
$LIMMIN
 10
0.0
 20
0.0
  9
$LIMMAX
 10
10.0
 20
7.0
  9
$ORTHOMODE
 70
     0
  9
$REGENMODE
 70
     1
  9
$FILLMODE
 70
     1
  9
$QTEXTMODE
 70
     0
  9
$MIRRTEXT
 70
     1
  9
$DRAGMODE
 70
     2
  9
$LTSCALE
 40
1.0
  9
$OSMODE
 70
    37
  9
$ATTMODE
 70
     1
  9
$TEXTSIZE
 40
0.0021111515439181
  9
$TRACEWID
 40
0.05
  9
$TEXTSTYLE
  7
STANDARD
  9
$CLAYER
  8
0
  9
$CELTYPE
  6
BYLAYER
  9
$CECOLOR
 62
   256
  9
$DIMSCALE
 40
1.0
  9
$DIMASZ
 40
0.18
  9
$DIMEXO
 40
0.0625
  9
$DIMDLI
 40
0.38
  9
$DIMRND
 40
0.0
  9
$DIMDLE
 40
0.0
  9
$DIMEXE
 40
0.18
  9
$DIMTP
 40
0.0
  9
$DIMTM
 40
0.0
  9
$DIMTXT
 40
0.18
  9
$DIMCEN
 40
0.09
  9
$DIMTSZ
 40
0.0
  9
$DIMTOL
 70
     0
  9
$DIMLIM
 70
     0
  9
$DIMTIH
 70
     1
  9
$DIMTOH
 70
     1
  9
$DIMSE1
 70
     0
  9
$DIMSE2
 70
     0
  9
$DIMTAD
 70
     0
  9
$DIMZIN
 70
     0
  9
$DIMBLK
  1

  9
$DIMASO
 70
     1
  9
$DIMSHO
 70
     1
  9
$DIMPOST
  1

  9
$DIMAPOST
  1

  9
$DIMALT
 70
     0
  9
$DIMALTD
 70
     2
  9
$DIMALTF
 40
25.399999999999999
  9
$DIMLFAC
 40
1.0
  9
$DIMTOFL
 70
     0
  9
$DIMTVP
 40
0.0
  9
$DIMTIX
 70
     0
  9
$DIMSOXD
 70
     0
  9
$DIMSAH
 70
     0
  9
$DIMBLK1
  1

  9
$DIMBLK2
  1

  9
$DIMSTYLE
  2
STANDARD
  9
$DIMCLRD
 70
     0
  9
$DIMCLRE
 70
     0
  9
$DIMCLRT
 70
     0
  9
$DIMTFAC
 40
1.0
  9
$DIMGAP
 40
0.09
  9
$LUNITS
 70
     2
  9
$LUPREC
 70
     8
  9
$SKETCHINC
 40
0.1
  9
$FILLETRAD
 40
3.174999999999998
  9
$AUNITS
 70
     0
  9
$AUPREC
 70
     7
  9
$MENU
  1
.
  9
$ELEVATION
 40
0.0
  9
$PELEVATION
 40
0.0
  9
$THICKNESS
 40
0.0
  9
$LIMCHECK
 70
     0
  9
$BLIPMODE
 70
     0
  9
$CHAMFERA
 40
0.0
  9
$CHAMFERB
 40
0.0
  9
$SKPOLY
 70
     0
  9
$TDCREATE
 40
2451702.3929123841
  9
$TDUPDATE
 40
2452612.397584768
  9
$TDINDWG
 40
3.9871682523
  9
$TDUSRTIMER
 40
3.9871680786999999
  9
$USRTIMER
 70
     1
  9
$ANGBASE
 50
0.0
  9
$ANGDIR
 70
     0
  9
$PDMODE
 70
     0
  9
$PDSIZE
 40
0.0
  9
$PLINEWID
 40
0.0
  9
$COORDS
 70
     2
  9
$SPLFRAME
 70
     0
  9
$SPLINETYPE
 70
     6
  9
$SPLINESEGS
 70
     8
  9
$ATTDIA
 70
     0
  9
$ATTREQ
 70
     1
  9
$HANDLING
 70
 22529
  9
$HANDSEED
  5
B640
  9
$SURFTAB1
 70
     6
  9
$SURFTAB2
 70
     6
  9
$SURFTYPE
 70
     6
  9
$SURFU
 70
     6
  9
$SURFV
 70
     6
  9
$UCSNAME
  2

  9
$UCSORG
 10
0.0
 20
0.0
 30
0.0
  9
$UCSXDIR
 10
1.0
 20
0.0
 30
0.0
  9
$UCSYDIR
 10
0.0
 20
1.0
 30
0.0
  9
$PUCSNAME
  2

  9
$PUCSORG
 10
0.0
 20
0.0
 30
0.0
  9
$PUCSXDIR
 10
1.0
 20
0.0
 30
0.0
  9
$PUCSYDIR
 10
0.0
 20
1.0
 30
0.0
  9
$USERI1
 70
     0
  9
$USERI2
 70
     0
  9
$USERI3
 70
     0
  9
$USERI4
 70
     0
  9
$USERI5
 70
     0
  9
$USERR1
 40
0.0
  9
$USERR2
 40
0.0
  9
$USERR3
 40
0.0
  9
$USERR4
 40
0.0
  9
$USERR5
 40
0.0
  9
$WORLDVIEW
 70
     1
  9
$SHADEDGE
 70
     3
  9
$SHADEDIF
 70
    70
  9
$TILEMODE
 70
     1
  9
$MAXACTVP
 70
    48
  9
$PLIMCHECK
 70
     0
  9
$PEXTMIN
 10
0.0
 20
0.0
 30
0.0
  9
$PEXTMAX
 10
0.0
 20
0.0
 30
0.0
  9
$PLIMMIN
 10
0.0
 20
0.0
  9
$PLIMMAX
 10
12.0
 20
9.0
  9
$UNITMODE
 70
     0
  9
$VISRETAIN
 70
     1
  9
$PLINEGEN
 70
     0
  9
$PSLTSCALE
 70
     1
  0
ENDSEC
  0
SECTION
  2
TABLES
  0
TABLE
  2
VPORT
 70
     4
  0
VPORT
  2
*ACTIVE
 70
     0
 10
0.0
 20
0.0
 11
1.0
 21
1.0
 12
10.0002225692979
 22
6.9998814955603086
 13
0.0
 23
0.0
 14
1.0
 24
1.0
 15
0.0
 25
0.0
 16
0.0
 26
0.0
 36
1.0
 17
0.0
 27
0.0
 37
0.0
 40
14.16346104803068
 41
1.448940269749518
 42
50.0
 43
0.0
 44
0.0
 50
0.0
 51
0.0
 71
     0
 72
 20000
 73
     1
 74
     0
 75
     0
 76
     0
 77
     0
 78
     0
  0
ENDTAB
  0
TABLE
  2
LTYPE
 70
     1
  0
LTYPE
  2
CONTINUOUS
 70
     0
  3
Solid line
 72
    65
 73
     0
 40
0.0
  0
ENDTAB
  0
TABLE
  2
LAYER
 70
     2
  0
LAYER
  2
0
 70
     0
 62
     7
  6
CONTINUOUS
  0
LAYER
  2
DEFPOINTS
 70
     0
 62
     7
  6
CONTINUOUS
  0
ENDTAB
  0
TABLE
  2
STYLE
 70
     2
  0
STYLE
  2
STANDARD
 70
     0
 40
0.0
 41
1.0
 50
0.0
 71
     0
 42
0.0021111515439181
  3
simplex.shx
  4

  0
STYLE
  2
COSTAND
 70
     0
 40
0.0
 41
1.0
 50
0.0
 71
     0
 42
3.0
  3
R:\WIP\SD\FONTS\Simplex.shx
  4

  0
ENDTAB
  0
TABLE
  2
VIEW
 70
     0
  0
ENDTAB
  0
TABLE
  2
UCS
 70
     0
  0
ENDTAB
  0
TABLE
  2
APPID
 70
     1
  0
APPID
  2
ACAD
 70
     0
  0
ENDTAB
  0
TABLE
  2
DIMSTYLE
 70
     5
  0
DIMSTYLE
  2
STANDARD
 70
     0
  3

  4

  5

  6

  7

 40
1.0
 41
0.18
 42
0.0625
 43
0.38
 44
0.18
 45
0.0
 46
0.0
 47
0.0
 48
0.0
140
0.18
141
0.09
142
0.0
143
25.399999999999999
144
1.0
145
0.0
146
1.0
147
0.09
 71
     0
 72
     0
 73
     1
 74
     1
 75
     0
 76
     0
 77
     0
 78
     0
170
     0
171
     2
172
     0
173
     0
174
     0
175
     0
176
     0
177
     0
178
     0
  0
ENDTAB
  0
ENDSEC
  0
SECTION
  2
BLOCKS
  0
BLOCK
  8
0
  2
$MODEL_SPACE
 70
     0
 10
0.0
 20
0.0
 30
0.0
  3
$MODEL_SPACE
  1

  0
ENDBLK
  5
8FFC
  8
0
  0
BLOCK
 67
     1
  8
0
  2
$PAPER_SPACE
 70
     0
 10
0.0
 20
0.0
 30
0.0
  3
$PAPER_SPACE
  1

  0
ENDBLK
  5
8FF8
 67
     1
  8
0
  0
ENDSEC
  0
SECTION
  2
ENTITIES
  0
TEXT
  5
9017
  8
0
 10
1172.507321116894
 20
-374.4400440153197
 30
599.8012402584792
 40
3.0
  1
 
  7
COSTAND
210
0.577350269189626
220
-0.577350269189626
230
0.577350269189626
  0
TEXT
  5
9018
  8
0
 10
772.73448984001482
 20
-161.4431119421578
 30
-439.3012875610508
 40
3.0
  1
 
  7
COSTAND
210
-0.0000000000000004
220
-1.0
230
0.0000000000000002
  0
TEXT
  5
9019
  8
0
 10
494.82450660688812
 20
-52.690634976270552
 30
719.03518200794144
 40
3.0
  1
 
  7
COSTAND
210
1.0
220
-0.0000000000000007
230
0.0
  0
TEXT
  5
901F
  8
0
 10
20.733378968077311
 20
582.74109584933205
 30
0.0
 40
0.125
  1

  0
TEXT
  5
9020
  8
0
 10
20.733378968077311
 20
582.5268101350465
 30
0.0
 40
0.125
  1

  0
TEXT
  5
9021
  8
0
 10
20.733378968077311
 20
582.31252442076072
 30
0.0
 40
0.125
  1

  0
TEXT
  5
9022
  8
0
 10
20.733378968077311
 20
582.09823870647506
 30
0.0
 40
0.125
  1

  0
TEXT
  5
902C
  8
0
 10
21.664405340269479
 20
582.88423560730655
 30
0.0
 40
0.0625
  1

 72
     1
 11
21.664405340269479
 21
582.91548560730655
 31
0.0
 73
     2
  0
TEXT
  5
902E
  8
0
 10
20.733378968077311
 20
582.99109584933205
 30
0.0
 40
0.125
  1

  0
TEXT
  5
9031
  8
0
 10
12.83537682998336
 20
580.62451063991034
 30
0.0
 40
0.125
  1

  0
TEXT
  5
9032
  8
0
 10
20.733378968077311
 20
583.24109584933205
 30
0.0
 40
0.125
  1

  0
TEXT
  5
968F
  8
0
 10
21.669328232630122
 20
584.14806785389828
 30
0.0
 40
0.0625
  1

 72
     1
 11
21.669328232630122
 21
584.1793178538984
 31
0.0
 73
     2
  0
TEXT
  5
9695
  8
0
 10
21.669328232630122
 20
584.02676125358312
 30
0.0
 40
0.0625
  1

 72
     4
 11
21.669328232630122
 21
584.02676125358312
 31
0.0
  0
LINE
  5
A7C2
  8
0
 10
6.5675425863482673
 20
6.6498304940985156
 30
0.0
 11
6.5675425863482673
 21
5.5723141206845446
 31
0.0
  0
LINE
  5
A7C5
  8
0
 10
6.5675425863482673
 20
5.5723141206845446
 30
0.0
 11
5.7523561524835207
 21
5.5723141206845446
 31
0.0
  0
TEXT
  5
AAB6
  8
0
 10
0.5557647537105624
 20
1.1694920067412331
 30
0.0
 40
0.125
  1
Due to the nature of the manufacturing process, there may be slight variations between Focal Point product and Focal Point product specifications
  0
LINE
  5
AAB7
  8
0
 10
0.0
 20
1.0625
 30
0.0
 11
20.0
 21
1.0625
 31
0.0
  0
TEXT
  5
AAB8
  8
0
 10
3.1537193934426919
 20
0.6180168039913953
 30
0.0
 40
0.25
  1
ENGINEERING DRAWING AND DIGITAL DATA IN FRACTIONAL (U.S.) UNITS
 72
     1
 11
10.00490986963316
 21
0.6180168039913953
 31
0.0
  0
LINE
  5
AAB9
  8
0
 10
0.0
 20
1.0
 30
0.0
 11
18.480090747970049
 21
1.0
 31
0.0
  0
TEXT
  5
AABA
  8
0
 10
2.1349349855820159
 20
0.1180168039913951
 30
0.0
 40
0.25
  1
PRINT BORDER SIZE 7" x 10"  TO ACHIEVE PROPER SCALE
 72
     1
 11
7.8730302236772536
 21
0.1180168039913951
 31
0.0
  0
LINE
  5
AABB
  8
0
 10
0.0
 20
0.5
 30
0.0
 11
20.0
 21
0.5
 31
0.0
  0
LINE
  5
AABC
  8
0
 10
20.0
 20
14.0
 30
0.0
 11
0.0
 21
14.0
 31
0.0
  0
LINE
  5
AABD
  8
0
 10
0.0
 20
0.0
 30
0.0
 11
20.0
 21
0.0
 31
0.0
  0
LINE
  5
AAC0
  8
0
 10
0.0
 20
14.0
 30
0.0
 11
0.0
 21
0.0
 31
0.0
  0
TEXT
  5
ABAC
  8
0
 10
0.102583632072637
 20
13.770161373829289
 30
0.0
 40
0.125
  1
This document contains confidential and proprietary information
  0
TEXT
  5
ABAD
  8
0
 10
0.102583632072637
 20
13.407792607428959
 30
0.0
 40
0.125
  1
made accessible to third parties without our prior written consent.
  0
TEXT
  5
ABAE
  8
0
 10
0.102583632072637
 20
13.58897699062913
 30
0.0
 40
0.125
  1
belonging to Nomaco/Focal Point and may not be reproduced nor
  0
LINE
  5
AC0A
  8
0
 10
20.0
 20
0.0
 30
0.0
 11
20.0
 21
14.0
 31
0.0
  0
TEXT
  5
AC0B
  8
0
 10
15.838530260272
 20
1.1805168039913909
 30
0.0
 40
0.25
  1
REPEAT:  1 5/8"
  0
TEXT
  5
AC0C
  8
0
 10
15.838530260272
 20
1.6805168039913949
 30
0.0
 40
0.25
  1
LENGTH:  12'
  0
TEXT
  5
AC0D
  8
0
 10
16.429417637607909
 20
2.1805168039913951
 30
0.0
 40
0.25
  1
PRODUCT DATA
 72
     1
 11
17.869893828084098
 21
2.1805168039913951
 31
0.0
  0
LINE
  5
AC0E
  8
0
 10
15.75
 20
2.125
 30
0.0
 11
20.0
 21
2.125
 31
0.0
  0
LINE
  5
AC0F
  8
0
 10
15.75
 20
2.5
 30
0.0
 11
20.0
 21
2.5
 31
0.0
  0
LINE
  5
AC10
  8
0
 10
15.75
 20
2.5625
 30
0.0
 11
20.0
 21
2.5625
 31
0.0
  0
LINE
  5
AC11
  8
0
 10
15.75
 20
2.0625
 30
0.0
 11
20.0
 21
2.0625
 31
0.0
  0
LINE
  5
AC12
  8
0
 10
15.75
 20
1.5625
 30
0.0
 11
20.0
 21
1.5625
 31
0.0
  0
LINE
  5
AC13
  8
0
 10
15.75
 20
1.0625
 30
0.0
 11
20.0
 21
1.0625
 31
0.0
  0
LINE
  5
AC14
  8
0
 10
15.75
 20
0.4999999999997727
 30
0.0
 11
15.75
 21
-0.0000000000002274
 31
0.0
  0
TEXT
  5
AC15
  8
0
 10
15.838530260272
 20
0.1180168039913951
 30
0.0
 40
0.25
  1
SCALE
  0
LINE
  5
AC16
  8
0
 10
15.75
 20
1.0625
 30
0.0
 11
15.75
 21
2.5625
 31
0.0
  0
LINE
  5
AC17
  8
0
 10
18.480090747970049
 20
0.5
 30
0.0
 11
18.480090747970049
 21
-0.0000000000002274
 31
0.0
  0
TEXT
  5
AC18
  8
0
 10
18.933039732824291
 20
0.1180168039913951
 30
0.0
 40
0.25
  1
1/2
 72
     1
 11
19.242563542348108
 21
0.1180168039913951
 31
0.0
  0
LINE
  5
AC19
  8
0
 10
18.480090747970049
 20
1.0
 30
0.0
 11
20.0
 21
1.0
 31
0.0
  0
TEXT
  5
AC1A
  8
0
 10
17.096020526684391
 20
5.7896490240146541
 30
0.0
 40
0.125
  1
focalpointap.com
 72
     4
 11
17.875782431446289
 21
5.8313156906813211
 31
0.0
  0
TEXT
  5
AC1B
  8
0
 10
17.23887766954153
 20
6.2688156906813211
 30
0.0
 40
0.125
  1
800.662.5550
 72
     4
 11
17.875782431446289
 21
6.3313156906813211
 31
0.0
  0
TEXT
  5
AC1C
  8
0
 10
17.598996717160581
 20
6.7688156906813211
 30
0.0
 40
0.125
  1
27886
 72
     4
 11
17.875782431446289
 21
6.8313156906813211
 31
0.0
  0
TEXT
  5
AC1D
  8
0
 10
17.063282431446289
 20
7.0188156906813211
 30
0.0
 40
0.125
  1
NORTH CAROLINA
 72
     4
 11
17.875782431446289
 21
7.0813156906813211
 31
0.0
  0
TEXT
  5
AC1E
  8
0
 10
17.05435386001772
 20
7.5188156906813211
 30
0.0
 40
0.125
  1
ANACONDA DRIVE
 72
     4
 11
17.875782431446289
 21
7.5813156906813211
 31
0.0
  0
TEXT
  5
AC1F
  8
0
 10
17.456139574303432
 20
7.2688156906813211
 30
0.0
 40
0.125
  1
TARBORO
 72
     4
 11
17.875782431446289
 21
7.3313156906813211
 31
0.0
  0
TEXT
  5
AC20
  8
0
 10
17.658520526684391
 20
7.7688156906813211
 30
0.0
 40
0.125
  1
3006
 72
     4
 11
17.875782431446289
 21
7.8313156906813211
 31
0.0
  0
LINE
  5
AC21
  8
0
 10
16.53504024189218
 20
12.499999999999771
 30
0.0
 11
16.53504024189219
 21
14.0
 31
0.0
  0
LINE
  5
AC22
  8
0
 10
17.062569290708989
 20
10.145270650997441
 30
0.0
 11
17.033806567380111
 21
10.17403337432631
 31
0.0
  0
ARC
  5
AC23
  8
0
 10
-17.06117796910133
 20
10.05827097360042
 30
0.0
 40
0.0150744891514054
210
0.0
220
0.0
230
-1.0
 50
236.52372199999871
 51
317.73637843584879
  0
ARC
  5
AC24
  8
0
 10
-17.150991766732481
 20
10.078401828042161
 30
0.0
 40
0.1108601540209616
210
0.0
220
0.0
230
-1.0
 50
356.93122599999862
 51
38.826167000000673
  0
LINE
  5
AC25
  8
0
 10
16.978635810262041
 20
10.07475125611176
 30
0.0
 11
17.121481461041149
 21
10.21759690689086
 31
0.0
  0
ARC
  5
AC26
  8
0
 10
17.184649926588261
 20
9.9804576744777478
 30
0.0
 40
0.2454083751404192
 50
88.477618000000007
 51
145.71348700000209
  0
ARC
  5
AC27
  8
0
 10
-16.953991466776639
 20
9.1793585381983505
 30
0.0
 40
0.2641405056201516
210
0.0
220
0.0
230
-1.0
 50
104.676393
 51
118.9264259999986
  0
LINE
  5
AC28
  8
0
 10
17.154658756445251
 20
9.8834755577764071
 30
0.0
 11
16.982391725180779
 21
10.05574258904087
 31
0.0
  0
LINE
  5
AC29
  8
0
 10
17.00663631519712
 20
9.9896146760569877
 30
0.0
 11
17.060246904330249
 21
10.043225265190109
 31
0.0
  0
LINE
  5
AC2A
  8
0
 10
17.031553501773072
 20
9.9579633201380204
 30
0.0
 11
17.10426518346879
 21
10.030675001833719
 31
0.0
  0
LINE
  5
AC2B
  8
0
 10
17.3474760678764
 20
9.7472267888401944
 30
0.0
 11
16.980604704983691
 21
10.11409815173289
 31
0.0
  0
ARC
  5
AC2C
  8
0
 10
17.221748860061279
 20
10.13332612297472
 30
0.0
 40
0.2587013469874586
 50
210.53341399999721
 51
263.5655612222763
  0
ARC
  5
AC2D
  8
0
 10
-16.97501744633454
 20
8.8528212622859428
 30
0.0
 40
0.1689530463160322
210
0.0
220
0.0
230
-1.0
 50
212.0265570000021
 51
257.6405709999994
  0
ARC
  5
AC2E
  8
0
 10
16.737407575864701
 20
9.5894102597055664
 30
0.0
 40
0.9668923181608438
 50
285.69779299999902
 51
291.17210499999959
  0
ARC
  5
AC2F
  8
0
 10
-16.973714784580139
 20
9.23357255499036
 30
0.0
 40
0.1787048158742456
210
0.0
220
0.0
230
-1.0
 50
112.747942000001
 51
148.22547099999781
  0
LINE
  5
AC30
  8
0
 10
20.0
 20
12.5
 30
0.0
 11
16.53504024189218
 21
12.499999999999771
 31
0.0
  0
LINE
  5
AC31
  8
0
 10
20.0
 20
13.0
 30
0.0
 11
16.53504024189218
 21
12.999999999999771
 31
0.0
  0
TEXT
  5
AC32
  8
0
 10
15.834057634066641
 20
8.3880105899688644
 30
0.0
 40
0.125
  1
A R C H I T E C T U R A L  P R O D U C T S
 41
0.85
 72
     1
 11
17.885694538828542
 21
8.4505105899688644
 31
0.0
 73
     2
  0
ARC
  5
AC36
  8
0
 10
-17.02180265240607
 20
9.19832936870921
 30
0.0
 40
0.2187482015586588
210
0.0
220
0.0
230
-1.0
 50
28.00316899999774
 51
66.136893000001095
  0
ARC
  5
AC37
  8
0
 10
-16.415837880474651
 20
9.2363656364502642
 30
0.0
 40
0.2036416916713906
210
0.0
220
0.0
230
-1.0
 50
102.88433400000039
 51
137.4627059999977
  0
ARC
  5
AC38
  8
0
 10
-16.457840352998659
 20
9.2119672912108381
 30
0.0
 40
0.233738272406426
210
0.0
220
0.0
230
-1.0
 50
36.106316999998938
 51
68.885398000000023
  0
ARC
  5
AC39
  8
0
 10
-16.42930696636893
 20
9.2736581498263604
 30
0.0
 40
0.135277420604333
210
0.0
220
0.0
230
-1.0
 50
96.325964000000056
 51
130.53142199999971
  0
LINE
  5
AC3A
  8
0
 10
15.935649103524259
 20
9.4300124920684922
 30
0.0
 11
15.935649103524259
 21
8.709685662002812
 31
0.0
  0
LINE
  5
AC3B
  8
0
 10
15.98675274247328
 20
9.4446139476221944
 30
0.0
 11
15.98675274247328
 21
9.0698490770357623
 31
0.0
  0
ARC
  5
AC3C
  8
0
 10
-16.514905670770119
 20
9.1813045256460484
 30
0.0
 40
0.2623444334358478
210
0.0
220
0.0
230
-1.0
 50
15.164220999999531
 51
52.215913999998691
  0
ARC
  5
AC3D
  8
0
 10
17.073028552346571
 20
9.1310319703416098
 30
0.0
 40
0.3447046770509322
 50
129.1425410000017
 51
158.0887550000011
  0
ARC
  5
AC3E
  8
0
 10
-17.102216908573482
 20
8.9625053820077483
 30
0.0
 40
0.3208361294412096
210
0.0
220
0.0
230
-1.0
 50
312.70061699999781
 51
345.10475699999802
  0
ARC
  5
AC3F
  8
0
 10
-16.310975792475968
 20
8.9536472820775543
 30
0.0
 40
0.3459272869656934
210
0.0
220
0.0
230
-1.0
 50
205.07776900000059
 51
225.9975869999983
  0
ARC
  5
AC40
  8
0
 10
-16.158495959273349
 20
8.9971139755234617
 30
0.0
 40
0.4607303579617594
210
0.0
220
0.0
230
-1.0
 50
190.07226000000131
 51
209.11230400000079
  0
LINE
  5
AC41
  8
0
 10
15.98675274247328
 20
9.04064616592904
 30
0.0
 11
15.98675274247328
 21
8.7124234349193941
 31
0.0
  0
ARC
  5
AC42
  8
0
 10
-16.64183004577826
 20
8.9791634420964783
 30
0.0
 40
0.4017583509184561
210
0.0
220
0.0
230
-1.0
 50
324.9820570000021
 51
349.27061299999809
  0
ARC
  5
AC43
  8
0
 10
-16.590700208045352
 20
8.9897011751713762
 30
0.0
 40
0.4025122936992254
210
0.0
220
0.0
230
-1.0
 50
323.63766500000168
 51
347.05053800000201
  0
ARC
  5
AC44
  8
0
 10
17.17185764261108
 20
9.0063927114836062
 30
0.0
 40
0.4552911993290664
 50
186.11338500000039
 51
211.2023919999985
  0
ARC
  5
AC45
  8
0
 10
-16.42961116335962
 20
8.8167615472402758
 30
0.0
 40
0.1317260298995508
210
0.0
220
0.0
230
-1.0
 50
244.85521399999951
 51
281.72511200000019
  0
ARC
  5
AC46
  8
0
 10
-16.42961116335962
 20
8.8435294269334008
 30
0.0
 40
0.1876356902039766
210
0.0
220
0.0
230
-1.0
 50
260.29334799999953
 51
279.70665200000002
  0
ARC
  5
AC47
  8
0
 10
-16.43235621371586
 20
8.8285146127898244
 30
0.0
 40
0.1437934808558416
210
0.0
220
0.0
230
-1.0
 50
281.84460100000052
 51
326.2472740000004
  0
ARC
  5
AC48
  8
0
 10
-16.438744350520491
 20
8.8561266755195902
 30
0.0
 40
0.201708803615673
210
0.0
220
0.0
230
-1.0
 50
281.66125999999957
 51
328.60712600000028
  0
LINE
  5
AC49
  8
0
 10
16.000544946702171
 20
8.6683148712684144
 30
0.0
 11
15.92204465724655
 21
8.6683148712684144
 31
0.0
  0
ARC
  5
AC4A
  8
0
 10
15.84056643935569
 20
8.7180285191832283
 30
0.0
 40
0.0954465361670094
 50
328.61068700000237
 51
354.98506300000213
  0
ARC
  5
AC4B
  8
0
 10
16.064017322622199
 20
8.7124234349193941
 30
0.0
 40
0.0772936899087948
 50
180.0
 51
214.79552800000249
  0
ARC
  5
AC4C
  8
0
 10
16.965009510889431
 20
8.8648348601861926
 30
0.0
 40
0.2090371856642708
 50
254.45024699999951
 51
279.36163699999992
  0
ARC
  5
AC4D
  8
0
 10
-16.984411165846279
 20
8.8258874569612544
 30
0.0
 40
0.140674370085207
210
0.0
220
0.0
230
-1.0
 50
259.03024199999919
 51
315.1752159999981
  0
ARC
  5
AC4E
  8
0
 10
-16.427426475880988
 20
8.8352302343930642
 30
0.0
 40
0.1798590178533
210
0.0
220
0.0
230
-1.0
 50
226.4760059999989
 51
259.16177100000021
  0
ARC
  5
AC4F
  8
0
 10
-16.41135934391783
 20
8.8471797908216558
 30
0.0
 40
0.1670565454601588
210
0.0
220
0.0
230
-1.0
 50
206.37842099999841
 51
243.62157900000099
  0
ARC
  5
AC50
  8
0
 10
16.97702601976593
 20
8.872190896506936
 30
0.0
 40
0.2195559973951974
 50
207.5844410000017
 51
251.9428419999989
  0
ARC
  5
AC51
  8
0
 10
-17.013052258587571
 20
9.0540308335196187
 30
0.0
 40
0.7805942214231352
210
0.0
220
0.0
230
-1.0
 50
349.85491799999681
 51
4.559676999999855
  0
ARC
  5
AC52
  8
0
 10
-16.827495005238681
 20
9.0540308335196187
 30
0.0
 40
0.648219043878366
210
0.0
220
0.0
230
-1.0
 50
355.37033100000082
 51
6.7915170000004892
  0
LINE
  5
AC53
  8
0
 10
16.246325926769
 20
8.9084325475514561
 30
0.0
 11
16.247095879917708
 21
8.9043688250728721
 31
0.0
  0
LINE
  5
AC54
  8
0
 10
16.245390047989009
 20
8.9124642492943167
 30
0.0
 11
16.246325926769
 21
8.9084325475514561
 31
0.0
  0
ARC
  5
AC55
  8
0
 10
-16.845502302697511
 20
9.0598717068382921
 30
0.0
 40
0.6666542548073707
210
0.0
220
0.0
230
-1.0
 50
346.0804279999968
 51
354.99492799999939
  0
LINE
  5
AC56
  8
0
 10
16.244662303992129
 20
8.9165367047007678
 30
0.0
 11
16.245390047989009
 21
8.9124642492943167
 31
0.0
  0
ARC
  5
AC57
  8
0
 10
-16.667945866850349
 20
9.0753246228682656
 30
0.0
 40
0.4872770034800065
210
0.0
220
0.0
230
-1.0
 50
6.5238629999969824
 51
20.99770699999857
  0
ARC
  5
AC58
  8
0
 10
-16.590224263471381
 20
9.1039191399936499
 30
0.0
 40
0.4044728360268242
210
0.0
220
0.0
230
-1.0
 50
21.161260000002549
 51
37.421465000000516
  0
ARC
  5
AC59
  8
0
 10
-16.751243444733419
 20
9.0824230378141237
 30
0.0
 40
0.5174128823908736
210
0.0
220
0.0
230
-1.0
 50
3.7304230000010872
 51
18.889442000000461
  0
ARC
  5
AC5A
  8
0
 10
-16.101129355487181
 20
9.1027023520309722
 30
0.0
 40
0.0327630347396096
210
0.0
220
0.0
230
-1.0
 50
195.06848800000279
 51
270.0
  0
ARC
  5
AC5B
  8
0
 10
-16.109472212667431
 20
9.0172448299651862
 30
0.0
 40
0.0234013359637248
210
0.0
220
0.0
230
-1.0
 50
90.0
 51
174.45879500000001
  0
LINE
  5
AC5C
  8
0
 10
16.132765842519611
 20
9.0941848362915607
 30
0.0
 11
16.132765842519611
 21
9.0195052028195661
 31
0.0
  0
LINE
  5
AC5D
  8
0
 10
15.98675274247328
 20
9.0698490770357623
 30
0.0
 11
16.101129355487181
 21
9.0698490770357623
 31
0.0
  0
LINE
  5
AC5E
  8
0
 10
15.98675274247328
 20
9.04064616592904
 30
0.0
 11
16.109472212667431
 21
9.04064616592904
 31
0.0
  0
ARC
  5
AC5F
  8
0
 10
-16.359281983500981
 20
9.1647570826451101
 30
0.0
 40
0.2940857156038358
210
0.0
220
0.0
230
-1.0
 50
134.63121999999939
 51
150.23159600000031
  0
ARC
  5
AC60
  8
0
 10
-16.41135934391783
 20
9.2414132688124937
 30
0.0
 40
0.171603489952675
210
0.0
220
0.0
230
-1.0
 50
128.08877299999921
 51
156.1612599999996
  0
ARC
  5
AC61
  8
0
 10
-16.21789296881084
 20
9.0820169566636562
 30
0.0
 40
0.45789943381389
210
0.0
220
0.0
230
-1.0
 50
150.0285049999984
 51
161.08358500000091
  0
ARC
  5
AC62
  8
0
 10
-17.433398646674359
 20
9.0515972575940324
 30
0.0
 40
0.6662670950010298
210
0.0
220
0.0
230
-1.0
 50
357.38318399999991
 51
5.5544169999980477
  0
ARC
  5
AC63
  8
0
 10
17.431573464730189
 20
9.045513317779978
 30
0.0
 40
0.7177855480282718
 50
177.86272700000001
 51
187.01057000000031
  0
ARC
  5
AC64
  8
0
 10
17.36995392502623
 20
9.0469047643020986
 30
0.0
 40
0.6561558199083568
 50
171.1615180000004
 51
177.78340099999841
  0
ARC
  5
AC65
  8
0
 10
-16.035377685368928
 20
9.0503804696313637
 30
0.0
 40
0.6426794565741034
210
0.0
220
0.0
230
-1.0
 50
178.48115000000081
 51
185.21407099999681
  0
ARC
  5
AC66
  8
0
 10
-16.07431344469008
 20
9.0558560154636325
 30
0.0
 40
0.6036287137014368
210
0.0
220
0.0
230
-1.0
 50
171.01236299999761
 51
178.90273499999901
  0
ARC
  5
AC67
  8
0
 10
-15.9186519147331
 20
9.0481448400726023
 30
0.0
 40
0.7058520019674077
210
0.0
220
0.0
230
-1.0
 50
181.39897300000311
 51
190.7459399999986
  0
ARC
  5
AC68
  8
0
 10
-15.93742770985264
 20
9.0564644094451978
 30
0.0
 40
0.687341105662727
210
0.0
220
0.0
230
-1.0
 50
170.11247000000279
 51
182.13048099999759
  0
ARC
  5
AC69
  8
0
 10
-16.160750510175689
 20
9.0346466444184443
 30
0.0
 40
0.5164129621391583
210
0.0
220
0.0
230
-1.0
 50
184.7396419999973
 51
206.15299100000109
  0
ARC
  5
AC6A
  8
0
 10
17.223475068821891
 20
9.0663267960910545
 30
0.0
 40
0.5084427098853112
 50
157.65048299999771
 51
170.7880109999976
  0
ARC
  5
AC6B
  8
0
 10
16.19916688665289
 20
9.1095383650497297
 30
0.0
 40
0.4204401313707506
 50
8.8870558864557356
 51
28.595275765016879
  0
ARC
  5
AC6C
  8
0
 10
-16.115857438496072
 20
9.0582022621094822
 30
0.0
 40
0.5622433680867739
210
0.0
220
0.0
230
-1.0
 50
162.1588269999971
 51
170.58718400000211
  0
ARC
  5
AC6D
  8
0
 10
-17.328289125716761
 20
9.0451392573656904
 30
0.0
 40
0.5609741825562125
210
0.0
220
0.0
230
-1.0
 50
342.88321399999802
 51
357.5519719999977
  0
ARC
  5
AC6E
  8
0
 10
-17.211394518473661
 20
9.0784772098627382
 30
0.0
 40
0.4427347044068715
210
0.0
220
0.0
230
-1.0
 50
4.873011999997221
 51
30.178125000000389
  0
ARC
  5
AC6F
  8
0
 10
-16.427177587434041
 20
9.2608818762168923
 30
0.0
 40
0.1482108869169128
210
0.0
220
0.0
230
-1.0
 50
77.675272999999422
 51
96.599917000000019
  0
ARC
  5
AC70
  8
0
 10
-16.426720564204
 20
9.2654448310777298
 30
0.0
 40
0.1729163401230494
210
0.0
220
0.0
230
-1.0
 50
72.122851000000537
 51
101.5174889999993
  0
ARC
  5
AC71
  8
0
 10
-16.420281485319592
 20
9.2868390490980346
 30
0.0
 40
0.121386243191857
210
0.0
220
0.0
230
-1.0
 50
57.000210000000273
 51
78.239519999999928
  0
LINE
  5
AC72
  8
0
 10
15.92104764797082
 20
9.4713832828033446
 30
0.0
 11
16.149799418510622
 21
9.4713832828033446
 31
0.0
  0
ARC
  5
AC73
  8
0
 10
-16.113701860777301
 20
9.4085163898887458
 30
0.0
 40
0.0372837804482382
210
0.0
220
0.0
230
-1.0
 50
104.4897629999991
 51
165.5102369999986
  0
LINE
  5
AC74
  8
0
 10
15.98675274247328
 20
9.4446139476221944
 30
0.0
 11
16.123031538817319
 21
9.4446139476221944
 31
0.0
  0
LINE
  5
AC75
  8
0
 10
16.149799418510622
 20
9.4713832828033446
 30
0.0
 11
16.149799418510622
 21
9.4178446124405966
 31
0.0
  0
ARC
  5
AC76
  8
0
 10
-15.72666868189175
 20
9.3795172471006936
 30
0.0
 40
0.2149944980227434
210
0.0
220
0.0
230
-1.0
 50
154.7039520000001
 51
166.4159789999984
  0
ARC
  5
AC77
  8
0
 10
16.979544013995149
 20
9.2061278733799483
 30
0.0
 40
0.2324632649238894
 50
79.748801000000199
 51
100.2511989999997
  0
ARC
  5
AC78
  8
0
 10
16.997501824862191
 20
9.1883796527838442
 30
0.0
 40
0.2535401865615744
 50
103.5326130000004
 51
124.07927400000059
  0
ARC
  5
AC79
  8
0
 10
-16.988061529734651
 20
9.2663574220498504
 30
0.0
 40
0.1429230990355712
210
0.0
220
0.0
230
-1.0
 50
67.473939000000655
 51
112.526060999999
  0
ARC
  5
AC7A
  8
0
 10
17.08269477760707
 20
10.07531168567219
 30
0.0
 40
0.0424995034128398
 50
183.83797336945321
 51
219.75545477125709
  0
ARC
  5
AC7B
  8
0
 10
17.07800923226123
 20
10.089501379482719
 30
0.0
 40
0.1004621477935174
 50
163.10135100000139
 51
191.17383799999939
  0
ARC
  5
AC7C
  8
0
 10
17.34691646106095
 20
10.13817289799408
 30
0.0
 40
0.3737285631345642
 50
190.5050639999981
 51
201.3857279999994
  0
LINE
  5
AC7D
  8
0
 10
17.043965843380079
 20
10.107305555831431
 30
0.0
 11
17.004339855910128
 21
10.146931543301379
 31
0.0
  0
LINE
  5
AC7E
  8
0
 10
16.989480678272258
 20
10.029027581627039
 30
0.0
 11
17.040139050160811
 21
10.0796859535156
 31
0.0
  0
LINE
  5
AC88
  8
0
 10
17.952913356540218
 20
10.556003062549451
 30
0.0
 11
17.89935962720995
 21
10.60955679187972
 31
0.0
  0
LINE
  5
AC89
  8
0
 10
17.861291408359129
 20
10.591056468235619
 30
0.0
 11
17.817473493638548
 21
10.634874382956189
 31
0.0
  0
LINE
  5
AC8A
  8
0
 10
17.904716224302749
 20
10.588173398465861
 30
0.0
 11
17.899454635205309
 21
10.609167357287779
 31
0.0
  0
ARC
  5
AC8B
  8
0
 10
-17.996427978277769
 20
10.599815846927861
 30
0.0
 40
0.0538748880891448
210
0.0
220
0.0
230
-1.0
 50
334.01367400000089
 51
40.236357999997693
  0
ARC
  5
AC8C
  8
0
 10
18.275397473773239
 20
10.799925125759721
 30
0.0
 40
0.3407201125343774
 50
205.34315814419199
 51
215.8151843503623
  0
LINE
  5
AC8D
  8
0
 10
17.8603675051328
 20
10.61540121236521
 30
0.0
 11
17.861264085736948
 21
10.591497733043511
 31
0.0
  0
LINE
  5
AC8E
  8
0
 10
17.695897010976019
 20
10.58674523813397
 30
0.0
 11
17.653101962447799
 21
10.629540286662181
 31
0.0
  0
LINE
  5
AC8F
  8
0
 10
17.632220527411771
 20
10.558630345776709
 30
0.0
 11
17.723267920999511
 21
10.64967773936446
 31
0.0
  0
ARC
  5
AC90
  8
0
 10
17.386412138005159
 20
10.799985351141
 30
0.0
 40
0.3165043166631968
 50
321.09161298227582
 51
342.10924395059959
  0
ARC
  5
AC91
  8
0
 10
-17.574468723355839
 20
10.63752586541659
 30
0.0
 40
0.0686349918338974
210
0.0
220
0.0
230
-1.0
 50
211.95923899999781
 51
261.99302600000033
  0
ARC
  5
AC92
  8
0
 10
17.626773326037739
 20
10.65225853483116
 30
0.0
 40
0.0952369458959074
 50
287.8562229999992
 51
355.23635800000221
  0
LINE
  5
AC93
  8
0
 10
17.810705016268638
 20
10.56740920714881
 30
0.0
 11
17.859734287246422
 21
10.616438478126589
 31
0.0
  0
ARC
  5
AC94
  8
0
 10
18.19378778376808
 20
10.56525819549187
 30
0.0
 40
0.3830888064224554
 50
169.93931000000191
 51
184.18934299999751
  0
LINE
  5
AC95
  8
0
 10
19.619656596858199
 20
9.3935103086728304
 30
0.0
 11
19.461475617184021
 21
9.3935103086728304
 31
0.0
  0
LINE
  5
AC96
  8
0
 10
19.429840585639582
 20
9.4227117642917602
 30
0.0
 11
19.858142671100278
 21
9.4227117642917602
 31
0.0
  0
ARC
  5
AC97
  8
0
 10
-20.329032335258479
 20
9.5115358300872686
 30
0.0
 40
0.9035698575041822
210
0.0
220
0.0
230
-1.0
 50
350.77868099999978
 51
354.35850299999771
  0
ARC
  5
AC98
  8
0
 10
-19.476077072737439
 20
9.3557898818264604
 30
0.0
 40
0.0404480113466794
210
0.0
220
0.0
230
-1.0
 50
15.708638000001001
 51
68.838739999999788
  0
LINE
  5
AC99
  8
0
 10
19.388516370520641
 20
9.4032446123751399
 30
0.0
 11
19.388516370520641
 21
8.6658812953426079
 31
0.0
  0
LINE
  5
AC9A
  8
0
 10
19.36420389907282
 20
8.8258015831697776
 30
0.0
 11
19.36420389907282
 21
9.4008110364497881
 31
0.0
  0
ARC
  5
AC9B
  8
0
 10
-18.704250710988731
 20
9.3623599546306195
 30
0.0
 40
0.1319123323627526
210
0.0
220
0.0
230
-1.0
 50
152.77314599999701
 51
180.0
  0
ARC
  5
AC9C
  8
0
 10
18.816026366957772
 20
9.3104659857005956
 30
0.0
 40
0.1751490587054822
 50
23.00259699999771
 51
39.856534999998651
  0
ARC
  5
AC9D
  8
0
 10
-18.977294436666739
 20
9.3728249133055144
 30
0.0
 40
0.0904425684444514
210
0.0
220
0.0
230
-1.0
 50
5.4037910000000497
 51
33.476277999999901
  0
ARC
  5
AC9E
  8
0
 10
-18.548065205353989
 20
9.2119672912108381
 30
0.0
 40
0.233738272406426
210
0.0
220
0.0
230
-1.0
 50
36.106316999998938
 51
68.885398000000023
  0
ARC
  5
AC9F
  8
0
 10
-18.60513052312546
 20
9.1813045256460484
 30
0.0
 40
0.2623444334358478
210
0.0
220
0.0
230
-1.0
 50
15.164220999999531
 51
52.215913999998691
  0
ARC
  5
ACA0
  8
0
 10
17.932520411447619
 20
9.2602356395480001
 30
0.0
 40
0.2564060424212939
 50
0.4164509999972098
 51
35.888960000001347
  0
ARC
  5
ACA1
  8
0
 10
-18.08055663980528
 20
9.3288779088218163
 30
0.0
 40
0.1447904901315694
210
0.0
220
0.0
230
-1.0
 50
100.1933809999995
 51
161.82479299999909
  0
ARC
  5
ACA2
  8
0
 10
-18.506062732829982
 20
9.2363656364502642
 30
0.0
 40
0.2036416916713906
210
0.0
220
0.0
230
-1.0
 50
102.88433400000039
 51
137.4627059999977
  0
ARC
  5
ACA3
  8
0
 10
-18.519531818724261
 20
9.2736581498263604
 30
0.0
 40
0.135277420604333
210
0.0
220
0.0
230
-1.0
 50
96.325964000000056
 51
130.53142199999971
  0
ARC
  5
ACA4
  8
0
 10
17.789820002075089
 20
9.352139517937978
 30
0.0
 40
0.1578054637717998
 50
153.4349489999976
 51
170.73496100000179
  0
ARC
  5
ACA5
  8
0
 10
-17.478326650065849
 20
9.3655241855285567
 30
0.0
 40
0.1066668931109298
210
0.0
220
0.0
230
-1.0
 50
147.57893499999841
 51
168.81824599999831
  0
LINE
  5
ACA6
  8
0
 10
17.298291518165311
 20
9.3618738216402946
 30
0.0
 11
17.33479515704888
 21
9.4567818272496424
 31
0.0
  0
ARC
  5
ACA7
  8
0
 10
-16.569492292488231
 20
9.3114993821766276
 30
0.0
 40
0.556379206959902
210
0.0
220
0.0
230
-1.0
 50
170.5088379999994
 51
178.3340760000018
  0
LINE
  5
ACA8
  8
0
 10
17.977202437368149
 20
9.4178446124405966
 30
0.0
 11
17.977202437368149
 21
8.7218535416311624
 31
0.0
  0
LINE
  5
ACA9
  8
0
 10
18.028307531805179
 20
8.7121192379286114
 30
0.0
 11
18.028307531805179
 21
9.4446139476221944
 31
0.0
  0
LINE
  5
ACAA
  8
0
 10
17.33479515704888
 20
9.4567818272496424
 30
0.0
 11
17.522177592341951
 21
8.7048185101521014
 31
0.0
  0
LINE
  5
ACAB
  8
0
 10
19.035617296064821
 20
9.3946965313875808
 30
0.0
 11
19.36420389907282
 21
8.8258015831697776
 31
0.0
  0
ARC
  5
ACAC
  8
0
 10
-18.680449115826729
 20
9.1039191399936499
 30
0.0
 40
0.4044728360268242
210
0.0
220
0.0
230
-1.0
 50
21.161260000002549
 51
37.421465000000516
  0
ARC
  5
ACAD
  8
0
 10
-18.680925060400689
 20
8.9897011751713762
 30
0.0
 40
0.4025122936992254
210
0.0
220
0.0
230
-1.0
 50
323.63766500000168
 51
347.05053800000201
  0
LINE
  5
ACAE
  8
0
 10
17.24722572190413
 20
8.9506053121706373
 30
0.0
 11
17.18579685112735
 21
8.709131121077462
 31
0.0
  0
LINE
  5
ACAF
  8
0
 10
17.403869706256899
 20
8.9506053121706373
 30
0.0
 11
17.463771770128218
 21
8.7072520860774603
 31
0.0
  0
LINE
  5
ACB0
  8
0
 10
17.634074053814452
 20
8.6950842064495575
 30
0.0
 11
17.634074053814452
 21
9.3775465163571425
 31
0.0
  0
LINE
  5
ACB1
  8
0
 10
17.58296895937746
 20
9.3862095808960841
 30
0.0
 11
17.58296895937746
 21
8.7127276319097202
 31
0.0
  0
LINE
  5
ACB2
  8
0
 10
17.313777910418949
 20
9.3166052340584358
 30
0.0
 11
17.15471199404455
 21
8.7048185101521014
 31
0.0
  0
LINE
  5
ACB3
  8
0
 10
17.634074053814452
 20
8.6950842064495575
 30
0.0
 11
17.763579009035539
 21
8.6950842064495575
 31
0.0
  0
LINE
  5
ACB4
  8
0
 10
17.568367503824
 20
8.6683148712684144
 30
0.0
 11
17.789820002075089
 21
8.6683148712684144
 31
0.0
  0
LINE
  5
ACB5
  8
0
 10
17.572242012863409
 20
8.67516730874285
 30
0.0
 11
17.578106173990289
 21
8.6867922913493203
 31
0.0
  0
ARC
  5
ACB6
  8
0
 10
17.497795257470429
 20
8.7127276319097202
 30
0.0
 40
0.0833849071626938
 50
327.81736800000061
 51
333.22801199999878
  0
LINE
  5
ACB7
  8
0
 10
17.58296895937746
 20
8.6997068363177661
 30
0.0
 11
17.58296895937746
 21
8.7127276319097202
 31
0.0
  0
LINE
  5
ACB8
  8
0
 10
17.578106173990289
 20
8.6867922913493203
 30
0.0
 11
17.58296895937746
 21
8.6997068363177661
 31
0.0
  0
ARC
  5
ACB9
  8
0
 10
-17.41145134321642
 20
8.6969093883938058
 30
0.0
 40
0.053333446555465
210
0.0
220
0.0
230
-1.0
 50
168.81824599999831
 51
212.42106500000131
  0
ARC
  5
ACBA
  8
0
 10
17.63837793181203
 20
8.7433496438109142
 30
0.0
 40
0.1224225506434164
 50
198.34490800000231
 51
217.8000650000015
  0
LINE
  5
ACBB
  8
0
 10
17.456471042351499
 20
8.6683148712684144
 30
0.0
 11
17.541644744258541
 21
8.6683148712684144
 31
0.0
  0
ARC
  5
ACBC
  8
0
 10
-17.038511654574471
 20
8.7433496438109142
 30
0.0
 40
0.1224225506434164
210
0.0
220
0.0
230
-1.0
 50
198.34490800000231
 51
217.8000650000015
  0
ARC
  5
ACBD
  8
0
 10
17.24328862688099
 20
8.6945063777161522
 30
0.0
 40
0.0593358790417444
 50
165.7274869999988
 51
206.1942030000024
  0
LINE
  5
ACBE
  8
0
 10
17.13524484212796
 20
8.6683148712684144
 30
0.0
 11
17.190046876069129
 21
8.6683148712684144
 31
0.0
  0
ARC
  5
ACBF
  8
0
 10
-17.10122135478575
 20
8.6561469916405258
 30
0.0
 40
0.0348429270826972
210
0.0
220
0.0
230
-1.0
 50
65.224859000000265
 51
114.7751409999991
  0
ARC
  5
ACC0
  8
0
 10
16.918790489647471
 20
8.7318978642756502
 30
0.0
 40
0.2019096609588124
 50
347.37974199999678
 51
8.9250369999969497
  0
ARC
  5
ACC1
  8
0
 10
-18.115914809637768
 20
8.7169863897797768
 30
0.0
 40
0.0877426382160208
210
0.0
220
0.0
230
-1.0
 50
326.30993200000017
 51
356.82017000000047
  0
ARC
  5
ACC2
  8
0
 10
-17.68882805665184
 20
8.7717403926173958
 30
0.0
 40
0.2926578818819539
210
0.0
220
0.0
230
-1.0
 50
189.814787
 51
200.695450999999
  0
ARC
  5
ACC3
  8
0
 10
16.897927524744869
 20
9.0077943464218535
 30
0.0
 40
0.9543154464067361
 50
339.16179600000231
 51
342.2581110000026
  0
LINE
  5
ACC4
  8
0
 10
17.807408118991731
 20
8.7187140540283963
 30
0.0
 11
17.8068550335541
 21
8.7169863897797768
 31
0.0
  0
LINE
  5
ACC5
  8
0
 10
17.805435932760179
 20
8.7233570607286222
 30
0.0
 11
17.807408118991731
 21
8.7187140540283963
 31
0.0
  0
LINE
  5
ACC6
  8
0
 10
17.804421457628528
 20
8.7218535416311624
 30
0.0
 11
17.805435932760179
 21
8.7233570607286222
 31
0.0
  0
ARC
  5
ACC7
  8
0
 10
17.75209957522873
 20
8.7571389370636936
 30
0.0
 40
0.0631085039215786
 50
280.48011099999968
 51
326.00354099999799
  0
LINE
  5
ACC8
  8
0
 10
17.962600981814731
 20
8.6683148712684144
 30
0.0
 11
18.042907531870611
 21
8.6683148712684144
 31
0.0
  0
LINE
  5
ACC9
  8
0
 10
17.313777910418949
 20
9.3166052340584358
 30
0.0
 11
17.308025821867592
 21
9.3399716383105442
 31
0.0
  0
ARC
  5
ACCA
  8
0
 10
17.267177551322629
 20
9.3349312833879523
 30
0.0
 40
0.0411582894876358
 50
7.0349760000016648
 51
40.890001999998361
  0
LINE
  5
ACCB
  8
0
 10
17.254034494738939
 20
8.9773746473520006
 30
0.0
 11
17.326835093210988
 21
9.2635570631496122
 31
0.0
  0
LINE
  5
ACCC
  8
0
 10
17.24722572190413
 20
8.9506053121706373
 30
0.0
 11
17.403869706256899
 21
8.9506053121706373
 31
0.0
  0
LINE
  5
ACCD
  8
0
 10
17.254034494738939
 20
8.9773746473520006
 30
0.0
 11
17.397280712109129
 21
8.9773746473520006
 31
0.0
  0
LINE
  5
ACCE
  8
0
 10
17.397280712109129
 20
8.9773746473520006
 30
0.0
 11
17.326835093210988
 21
9.2635570631496122
 31
0.0
  0
ARC
  5
ACCF
  8
0
 10
-17.920362720235719
 20
9.2539290100710261
 30
0.0
 40
0.321073373984193
210
0.0
220
0.0
230
-1.0
 50
158.03154799999879
 51
174.62583799999891
  0
ARC
  5
ACD0
  8
0
 10
-18.917718402106011
 20
9.0540308335196187
 30
0.0
 40
0.648219043878366
210
0.0
220
0.0
230
-1.0
 50
355.37033100000082
 51
6.7915170000004892
  0
ARC
  5
ACD1
  8
0
 10
-18.935727155052849
 20
9.0598717068382921
 30
0.0
 40
0.6666542548073707
210
0.0
220
0.0
230
-1.0
 50
346.0804279999968
 51
354.99492799999939
  0
LINE
  5
ACD2
  8
0
 10
18.07702417044441
 20
9.0012388284981082
 30
0.0
 11
18.079411170754199
 21
9.0017104066077902
 31
0.0
  0
LINE
  5
ACD3
  8
0
 10
18.077372032074919
 20
8.9957370838815223
 30
0.0
 11
18.07702417044441
 21
9.0012388284981082
 31
0.0
  0
LINE
  5
ACD4
  8
0
 10
18.079411170754199
 20
8.9944096788310617
 30
0.0
 11
18.077372032074919
 21
8.9957370838815223
 31
0.0
  0
ARC
  5
ACD5
  8
0
 10
18.058482708891869
 20
9.1078125703772841
 30
0.0
 40
0.108147124400587
 50
281.15822300000042
 51
323.23324499999921
  0
ARC
  5
ACD6
  8
0
 10
-18.105572111954078
 20
9.0345622261149856
 30
0.0
 40
0.0479233976826472
210
0.0
220
0.0
230
-1.0
 50
278.0272379999999
 51
303.0848529999987
  0
ARC
  5
ACD7
  8
0
 10
-18.115914809637768
 20
9.0503804696313637
 30
0.0
 40
0.0655246139912254
210
0.0
220
0.0
230
-1.0
 50
248.1985910000011
 51
285.068488
  0
ARC
  5
ACD8
  8
0
 10
-18.041690743907829
 20
9.1927432057893839
 30
0.0
 40
0.2258407945522668
210
0.0
220
0.0
230
-1.0
 50
237.76556599999981
 51
244.12522600000071
  0
ARC
  5
ACD9
  8
0
 10
17.935000562988979
 20
9.1815999897087224
 30
0.0
 40
0.2516684290015948
 50
326.60512299999868
 51
357.82709999999798
  0
ARC
  5
ACDA
  8
0
 10
-17.981761025764619
 20
9.1867960818467438
 30
0.0
 40
0.2584524585405252
210
0.0
220
0.0
230
-1.0
 50
182.1888729999973
 51
225.73610499999839
  0
ARC
  5
ACDB
  8
0
 10
-17.75088278726593
 20
9.2304621771472721
 30
0.0
 40
0.4920626480034998
210
0.0
220
0.0
230
-1.0
 50
173.7536839999984
 51
186.2463160000014
  0
ARC
  5
ACDC
  8
0
 10
17.55741641215895
 20
9.2341125410357563
 30
0.0
 40
0.6321228021553388
 50
354.36622600000231
 51
2.537458999998476
  0
ARC
  5
ACDD
  8
0
 10
-18.75817071920569
 20
9.0753246228682656
 30
0.0
 40
0.4872770034800065
210
0.0
220
0.0
230
-1.0
 50
6.5238629999969824
 51
20.99770699999857
  0
ARC
  5
ACDE
  8
0
 10
-18.40120064483132
 20
8.9536472820775543
 30
0.0
 40
0.3459272869656934
210
0.0
220
0.0
230
-1.0
 50
205.07776900000059
 51
225.9975869999983
  0
ARC
  5
ACDF
  8
0
 10
-18.248720811628701
 20
8.9971139755234617
 30
0.0
 40
0.4607303579617594
210
0.0
220
0.0
230
-1.0
 50
190.07226000000131
 51
209.11230400000079
  0
ARC
  5
ACE0
  8
0
 10
-18.73205489813359
 20
8.9791634420964783
 30
0.0
 40
0.4017583509184561
210
0.0
220
0.0
230
-1.0
 50
324.9820570000021
 51
349.27061299999809
  0
LINE
  5
ACE1
  8
0
 10
19.001560332498752
 20
9.3388480015792084
 30
0.0
 11
19.001560332498752
 21
8.6902170545984063
 31
0.0
  0
LINE
  5
ACE2
  8
0
 10
18.977247861050941
 20
8.6877834786730546
 30
0.0
 11
18.977247861050941
 21
9.3789088531193556
 31
0.0
  0
LINE
  5
ACE3
  8
0
 10
18.887253582908571
 20
9.3813424290449277
 30
0.0
 11
18.887253582908571
 21
8.7220456660461423
 31
0.0
  0
LINE
  5
ACE4
  8
0
 10
18.836148488471551
 20
8.7267206934818642
 30
0.0
 11
18.836148488471551
 21
9.3623599546306195
 31
0.0
  0
LINE
  5
ACE5
  8
0
 10
19.388516370520641
 20
8.6658812953426079
 30
0.0
 11
19.001560332498752
 21
9.3388480015792084
 31
0.0
  0
ARC
  5
ACE6
  8
0
 10
18.993240763126401
 20
8.7220456660461423
 30
0.0
 40
0.1060104680257426
 50
180.0
 51
210.45326099999829
  0
ARC
  5
ACE7
  8
0
 10
-18.702710804691339
 20
8.7339530133231165
 30
0.0
 40
0.1336356301473682
210
0.0
220
0.0
230
-1.0
 50
183.1026619999983
 51
209.41774699999741
  0
LINE
  5
ACE8
  8
0
 10
18.81911491248054
 20
8.6683148712684144
 30
0.0
 11
18.901855038461989
 21
8.6683148712684144
 31
0.0
  0
ARC
  5
ACE9
  8
0
 10
-18.519836015714951
 20
8.8435294269334008
 30
0.0
 40
0.1876356902039766
210
0.0
220
0.0
230
-1.0
 50
260.29334799999953
 51
279.70665200000002
  0
ARC
  5
ACEA
  8
0
 10
-18.519836015714951
 20
8.8167615472402758
 30
0.0
 40
0.1317260298995508
210
0.0
220
0.0
230
-1.0
 50
244.85521399999951
 51
281.72511200000019
  0
ARC
  5
ACEB
  8
0
 10
-18.52258106607119
 20
8.8285146127898244
 30
0.0
 40
0.1437934808558416
210
0.0
220
0.0
230
-1.0
 50
281.84460100000052
 51
326.2472740000004
  0
ARC
  5
ACEC
  8
0
 10
-18.528969202875821
 20
8.8561266755195902
 30
0.0
 40
0.201708803615673
210
0.0
220
0.0
230
-1.0
 50
281.66125999999957
 51
328.60712600000028
  0
ARC
  5
ACED
  8
0
 10
-18.501584196273161
 20
8.8471797908216558
 30
0.0
 40
0.1670565454601588
210
0.0
220
0.0
230
-1.0
 50
206.37842099999841
 51
243.62157900000099
  0
ARC
  5
ACEE
  8
0
 10
-18.517651328236312
 20
8.8352302343930642
 30
0.0
 40
0.1798590178533
210
0.0
220
0.0
230
-1.0
 50
226.4760059999989
 51
259.16177100000021
  0
ARC
  5
ACEF
  8
0
 10
-19.048319339786399
 20
8.7018638695246864
 30
0.0
 40
0.0481868410095182
210
0.0
220
0.0
230
-1.0
 50
315.87690799999848
 51
346.0138840000003
  0
ARC
  5
ACF0
  8
0
 10
18.858004096185891
 20
8.7620060889148519
 30
0.0
 40
0.1404560468861426
 50
318.16036199999797
 51
328.09984299999712
  0
LINE
  5
ACF1
  8
0
 10
18.962646405497502
 20
8.6683148712684144
 30
0.0
 11
19.013728212126619
 21
8.6683148712684144
 31
0.0
  0
ARC
  5
ACF2
  8
0
 10
-18.449506835856312
 20
9.1647570826451101
 30
0.0
 40
0.2940857156038358
210
0.0
220
0.0
230
-1.0
 50
134.63121999999939
 51
150.23159600000031
  0
ARC
  5
ACF3
  8
0
 10
-18.308117821166171
 20
9.0820169566636562
 30
0.0
 40
0.45789943381389
210
0.0
220
0.0
230
-1.0
 50
150.0285049999984
 51
161.08358500000091
  0
ARC
  5
ACF4
  8
0
 10
-18.125602537724259
 20
9.0503804696313637
 30
0.0
 40
0.6426794565741034
210
0.0
220
0.0
230
-1.0
 50
178.48115000000081
 51
185.21407099999681
  0
ARC
  5
ACF5
  8
0
 10
-18.164538297045421
 20
9.0558560154636325
 30
0.0
 40
0.6036287137014368
210
0.0
220
0.0
230
-1.0
 50
171.01236299999761
 51
178.90273499999901
  0
ARC
  5
ACF6
  8
0
 10
-18.008876767088431
 20
9.0481448400726023
 30
0.0
 40
0.7058520019674077
210
0.0
220
0.0
230
-1.0
 50
181.39897300000311
 51
190.7459399999986
  0
ARC
  5
ACF7
  8
0
 10
-18.02765256220798
 20
9.0564644094451978
 30
0.0
 40
0.687341105662727
210
0.0
220
0.0
230
-1.0
 50
170.11247000000279
 51
182.13048099999759
  0
ARC
  5
ACF8
  8
0
 10
-18.250975362531019
 20
9.0346466444184443
 30
0.0
 40
0.5164129621391583
210
0.0
220
0.0
230
-1.0
 50
184.7396419999973
 51
206.15299100000109
  0
ARC
  5
ACF9
  8
0
 10
-18.206082290851398
 20
9.0582022621094822
 30
0.0
 40
0.5622433680867739
210
0.0
220
0.0
230
-1.0
 50
162.1588269999971
 51
170.58718400000211
  0
ARC
  5
ACFA
  8
0
 10
-18.27954950282459
 20
9.1061984341918105
 30
0.0
 40
0.4306847193065059
210
0.0
220
0.0
230
-1.0
 50
151.64118499999981
 51
170.87613400000231
  0
ARC
  5
ACFB
  8
0
 10
-19.103277110942908
 20
9.0540308335196187
 30
0.0
 40
0.7805942214231352
210
0.0
220
0.0
230
-1.0
 50
349.85491799999681
 51
4.559676999999855
  0
LINE
  5
ACFC
  8
0
 10
18.336549323636341
 20
8.9084325475514561
 30
0.0
 11
18.337320732273039
 21
8.9043688250728721
 31
0.0
  0
LINE
  5
ACFD
  8
0
 10
18.33561490034435
 20
8.9124642492943167
 30
0.0
 11
18.336549323636341
 21
8.9084325475514561
 31
0.0
  0
LINE
  5
ACFE
  8
0
 10
18.33488715634747
 20
8.9165367047007678
 30
0.0
 11
18.33561490034435
 21
8.9124642492943167
 31
0.0
  0
ARC
  5
ACFF
  8
0
 10
-18.84146829708876
 20
9.0824230378141237
 30
0.0
 40
0.5174128823908736
210
0.0
220
0.0
230
-1.0
 50
3.7304230000010872
 51
18.889442000000461
  0
ARC
  5
AD00
  8
0
 10
-18.501584196273161
 20
9.2414132688124937
 30
0.0
 40
0.171603489952675
210
0.0
220
0.0
230
-1.0
 50
128.08877299999921
 51
156.1612599999996
  0
ARC
  5
AD01
  8
0
 10
18.327404275830901
 20
10.248401567875129
 30
0.0
 40
0.1231360796950428
 50
61.781831376361247
 51
101.4854784804825
  0
ARC
  5
AD02
  8
0
 10
18.321780486963629
 20
10.22260284553613
 30
0.0
 40
0.0937392487503252
 50
42.568796895839697
 51
104.4247059999998
  0
LINE
  5
AD03
  8
0
 10
18.310535498663022
 20
10.198380920426651
 30
0.0
 11
18.252697358280219
 21
10.25621906080945
 31
0.0
  0
LINE
  5
AD04
  8
0
 10
18.31503430011254
 20
10.198901679045539
 30
0.0
 11
18.26530464182963
 21
10.19314522403055
 31
0.0
  0
LINE
  5
AD05
  8
0
 10
18.27770831051248
 20
9.9962657295782265
 30
0.0
 11
18.314204671956102
 21
10.002141534608651
 31
0.0
  0
LINE
  5
AD06
  8
0
 10
18.211985563769161
 20
10.1767301597204
 30
0.0
 11
18.347888381269669
 21
10.312632977220909
 31
0.0
  0
LINE
  5
AD07
  8
0
 10
18.490855297242732
 20
10.1311982068368
 30
0.0
 11
18.306900030404691
 21
10.315153473674849
 31
0.0
  0
LINE
  5
AD08
  8
0
 10
18.42232391686856
 20
10.143161044716051
 30
0.0
 11
18.054446917482071
 21
10.51103804410252
 31
0.0
  0
LINE
  5
AD09
  8
0
 10
18.287543419587202
 20
10.195719473043511
 30
0.0
 11
18.384285239464798
 21
10.292461292921111
 31
0.0
  0
LINE
  5
AD0A
  8
0
 10
18.283154601036031
 20
9.9084879420177145
 30
0.0
 11
18.33057340415828
 21
9.9559067451399841
 31
0.0
  0
LINE
  5
AD0B
  8
0
 10
18.319131498814979
 20
9.8007296505440902
 30
0.0
 11
18.295868434210661
 21
9.8089327808765958
 31
0.0
  0
LINE
  5
AD0C
  8
0
 10
18.30261171008577
 20
9.8888740034462899
 30
0.0
 11
18.334840580731662
 21
9.8682191733266702
 31
0.0
  0
ARC
  5
AD0D
  8
0
 10
18.398892240873199
 20
10.429932743783629
 30
0.0
 40
0.6904776822892869
 50
255.65818500000009
 51
263.46686500000021
  0
LINE
  5
AD0E
  8
0
 10
18.29213096223442
 20
9.7477586757313546
 30
0.0
 11
18.46918810020281
 21
9.9248158136997375
 31
0.0
  0
LINE
  5
AD0F
  8
0
 10
18.401049287653368
 20
9.8250244189616751
 30
0.0
 11
18.235430918019372
 21
9.9906427885956788
 31
0.0
  0
LINE
  5
AD10
  8
0
 10
18.311339694647231
 20
9.7450283844830636
 30
0.0
 11
18.1854480906199
 21
9.8709199885103942
 31
0.0
  0
LINE
  5
AD11
  8
0
 10
18.314528115493982
 20
9.9681141336159982
 30
0.0
 11
18.285174487386641
 21
9.9974677617233425
 31
0.0
  0
LINE
  5
AD12
  8
0
 10
18.248352216779772
 20
9.9302541002563913
 30
0.0
 11
18.384752677046471
 21
10.066654560523091
 31
0.0
  0
LINE
  5
AD13
  8
0
 10
18.221043251939289
 20
9.9887292127464136
 30
0.0
 11
18.27770831051248
 21
9.9962657295782265
 31
0.0
  0
LINE
  5
AD14
  8
0
 10
18.069788939627419
 20
10.00653856383814
 30
0.0
 11
18.070093136618119
 21
9.9903637257634728
 31
0.0
  0
LINE
  5
AD15
  8
0
 10
18.069203261246329
 20
9.9871648178839578
 30
0.0
 11
18.044937570504221
 21
10.011430508626059
 31
0.0
  0
ARC
  5
AD16
  8
0
 10
-17.87012655213098
 20
9.9812101617703703
 30
0.0
 40
0.0398570832212114
210
0.0
220
0.0
230
-1.0
 50
148.73626799999801
 51
192.3384419719857
  0
LINE
  5
AD17
  8
0
 10
17.90950253621952
 20
9.9873842171606082
 30
0.0
 11
17.97024098356108
 21
10.048122664502159
 31
0.0
  0
LINE
  5
AD18
  8
0
 10
17.856240993577181
 20
9.8775541320233415
 30
0.0
 11
17.995314293097788
 21
10.016627431543951
 31
0.0
  0
ARC
  5
AD19
  8
0
 10
17.76730942476355
 20
9.8400642135752534
 30
0.0
 40
0.192508664007096
 50
47.689770000002021
 51
68.299463000000586
  0
ARC
  5
AD1A
  8
0
 10
-17.58175217141466
 20
10.287834906440811
 30
0.0
 40
0.356034195594385
210
0.0
220
0.0
230
-1.0
 50
232.7776379999994
 51
239.84222700000129
  0
LINE
  5
AD1B
  8
0
 10
17.427172986072222
 20
9.9576030069727022
 30
0.0
 11
17.469456205447141
 21
9.9998862263476251
 31
0.0
  0
ARC
  5
AD1C
  8
0
 10
17.376117916679821
 20
9.7354219042635961
 30
0.0
 40
0.2804521595662558
 50
28.789011999997768
 51
77.471192000000713
  0
LINE
  5
AD1D
  8
0
 10
17.186459072409239
 20
9.9648123268022673
 30
0.0
 11
17.11644351775082
 21
10.034827881460689
 31
0.0
  0
LINE
  5
AD1E
  8
0
 10
17.200920366542899
 20
9.9576245574230722
 30
0.0
 11
17.285039031178769
 21
10.04174322205894
 31
0.0
  0
LINE
  5
AD1F
  8
0
 10
17.41773226761741
 20
9.9598133015737957
 30
0.0
 11
17.357980978191161
 21
10.019564591000041
 31
0.0
  0
LINE
  5
AD20
  8
0
 10
17.278013864102331
 20
9.9298260776041047
 30
0.0
 11
17.145013549044979
 21
10.062826392661441
 31
0.0
  0
LINE
  5
AD21
  8
0
 10
17.336227539784559
 20
9.9797946456748861
 30
0.0
 11
17.375543904037752
 21
10.01911100992808
 31
0.0
  0
LINE
  5
AD22
  8
0
 10
17.28944000663131
 20
9.9749684775700445
 30
0.0
 11
17.18705175908212
 21
10.07735672511923
 31
0.0
  0
LINE
  5
AD23
  8
0
 10
17.060881550702842
 20
9.9307228265728611
 30
0.0
 11
17.20804272551575
 21
10.077884001385771
 31
0.0
  0
LINE
  5
AD24
  8
0
 10
17.094698831046792
 20
9.9079715644218922
 30
0.0
 11
17.259412953154499
 21
10.072685686529599
 31
0.0
  0
ARC
  5
AD25
  8
0
 10
17.255488228300301
 20
10.006174911411319
 30
0.0
 40
0.0849397129691308
 50
317.1022425865325
 51
8.6291783757405032
  0
ARC
  5
AD26
  8
0
 10
17.102207791506139
 20
9.9983421899323641
 30
0.0
 40
0.188685539483754
 50
331.52398972244652
 51
7.6462551798543608
  0
LINE
  5
AD27
  8
0
 10
17.615061279923768
 20
9.8190528317623542
 30
0.0
 11
17.42107759623709
 21
10.013036515449031
 31
0.0
  0
LINE
  5
AD28
  8
0
 10
17.377024283814769
 20
9.9640228472101668
 30
0.0
 11
17.425142265964599
 21
10.01214082936
 31
0.0
  0
LINE
  5
AD29
  8
0
 10
17.80436302080512
 20
9.9388132442411461
 30
0.0
 11
17.869044553987159
 21
10.003494777423169
 31
0.0
  0
LINE
  5
AD2A
  8
0
 10
17.781139708716989
 20
9.9721584746479266
 30
0.0
 11
17.83016870718663
 21
10.021187473117561
 31
0.0
  0
LINE
  5
AD2B
  8
0
 10
17.9082493519449
 20
9.8729939478961413
 30
0.0
 11
18.046834514390628
 21
10.011579110341881
 31
0.0
  0
LINE
  5
AD2C
  8
0
 10
18.05779915692132
 20
9.8854318372191301
 30
0.0
 11
17.815086615395959
 21
10.12814437874448
 31
0.0
  0
LINE
  5
AD2D
  8
0
 10
18.06904359958282
 20
9.9307559370525382
 30
0.0
 11
17.854126955236762
 21
10.145672581398591
 31
0.0
  0
LINE
  5
AD2E
  8
0
 10
18.03718183766194
 20
9.7929120714886562
 30
0.0
 11
17.811539852447751
 21
10.01855405670285
 31
0.0
  0
LINE
  5
AD2F
  8
0
 10
17.655532856685848
 20
9.6202774526370902
 30
0.0
 11
17.740519203770418
 21
9.7052637997216564
 31
0.0
  0
LINE
  5
AD30
  8
0
 10
17.578224829016431
 20
9.5995379674626022
 30
0.0
 11
17.698888131865839
 21
9.7202012703120104
 31
0.0
  0
LINE
  5
AD31
  8
0
 10
17.686337753091699
 20
9.6346392736045772
 30
0.0
 11
17.593570120113512
 21
9.7274069065827717
 31
0.0
  0
ARC
  5
AD32
  8
0
 10
17.536621855192049
 20
9.9090718103354902
 30
0.0
 40
0.3123171582137136
 50
267.76878363774881
 51
297.88626264069558
  0
LINE
  5
AD33
  8
0
 10
17.77011209440435
 20
9.6074334747868502
 30
0.0
 11
17.62233359206304
 21
9.7552119771281696
 31
0.0
  0
ARC
  5
AD34
  8
0
 10
-17.741149939051649
 20
9.8218123941335236
 30
0.0
 40
0.1100494472084356
210
0.0
220
0.0
230
-1.0
 50
288.03428599999961
 51
324.90418299999811
  0
ARC
  5
AD35
  8
0
 10
17.64293797569648
 20
9.7583662169977288
 30
0.0
 40
0.0081711095969866
 50
1.2188750000012081
 51
141.91122700000059
  0
LINE
  5
AD36
  8
0
 10
17.605736733898919
 20
9.7718088352922905
 30
0.0
 11
17.567323193282029
 21
9.8102223759091771
 31
0.0
  0
LINE
  5
AD37
  8
0
 10
17.52212458810564
 20
9.7422838960957137
 30
0.0
 11
17.439418983995189
 21
9.8249895002061578
 31
0.0
  0
LINE
  5
AD38
  8
0
 10
17.575921410135681
 20
9.766940176066619
 30
0.0
 11
17.612615498093639
 21
9.8036342640245664
 31
0.0
  0
LINE
  5
AD39
  8
0
 10
17.541208446907291
 20
9.7797685797889926
 30
0.0
 11
17.47249578516978
 21
9.8484812415264997
 31
0.0
  0
LINE
  5
AD3A
  8
0
 10
17.55694687525023
 20
9.861102726171012
 30
0.0
 11
17.600075226807402
 21
9.9042310777281841
 31
0.0
  0
LINE
  5
AD3B
  8
0
 10
17.534198836980838
 20
9.8949232303965573
 30
0.0
 11
17.57371606586862
 21
9.9344404592843247
 31
0.0
  0
LINE
  5
AD3C
  8
0
 10
17.503285066254971
 20
9.9205780021656054
 30
0.0
 11
17.543302002432291
 21
9.9605949383429202
 31
0.0
  0
LINE
  5
AD3D
  8
0
 10
17.468273853755999
 20
9.9421353321615555
 30
0.0
 11
17.50869662365583
 21
9.9825581020613896
 31
0.0
  0
LINE
  5
AD3E
  8
0
 10
17.450859146335581
 20
9.7550149972563673
 30
0.0
 11
17.518284791411428
 21
9.8224406423322108
 31
0.0
  0
LINE
  5
AD3F
  8
0
 10
17.612726411409952
 20
9.7729502066947518
 30
0.0
 11
17.61217187048431
 21
9.7877437866636683
 31
0.0
  0
LINE
  5
AD40
  8
0
 10
17.56799053243363
 20
9.7656451124544201
 30
0.0
 11
17.612726411409952
 21
9.7729502066947518
 31
0.0
  0
LINE
  5
AD41
  8
0
 10
17.568367503824
 20
9.7804430588869238
 30
0.0
 11
17.56799053243363
 21
9.7656451124544201
 31
0.0
  0
LINE
  5
AD42
  8
0
 10
17.598021179907018
 20
9.7415919804584448
 30
0.0
 11
17.598021179907018
 21
9.7415919804584448
 31
0.0
  0
ARC
  5
AD43
  8
0
 10
-17.733849211274929
 20
9.7923067415240421
 30
0.0
 40
0.121761759094248
210
0.0
220
0.0
230
-1.0
 50
357.85241499999842
 51
16.397617999997738
  0
ARC
  5
AD44
  8
0
 10
-17.322112034671228
 20
9.7867133011641272
 30
0.0
 40
0.2463355209924464
210
0.0
220
0.0
230
-1.0
 50
160.11919100000131
 51
181.4587560000019
  0
ARC
  5
AD45
  8
0
 10
17.302960723649299
 20
9.579067562021919
 30
0.0
 40
0.3249537049755656
 50
43.994913999999973
 51
55.276012999998258
  0
ARC
  5
AD46
  8
0
 10
-17.34569967309816
 20
9.9398393710357524
 30
0.0
 40
0.1482356302128068
210
0.0
220
0.0
230
-1.0
 50
223.97405474886031
 51
234.3529789999981
  0
ARC
  5
AD47
  8
0
 10
17.476040078427651
 20
9.8190382340176257
 30
0.0
 40
0.0296555678729252
 50
66.085250000001281
 51
142.9294577609416
  0
ARC
  5
AD48
  8
0
 10
17.50400728022781
 20
9.7860146669267962
 30
0.0
 40
0.0377218823343608
 50
307.5507999999993
 51
29.82933499999946
  0
ARC
  5
AD49
  8
0
 10
-17.40680833651631
 20
9.7728716103433726
 30
0.0
 40
0.176422610700025
210
0.0
220
0.0
230
-1.0
 50
121.046586
 51
146.4073529999998
  0
LINE
  5
AD4A
  8
0
 10
17.62222268957602
 20
9.8684599646050302
 30
0.0
 11
17.507470909206049
 21
9.9832117449749944
 31
0.0
  0
LINE
  5
AD4B
  8
0
 10
17.56687916911465
 20
9.8144664775405062
 30
0.0
 11
17.622045959177211
 21
9.8696332676030636
 31
0.0
  0
ARC
  5
AD4C
  8
0
 10
17.542816412093512
 20
9.8570992450543145
 30
0.0
 40
0.0802148543122774
 50
337.71441199999703
 51
9.6052040000027841
  0
ARC
  5
AD4D
  8
0
 10
-17.595745232986712
 20
9.8175536362639306
 30
0.0
 40
0.0677747984295834
210
0.0
220
0.0
230
-1.0
 50
233.0272379999993
 51
258.08485299999933
  0
LINE
  5
AD4E
  8
0
 10
17.395523052287231
 20
9.7562474457029396
 30
0.0
 11
17.48618147150718
 21
9.8469058649228884
 31
0.0
  0
ARC
  5
AD4F
  8
0
 10
-17.375372706827012
 20
9.7576180961686916
 30
0.0
 40
0.2065846883947796
210
0.0
220
0.0
230
-1.0
 50
96.29390800000013
 51
126.3419160000003
  0
ARC
  5
AD50
  8
0
 10
-17.42833645943206
 20
9.7299012383034462
 30
0.0
 40
0.0337338452314498
210
0.0
220
0.0
230
-1.0
 50
67.093030000000098
 51
155.40798099999881
  0
ARC
  5
AD51
  8
0
 10
-17.42113907130291
 20
9.8291131219100336
 30
0.0
 40
0.0146523976332142
210
0.0
220
0.0
230
-1.0
 50
221.6335389999993
 51
344.74623610313921
  0
LINE
  5
AD52
  8
0
 10
17.483879439057191
 20
9.6183296624932098
 30
0.0
 11
17.537591233722061
 21
9.6720414571580662
 31
0.0
  0
LINE
  5
AD53
  8
0
 10
17.463497859173302
 20
9.654516625104236
 30
0.0
 11
17.532235163302069
 21
9.723253929232996
 31
0.0
  0
LINE
  5
AD54
  8
0
 10
17.55403115190736
 20
9.5972402473041498
 30
0.0
 11
17.459683682824839
 21
9.6915877163866622
 31
0.0
  0
ARC
  5
AD55
  8
0
 10
-17.48319380191699
 20
9.7694919672217111
 30
0.0
 40
0.1181274055738212
210
0.0
220
0.0
230
-1.0
 50
198.6215790000025
 51
214.50852300000159
  0
ARC
  5
AD56
  8
0
 10
17.698866557344829
 20
9.5863682897986564
 30
0.0
 40
0.1658455794493478
 50
135.5201810000006
 51
149.34263499999781
  0
ARC
  5
AD57
  8
0
 10
-17.57167873900984
 20
9.7021450822623976
 30
0.0
 40
0.0423445122025528
210
0.0
220
0.0
230
-1.0
 50
325.61965500000082
 51
28.02068400000239
  0
LINE
  5
AD58
  8
0
 10
17.539000353279899
 20
9.6698243511154942
 30
0.0
 11
17.539000353279899
 21
9.6698243511154942
 31
0.0
  0
ARC
  5
AD59
  8
0
 10
-17.547195975466739
 20
9.6765299490600682
 30
0.0
 40
0.0106017745465712
210
0.0
220
0.0
230
-1.0
 50
211.8659779999972
 51
9.2461130000011398
  0
ARC
  5
AD5A
  8
0
 10
17.524424239547351
 20
9.6389337430075557
 30
0.0
 40
0.0419423262639052
 50
239.800845837184
 51
270.05247339540972
  0
LINE
  5
AD5B
  8
0
 10
17.480556677548918
 20
9.6201848278794841
 30
0.0
 11
17.480556677548918
 21
9.6201848278794841
 31
0.0
  0
ARC
  5
AD5C
  8
0
 10
17.548230827430299
 20
9.6784075285722722
 30
0.0
 40
0.088036646790761
 50
189.66158799999729
 51
239.33224367353489
  0
LINE
  5
AD5D
  8
0
 10
17.647361797076421
 20
9.6170466871249403
 30
0.0
 11
17.57164608259507
 21
9.6927624016062879
 31
0.0
  0
LINE
  5
AD5E
  8
0
 10
17.568367503824
 20
9.4227117642917602
 30
0.0
 11
17.648675509367902
 21
9.4227117642917602
 31
0.0
  0
LINE
  5
AD5F
  8
0
 10
17.593940073340551
 20
9.7283902967765599
 30
0.0
 11
17.619705074574959
 21
9.7541552980109714
 31
0.0
  0
LINE
  5
AD60
  8
0
 10
17.519410484387159
 20
9.5972921653282484
 30
0.0
 11
17.66473603807032
 21
9.7426177190114061
 31
0.0
  0
LINE
  5
AD61
  8
0
 10
17.459138254737219
 20
9.7067255631630758
 30
0.0
 11
17.541595856022859
 21
9.7891831644487297
 31
0.0
  0
ARC
  5
AD62
  8
0
 10
17.611286933784111
 20
9.7348688188260422
 30
0.0
 40
0.0164441033535366
 50
95.403790999999785
 51
190.8564130000025
  0
ARC
  5
AD63
  8
0
 10
18.26329461291024
 20
9.7281211764868658
 30
0.0
 40
0.8044409367129516
 50
178.8732990000031
 51
184.5981099999978
  0
ARC
  5
AD64
  8
0
 10
-17.544720190389359
 20
9.7420880392753588
 30
0.0
 40
0.0225964511031738
210
0.0
220
0.0
230
-1.0
 50
297.46491099999861
 51
38.34557500000075
  0
LINE
  5
AD65
  8
0
 10
17.358806917354912
 20
9.9621701093413701
 30
0.0
 11
17.337373929410742
 21
9.9836030972855383
 31
0.0
  0
LINE
  5
AD66
  8
0
 10
17.241064871497379
 20
9.8280634348927904
 30
0.0
 11
17.28530732589811
 21
9.8723058892935143
 31
0.0
  0
LINE
  5
AD67
  8
0
 10
17.256202366286988
 20
9.7866323871874741
 30
0.0
 11
17.358191611026449
 21
9.8886216319269238
 31
0.0
  0
LINE
  5
AD68
  8
0
 10
17.278676455677338
 20
9.7525379340828948
 30
0.0
 11
17.38956909835985
 21
9.8634305767654098
 31
0.0
  0
LINE
  5
AD69
  8
0
 10
17.2920780823769
 20
9.7460562318447543
 30
0.0
 11
17.259051808981571
 21
9.7790825052400834
 31
0.0
  0
ARC
  5
AD6A
  8
0
 10
-17.363950037051961
 20
9.8680503367195342
 30
0.0
 40
0.0926665540989216
210
0.0
220
0.0
230
-1.0
 50
60.068312362020961
 51
76.328692999999802
  0
LINE
  5
AD6B
  8
0
 10
17.228254829800498
 20
9.9392489110168682
 30
0.0
 11
17.227596889529561
 21
9.9391757291559681
 31
0.0
  0
LINE
  5
AD6C
  8
0
 10
17.228857819714161
 20
9.9393670651818322
 30
0.0
 11
17.228254829800498
 21
9.9392489110168682
 31
0.0
  0
LINE
  5
AD6D
  8
0
 10
17.22940608100506
 20
9.9395372075587076
 30
0.0
 11
17.228857819714161
 21
9.9393670651818322
 31
0.0
  0
LINE
  5
AD6E
  8
0
 10
17.229899835407689
 20
9.9397663540548802
 30
0.0
 11
17.22940608100506
 21
9.9395372075587076
 31
0.0
  0
LINE
  5
AD6F
  8
0
 10
17.230337047513071
 20
9.9400580983792661
 30
0.0
 11
17.229899835407689
 21
9.9397663540548802
 31
0.0
  0
LINE
  5
AD70
  8
0
 10
17.230706653338249
 20
9.9404023454530943
 30
0.0
 11
17.230337047513071
 21
9.9400580983792661
 31
0.0
  0
LINE
  5
AD71
  8
0
 10
17.230995331756748
 20
9.9407855780004866
 30
0.0
 11
17.230706653338249
 21
9.9404023454530943
 31
0.0
  0
LINE
  5
AD72
  8
0
 10
17.23118976164217
 20
9.9411942787446606
 30
0.0
 11
17.230995331756748
 21
9.9407855780004866
 31
0.0
  0
LINE
  5
AD73
  8
0
 10
17.231276621868052
 20
9.9416149304101964
 30
0.0
 11
17.23118976164217
 21
9.9411942787446606
 31
0.0
  0
LINE
  5
AD74
  8
0
 10
17.231242591307939
 20
9.9420340157203082
 30
0.0
 11
17.231276621868052
 21
9.9416149304101964
 31
0.0
  0
LINE
  5
AD75
  8
0
 10
17.231074348835421
 20
9.9424380173986702
 30
0.0
 11
17.231242591307939
 21
9.9420340157203082
 31
0.0
  0
LINE
  5
AD76
  8
0
 10
17.230758573324021
 20
9.9428134181696262
 30
0.0
 11
17.231074348835421
 21
9.9424380173986702
 31
0.0
  0
LINE
  5
AD77
  8
0
 10
17.230287768442039
 20
9.9431505934292002
 30
0.0
 11
17.230758573324021
 21
9.9428134181696262
 31
0.0
  0
LINE
  5
AD78
  8
0
 10
17.229677737036649
 20
9.9434554892627602
 30
0.0
 11
17.230287768442039
 21
9.9431505934292002
 31
0.0
  0
LINE
  5
AD79
  8
0
 10
17.228950106749771
 20
9.9437379444277596
 30
0.0
 11
17.229677737036649
 21
9.9434554892627602
 31
0.0
  0
LINE
  5
AD7A
  8
0
 10
17.228126505223301
 20
9.9440077976819339
 30
0.0
 11
17.228950106749771
 21
9.9437379444277596
 31
0.0
  0
ARC
  5
AD7B
  8
0
 10
-17.097477839665789
 20
10.08828459151959
 30
0.0
 40
0.3236190224852848
210
0.0
220
0.0
230
-1.0
 50
217.20895080399799
 51
228.0843192545702
  0
LINE
  5
AD7C
  8
0
 10
17.30973456477227
 20
9.7434663864055437
 30
0.0
 11
17.303263465152
 21
9.7439394200034641
 31
0.0
  0
LINE
  5
AD7D
  8
0
 10
17.316284260744212
 20
9.7432014875903405
 30
0.0
 11
17.30973456477227
 21
9.7434663864055437
 31
0.0
  0
LINE
  5
AD7E
  8
0
 10
17.322730617068579
 20
9.7439394200034641
 30
0.0
 11
17.316284260744212
 21
9.7432014875903405
 31
0.0
  0
ARC
  5
AD7F
  8
0
 10
17.306913829040351
 20
9.7938262709897117
 30
0.0
 40
0.0500207558816598
 50
198.43494899999851
 51
265.81508399999967
  0
ARC
  5
AD80
  8
0
 10
19.56280378033382
 20
10.6528669288125
 30
0.0
 40
2.4638937404821539
 50
199.14079692781311
 51
200.79779800000051
  0
ARC
  5
AD81
  8
0
 10
-17.361771171525291
 20
9.9310103808654642
 30
0.0
 40
0.0963998808029242
210
0.0
220
0.0
230
-1.0
 50
299.9342454438476
 51
346.42198815912582
  0
ARC
  5
AD82
  8
0
 10
-17.42722301111683
 20
9.9434897349242402
 30
0.0
 40
0.0881807401021434
210
0.0
220
0.0
230
-1.0
 50
297.97947399999953
 51
324.74037614796919
  0
LINE
  5
AD83
  8
0
 10
17.13345435988883
 20
9.8901585507690086
 30
0.0
 11
17.190044394066419
 21
9.9467485849465902
 31
0.0
  0
LINE
  5
AD84
  8
0
 10
17.201172626293459
 20
9.9436464424647966
 30
0.0
 11
17.200052326476978
 21
9.9439816638073282
 31
0.0
  0
LINE
  5
AD85
  8
0
 10
17.202215273551289
 20
9.9432624466394302
 30
0.0
 11
17.201172626293459
 21
9.9436464424647966
 31
0.0
  0
LINE
  5
AD86
  8
0
 10
17.203188708375158
 20
9.9428404887300985
 30
0.0
 11
17.202215273551289
 21
9.9432624466394302
 31
0.0
  0
LINE
  5
AD87
  8
0
 10
17.20410709050276
 20
9.9423965506784882
 30
0.0
 11
17.203188708375158
 21
9.9428404887300985
 31
0.0
  0
LINE
  5
AD88
  8
0
 10
17.204984579671802
 20
9.9419466144242961
 30
0.0
 11
17.20410709050276
 21
9.9423965506784882
 31
0.0
  0
LINE
  5
AD89
  8
0
 10
17.205835335619931
 20
9.9415066619078516
 30
0.0
 11
17.204984579671802
 21
9.9419466144242961
 31
0.0
  0
LINE
  5
AD8A
  8
0
 10
17.206673518084891
 20
9.9410926750699602
 30
0.0
 11
17.205835335619931
 21
9.9415066619078516
 31
0.0
  0
LINE
  5
AD8B
  8
0
 10
17.207513286804339
 20
9.9407206358507665
 30
0.0
 11
17.206673518084891
 21
9.9410926750699602
 31
0.0
  0
LINE
  5
AD8C
  8
0
 10
17.208368801515959
 20
9.9404065261908201
 30
0.0
 11
17.207513286804339
 21
9.9407206358507665
 31
0.0
  0
LINE
  5
AD8D
  8
0
 10
17.209251615155718
 20
9.9401618691772384
 30
0.0
 11
17.208368801515959
 21
9.9404065261908201
 31
0.0
  0
LINE
  5
AD8E
  8
0
 10
17.210162853452609
 20
9.9399803524834098
 30
0.0
 11
17.209251615155718
 21
9.9401618691772384
 31
0.0
  0
LINE
  5
AD8F
  8
0
 10
17.211101035333879
 20
9.9398512049301644
 30
0.0
 11
17.210162853452609
 21
9.9399803524834098
 31
0.0
  0
LINE
  5
AD90
  8
0
 10
17.21206467972679
 20
9.9397636553373943
 30
0.0
 11
17.211101035333879
 21
9.9398512049301644
 31
0.0
  0
LINE
  5
AD91
  8
0
 10
17.213052305558602
 20
9.9397069325254961
 30
0.0
 11
17.21206467972679
 21
9.9397636553373943
 31
0.0
  0
LINE
  5
AD92
  8
0
 10
17.215093577247931
 20
9.9396428825255043
 30
0.0
 11
17.21406243175656
 21
9.9396702653148168
 31
0.0
  0
LINE
  5
AD93
  8
0
 10
17.216144260959979
 20
9.9396140129783817
 30
0.0
 11
17.215093577247931
 21
9.9396428825255043
 31
0.0
  0
LINE
  5
AD94
  8
0
 10
17.217211704578361
 20
9.9395751421623117
 30
0.0
 11
17.216144260959979
 21
9.9396140129783817
 31
0.0
  0
LINE
  5
AD95
  8
0
 10
17.21828794082246
 20
9.939526782247178
 30
0.0
 11
17.217211704578361
 21
9.9395751421623117
 31
0.0
  0
LINE
  5
AD96
  8
0
 10
17.219363705170039
 20
9.9394717020711596
 30
0.0
 11
17.21828794082246
 21
9.939526782247178
 31
0.0
  0
LINE
  5
AD97
  8
0
 10
17.22042973309895
 20
9.9394126704726133
 30
0.0
 11
17.219363705170039
 21
9.9394717020711596
 31
0.0
  0
LINE
  5
AD98
  8
0
 10
17.221476760086919
 20
9.9393524562897255
 30
0.0
 11
17.22042973309895
 21
9.9394126704726133
 31
0.0
  0
LINE
  5
AD99
  8
0
 10
17.222495521611759
 20
9.9392938283613148
 30
0.0
 11
17.221476760086919
 21
9.9393524562897255
 31
0.0
  0
LINE
  5
AD9A
  8
0
 10
17.22347675315126
 20
9.9392395555262283
 30
0.0
 11
17.222495521611759
 21
9.9392938283613148
 31
0.0
  0
LINE
  5
AD9B
  8
0
 10
17.224411190183218
 20
9.9391924066226238
 30
0.0
 11
17.22347675315126
 21
9.9392395555262283
 31
0.0
  0
LINE
  5
AD9C
  8
0
 10
17.225291149228202
 20
9.9391558583336064
 30
0.0
 11
17.224411190183218
 21
9.9391924066226238
 31
0.0
  0
LINE
  5
AD9D
  8
0
 10
17.22611527097791
 20
9.9391362187213801
 30
0.0
 11
17.225291149228202
 21
9.9391558583336064
 31
0.0
  0
LINE
  5
AD9E
  8
0
 10
17.226883777166879
 20
9.939140503693352
 30
0.0
 11
17.22611527097791
 21
9.9391362187213801
 31
0.0
  0
LINE
  5
AD9F
  8
0
 10
17.22627789901922
 20
9.9445490534892542
 30
0.0
 11
17.227228560099149
 21
9.9442748877834202
 31
0.0
  0
LINE
  5
ADA0
  8
0
 10
17.225296149625429
 20
9.9448401335578183
 30
0.0
 11
17.22627789901922
 21
9.9445490534892542
 31
0.0
  0
LINE
  5
ADA1
  8
0
 10
17.224304939559669
 20
9.9451579667463577
 30
0.0
 11
17.225296149625429
 21
9.9448401335578183
 31
0.0
  0
LINE
  5
ADA2
  8
0
 10
17.223320553515279
 20
9.9455111296319956
 30
0.0
 11
17.224304939559669
 21
9.9451579667463577
 31
0.0
  0
LINE
  5
ADA3
  8
0
 10
17.22233790439109
 20
9.9459031500668882
 30
0.0
 11
17.223320553515279
 21
9.9455111296319956
 31
0.0
  0
LINE
  5
ADA4
  8
0
 10
17.22134656213748
 20
9.9463362937233342
 30
0.0
 11
17.22233790439109
 21
9.9459031500668882
 31
0.0
  0
LINE
  5
ADA5
  8
0
 10
17.220336096704681
 20
9.9468128262728897
 30
0.0
 11
17.22134656213748
 21
9.9463362937233342
 31
0.0
  0
LINE
  5
ADA6
  8
0
 10
17.219296078043008
 20
9.9473350133869118
 30
0.0
 11
17.220336096704681
 21
9.9468128262728897
 31
0.0
  0
LINE
  5
ADA7
  8
0
 10
17.21821607610276
 20
9.9479051207376799
 30
0.0
 11
17.219296078043008
 21
9.9473350133869118
 31
0.0
  0
LINE
  5
ADA8
  8
0
 10
17.217085660834229
 20
9.9485254139967765
 30
0.0
 11
17.21821607610276
 21
9.9479051207376799
 31
0.0
  0
LINE
  5
ADA9
  8
0
 10
17.215894402187711
 20
9.9491981588359977
 30
0.0
 11
17.217085660834229
 21
9.9485254139967765
 31
0.0
  0
LINE
  5
ADAA
  8
0
 10
17.214632593593361
 20
9.9499248927088502
 30
0.0
 11
17.215894402187711
 21
9.9491981588359977
 31
0.0
  0
LINE
  5
ADAB
  8
0
 10
17.213293422400849
 20
9.9507042401987675
 30
0.0
 11
17.214632593593361
 21
9.9499248927088502
 31
0.0
  0
LINE
  5
ADAC
  8
0
 10
17.211870799439708
 20
9.9515340976699846
 30
0.0
 11
17.213293422400849
 21
9.9507042401987675
 31
0.0
  0
LINE
  5
ADAD
  8
0
 10
17.210358635539439
 20
9.9524123614887685
 30
0.0
 11
17.211870799439708
 21
9.9515340976699846
 31
0.0
  0
LINE
  5
ADAE
  8
0
 10
17.208750841529572
 20
9.9533369280188637
 30
0.0
 11
17.210358635539439
 21
9.9524123614887685
 31
0.0
  0
LINE
  5
ADAF
  8
0
 10
17.20704132823964
 20
9.9543056936261038
 30
0.0
 11
17.208750841529572
 21
9.9533369280188637
 31
0.0
  0
LINE
  5
ADB0
  8
0
 10
17.205224006499179
 20
9.9553165546747024
 30
0.0
 11
17.20704132823964
 21
9.9543056936261038
 31
0.0
  0
LINE
  5
ADB1
  8
0
 10
17.20329278713772
 20
9.9563674075304789
 30
0.0
 11
17.205224006499179
 21
9.9553165546747024
 31
0.0
  0
LINE
  5
ADB2
  8
0
 10
17.201247732458821
 20
9.9574541806643992
 30
0.0
 11
17.20329278713772
 21
9.9563674075304789
 31
0.0
  0
LINE
  5
ADB3
  8
0
 10
17.19911351066245
 20
9.958564930972436
 30
0.0
 11
17.201247732458821
 21
9.9574541806643992
 31
0.0
  0
LINE
  5
ADB4
  8
0
 10
17.21406243175656
 20
9.9396702653148168
 30
0.0
 11
17.213052305558602
 21
9.9397069325254961
 31
0.0
  0
LINE
  5
ADB5
  8
0
 10
17.174256220493952
 20
9.9606950054337542
 30
0.0
 11
17.173826790653571
 21
9.9614121943002303
 31
0.0
  0
LINE
  5
ADB6
  8
0
 10
17.19248403930829
 20
9.9619019349765878
 30
0.0
 11
17.194700844413191
 21
9.9608027191261481
 31
0.0
  0
LINE
  5
ADB7
  8
0
 10
17.174694420218071
 20
9.9599852418307364
 30
0.0
 11
17.174256220493952
 21
9.9606950054337542
 31
0.0
  0
LINE
  5
ADB8
  8
0
 10
17.175137584805022
 20
9.9592892996777138
 30
0.0
 11
17.174694420218071
 21
9.9599852418307364
 31
0.0
  0
LINE
  5
ADB9
  8
0
 10
17.175583199605569
 20
9.9586125413495665
 30
0.0
 11
17.175137584805022
 21
9.9592892996777138
 31
0.0
  0
LINE
  5
ADBA
  8
0
 10
17.176033911456841
 20
9.9579561939660763
 30
0.0
 11
17.175583199605569
 21
9.9586125413495665
 31
0.0
  0
LINE
  5
ADBB
  8
0
 10
17.17649365756759
 20
9.9573204508346862
 30
0.0
 11
17.176033911456841
 21
9.9579561939660763
 31
0.0
  0
LINE
  5
ADBC
  8
0
 10
17.17696637514652
 20
9.9567055052623346
 30
0.0
 11
17.17649365756759
 21
9.9573204508346862
 31
0.0
  0
LINE
  5
ADBD
  8
0
 10
17.177456001402369
 20
9.9561115505555264
 30
0.0
 11
17.17696637514652
 21
9.9567055052623346
 31
0.0
  0
LINE
  5
ADBE
  8
0
 10
17.177966473543901
 20
9.9555387800219162
 30
0.0
 11
17.177456001402369
 21
9.9561115505555264
 31
0.0
  0
LINE
  5
ADBF
  8
0
 10
17.178501728779821
 20
9.9549873869682344
 30
0.0
 11
17.177966473543901
 21
9.9555387800219162
 31
0.0
  0
LINE
  5
ADC0
  8
0
 10
17.179065704318852
 20
9.9544575647012152
 30
0.0
 11
17.178501728779821
 21
9.9549873869682344
 31
0.0
  0
LINE
  5
ADC1
  8
0
 10
17.179661214483531
 20
9.9539483888536324
 30
0.0
 11
17.179065704318852
 21
9.9544575647012152
 31
0.0
  0
LINE
  5
ADC2
  8
0
 10
17.180286582051291
 20
9.9534544643595382
 30
0.0
 11
17.179661214483531
 21
9.9539483888536324
 31
0.0
  0
LINE
  5
ADC3
  8
0
 10
17.180939006913459
 20
9.9529692784794861
 30
0.0
 11
17.180286582051291
 21
9.9534544643595382
 31
0.0
  0
LINE
  5
ADC4
  8
0
 10
17.181615688961269
 20
9.9524863184724381
 30
0.0
 11
17.180939006913459
 21
9.9529692784794861
 31
0.0
  0
LINE
  5
ADC5
  8
0
 10
17.182313828085981
 20
9.9519990715980384
 30
0.0
 11
17.181615688961269
 21
9.9524863184724381
 31
0.0
  0
LINE
  5
ADC6
  8
0
 10
17.183030624178869
 20
9.9515010251170661
 30
0.0
 11
17.182313828085981
 21
9.9519990715980384
 31
0.0
  0
LINE
  5
ADC7
  8
0
 10
17.183763277131192
 20
9.9509856662882541
 30
0.0
 11
17.183030624178869
 21
9.9515010251170661
 31
0.0
  0
LINE
  5
ADC8
  8
0
 10
17.184508986834199
 20
9.95044648237171
 30
0.0
 11
17.183763277131192
 21
9.9509856662882541
 31
0.0
  0
LINE
  5
ADC9
  8
0
 10
17.185266828920369
 20
9.9498800601725161
 30
0.0
 11
17.184508986834199
 21
9.95044648237171
 31
0.0
  0
LINE
  5
ADCA
  8
0
 10
17.186043381986959
 20
9.9492953846756702
 30
0.0
 11
17.185266828920369
 21
9.9498800601725161
 31
0.0
  0
LINE
  5
ADCB
  8
0
 10
17.186847100372429
 20
9.9487045404111996
 30
0.0
 11
17.186043381986959
 21
9.9492953846756702
 31
0.0
  0
LINE
  5
ADCC
  8
0
 10
17.187686438415248
 20
9.9481196119095259
 30
0.0
 11
17.186847100372429
 21
9.9487045404111996
 31
0.0
  0
LINE
  5
ADCD
  8
0
 10
17.188569850453881
 20
9.9475526837011259
 30
0.0
 11
17.187686438415248
 21
9.9481196119095259
 31
0.0
  0
LINE
  5
ADCE
  8
0
 10
17.189505790826779
 20
9.9470158403155438
 30
0.0
 11
17.188569850453881
 21
9.9475526837011259
 31
0.0
  0
LINE
  5
ADCF
  8
0
 10
17.190502713872441
 20
9.9465211662832118
 30
0.0
 11
17.189505790826779
 21
9.9470158403155438
 31
0.0
  0
LINE
  5
ADD0
  8
0
 10
17.19156907392928
 20
9.9460807461343848
 30
0.0
 11
17.190502713872441
 21
9.9465211662832118
 31
0.0
  0
LINE
  5
ADD1
  8
0
 10
17.192708556622669
 20
9.9457021444268321
 30
0.0
 11
17.19156907392928
 21
9.9460807461343848
 31
0.0
  0
LINE
  5
ADD2
  8
0
 10
17.1939057727256
 20
9.9453748458283826
 30
0.0
 11
17.192708556622669
 21
9.9457021444268321
 31
0.0
  0
LINE
  5
ADD3
  8
0
 10
17.195140564297851
 20
9.9450838150344225
 30
0.0
 11
17.1939057727256
 21
9.9453748458283826
 31
0.0
  0
LINE
  5
ADD4
  8
0
 10
17.196392773399271
 20
9.9448140167398762
 30
0.0
 11
17.195140564297851
 21
9.9450838150344225
 31
0.0
  0
LINE
  5
ADD5
  8
0
 10
17.197642242089721
 20
9.9445504156403786
 30
0.0
 11
17.196392773399271
 21
9.9448140167398762
 31
0.0
  0
LINE
  5
ADD6
  8
0
 10
17.198868812429009
 20
9.9442779764312945
 30
0.0
 11
17.197642242089721
 21
9.9445504156403786
 31
0.0
  0
LINE
  5
ADD7
  8
0
 10
17.194700844413191
 20
9.9608027191261481
 30
0.0
 11
17.196920941422579
 21
9.9596857474589342
 31
0.0
  0
LINE
  5
ADD8
  8
0
 10
17.170444179227271
 20
9.9686680573227022
 30
0.0
 11
17.17032792472963
 21
9.9690961351982423
 31
0.0
  0
LINE
  5
ADD9
  8
0
 10
17.1705821139577
 20
9.9682130671326306
 30
0.0
 11
17.170444179227271
 21
9.9686680573227022
 31
0.0
  0
LINE
  5
ADDA
  8
0
 10
17.170743146031789
 20
9.9677305875502498
 30
0.0
 11
17.1705821139577
 21
9.9682130671326306
 31
0.0
  0
LINE
  5
ADDB
  8
0
 10
17.170928692560391
 20
9.9672200414972778
 30
0.0
 11
17.170743146031789
 21
9.9677305875502498
 31
0.0
  0
LINE
  5
ADDC
  8
0
 10
17.171140170654379
 20
9.9666808518954824
 30
0.0
 11
17.170928692560391
 21
9.9672200414972778
 31
0.0
  0
LINE
  5
ADDD
  8
0
 10
17.171378997424629
 20
9.9661124416663824
 30
0.0
 11
17.171140170654379
 21
9.9666808518954824
 31
0.0
  0
LINE
  5
ADDE
  8
0
 10
17.171944365437369
 20
9.9648856510138941
 30
0.0
 11
17.171646589982
 21
9.9655142337317102
 31
0.0
  0
LINE
  5
ADDF
  8
0
 10
17.172272870546319
 20
9.9642272786450121
 30
0.0
 11
17.171944365437369
 21
9.9648856510138941
 31
0.0
  0
LINE
  5
ADE0
  8
0
 10
17.172629170643269
 20
9.9635443506017438
 30
0.0
 11
17.172272870546319
 21
9.9642272786450121
 31
0.0
  0
LINE
  5
ADE1
  8
0
 10
17.17300946070737
 20
9.9628432630711359
 30
0.0
 11
17.172629170643269
 21
9.9635443506017438
 31
0.0
  0
LINE
  5
ADE2
  8
0
 10
17.173409935717771
 20
9.9621304122415495
 30
0.0
 11
17.17300946070737
 21
9.9628432630711359
 31
0.0
  0
LINE
  5
ADE3
  8
0
 10
17.173826790653571
 20
9.9614121943002303
 30
0.0
 11
17.173409935717771
 21
9.9621304122415495
 31
0.0
  0
LINE
  5
ADE4
  8
0
 10
17.190301345781879
 20
9.9629694840134562
 30
0.0
 11
17.19248403930829
 21
9.9619019349765878
 31
0.0
  0
LINE
  5
ADE5
  8
0
 10
17.188183583507939
 20
9.9639914552399205
 30
0.0
 11
17.190301345781879
 21
9.9629694840134562
 31
0.0
  0
LINE
  5
ADE6
  8
0
 10
17.186161572160451
 20
9.9649539376589473
 30
0.0
 11
17.188183583507939
 21
9.9639914552399205
 31
0.0
  0
LINE
  5
ADE7
  8
0
 10
17.1842602781912
 20
9.9658457862687921
 30
0.0
 11
17.186161572160451
 21
9.9649539376589473
 31
0.0
  0
LINE
  5
ADE8
  8
0
 10
17.182481255163051
 20
9.9666669200514661
 30
0.0
 11
17.1842602781912
 21
9.9658457862687921
 31
0.0
  0
LINE
  5
ADE9
  8
0
 10
17.180820203416658
 20
9.9674200239839976
 30
0.0
 11
17.182481255163051
 21
9.9666669200514661
 31
0.0
  0
LINE
  5
ADEA
  8
0
 10
17.179272823292632
 20
9.9681077830439264
 30
0.0
 11
17.180820203416658
 21
9.9674200239839976
 31
0.0
  0
LINE
  5
ADEB
  8
0
 10
17.17783481513165
 20
9.9687328822087622
 30
0.0
 11
17.179272823292632
 21
9.9681077830439264
 31
0.0
  0
LINE
  5
ADEC
  8
0
 10
17.17650187927434
 20
9.9692980064555741
 30
0.0
 11
17.17783481513165
 21
9.9687328822087622
 31
0.0
  0
LINE
  5
ADED
  8
0
 10
17.175269716061351
 20
9.9698058407620902
 30
0.0
 11
17.17650187927434
 21
9.9692980064555741
 31
0.0
  0
LINE
  5
ADEE
  8
0
 10
17.174134025833322
 20
9.9702590701053762
 30
0.0
 11
17.175269716061351
 21
9.9698058407620902
 31
0.0
  0
LINE
  5
ADEF
  8
0
 10
17.17360268459035
 20
9.9704005509297442
 30
0.0
 11
17.174134025833322
 21
9.9702590701053762
 31
0.0
  0
LINE
  5
ADF0
  8
0
 10
17.1729725691563
 20
9.9704619514866408
 30
0.0
 11
17.17360268459035
 21
9.9704005509297442
 31
0.0
  0
LINE
  5
ADF1
  8
0
 10
17.172301006427428
 20
9.9704423336688706
 30
0.0
 11
17.1729725691563
 21
9.9704619514866408
 31
0.0
  0
LINE
  5
ADF2
  8
0
 10
17.171645323299991
 20
9.9703407593692646
 30
0.0
 11
17.172301006427428
 21
9.9704423336688706
 31
0.0
  0
LINE
  5
ADF3
  8
0
 10
17.171062846670232
 20
9.9701562904797356
 30
0.0
 11
17.171645323299991
 21
9.9703407593692646
 31
0.0
  0
LINE
  5
ADF4
  8
0
 10
17.170610903434419
 20
9.969887988893106
 30
0.0
 11
17.171062846670232
 21
9.9701562904797356
 31
0.0
  0
LINE
  5
ADF5
  8
0
 10
17.170346820488799
 20
9.9695349165019707
 30
0.0
 11
17.170610903434419
 21
9.969887988893106
 31
0.0
  0
LINE
  5
ADF6
  8
0
 10
17.17032792472963
 20
9.9690961351982423
 30
0.0
 11
17.170346820488799
 21
9.9695349165019707
 31
0.0
  0
LINE
  5
ADF7
  8
0
 10
17.200052326476978
 20
9.9439816638073282
 30
0.0
 11
17.198868812429009
 21
9.9442779764312945
 31
0.0
  0
LINE
  5
ADF8
  8
0
 10
17.196920941422579
 20
9.9596857474589342
 30
0.0
 11
17.19911351066245
 21
9.958564930972436
 31
0.0
  0
LINE
  5
ADF9
  8
0
 10
17.17818368547178
 20
9.8783193338570356
 30
0.0
 11
17.290745771004111
 21
9.9908814193893676
 31
0.0
  0
LINE
  5
ADFA
  8
0
 10
17.221228715409591
 20
9.8647958212999214
 30
0.0
 11
17.27154439458786
 21
9.91511150047819
 31
0.0
  0
LINE
  5
ADFB
  8
0
 10
17.227596889529561
 20
9.9391757291559681
 30
0.0
 11
17.226883777166879
 21
9.939140503693352
 31
0.0
  0
LINE
  5
ADFC
  8
0
 10
17.227228560099149
 20
9.9442748877834202
 30
0.0
 11
17.228126505223301
 21
9.9440077976819339
 31
0.0
  0
ARC
  5
ADFD
  8
0
 10
17.189896105045399
 20
9.8280439938391737
 30
0.0
 40
0.0482952305506364
 50
20.527675597314641
 51
86.603739140537925
  0
ARC
  5
ADFE
  8
0
 10
17.11265857944074
 20
9.4701664948402122
 30
0.0
 40
0.067156216032234
 50
242.5992509999993
 51
274.78088400000001
  0
LINE
  5
ADFF
  8
0
 10
17.327168605274132
 20
9.744461541184755
 30
0.0
 11
17.407225658023592
 21
9.824518593934215
 31
0.0
  0
ARC
  5
AE00
  8
0
 10
17.367600400940312
 20
9.8303299098731642
 30
0.0
 40
0.0397275447897666
 50
352.66540846050913
 51
62.650123999999352
  0
ARC
  5
AE01
  8
0
 10
17.244170652605209
 20
10.429932743783629
 30
0.0
 40
0.6904776822892869
 50
276.53313499999939
 51
284.3418149999996
  0
ARC
  5
AE02
  8
0
 10
-17.380985068530968
 20
9.8345886677429917
 30
0.0
 40
0.129494766805112
210
0.0
220
0.0
230
-1.0
 50
72.501451999999674
 51
97.559066999999729
  0
LINE
  5
AE03
  8
0
 10
17.3951154069401
 20
9.7561559922714096
 30
0.0
 11
17.211452088359341
 21
9.9398193108521724
 31
0.0
  0
LINE
  5
AE04
  8
0
 10
17.603779396640441
 20
9.6040605450659982
 30
0.0
 11
17.337083394220219
 21
9.8707565474862022
 31
0.0
  0
LINE
  5
AE05
  8
0
 10
18.244696331928601
 20
9.7568925879204542
 30
0.0
 11
18.296510216589311
 21
9.8087064725811643
 31
0.0
  0
LINE
  5
AE06
  8
0
 10
18.246507562676712
 20
9.8664290589485049
 30
0.0
 11
18.223803042709001
 21
9.8891335789161943
 31
0.0
  0
LINE
  5
AE07
  8
0
 10
18.26937273077219
 20
9.9274895554087763
 30
0.0
 11
18.261926454196111
 21
9.9288882793709945
 31
0.0
  0
LINE
  5
AE08
  8
0
 10
18.273680975233731
 20
9.9192238390924103
 30
0.0
 11
18.26937273077219
 21
9.9274895554087763
 31
0.0
  0
LINE
  5
AE09
  8
0
 10
18.278693675884259
 20
9.9135430694525422
 30
0.0
 11
18.273680975233731
 21
9.9192238390924103
 31
0.0
  0
LINE
  5
AE0A
  8
0
 10
18.256114690637009
 20
9.9299798953659302
 30
0.0
 11
18.261926454196111
 21
9.9288882793709945
 31
0.0
  0
LINE
  5
AE0B
  8
0
 10
18.244248097023871
 20
9.9303990759083263
 30
0.0
 11
18.256114690637009
 21
9.9299798953659302
 31
0.0
  0
LINE
  5
AE0C
  8
0
 10
18.225676070223439
 20
9.9259685704553249
 30
0.0
 11
18.244248097023871
 21
9.9303990759083263
 31
0.0
  0
LINE
  5
AE0D
  8
0
 10
18.278693675884259
 20
9.9135430694525422
 30
0.0
 11
18.286058445132699
 21
9.9051973012963046
 31
0.0
  0
LINE
  5
AE0E
  8
0
 10
18.207811410588
 20
9.9146259525198204
 30
0.0
 11
18.225676070223439
 21
9.9259685704553249
 31
0.0
  0
LINE
  5
AE0F
  8
0
 10
18.251669630304061
 20
9.8586609836715962
 30
0.0
 11
18.236175960610439
 21
9.8819764458437476
 31
0.0
  0
LINE
  5
AE10
  8
0
 10
18.257380965191579
 20
9.8282252742342262
 30
0.0
 11
18.251669630304061
 21
9.8586609836715962
 31
0.0
  0
LINE
  5
AE11
  8
0
 10
18.295868434210661
 20
9.8089327808765958
 30
0.0
 11
18.257380965191579
 21
9.8282252742342262
 31
0.0
  0
LINE
  5
AE12
  8
0
 10
18.236175960610439
 20
9.8819764458437476
 30
0.0
 11
18.215628836602491
 21
9.8938619608009049
 31
0.0
  0
LINE
  5
AE13
  8
0
 10
18.286058445132699
 20
9.9051973012963046
 30
0.0
 11
18.30261171008577
 21
9.8888740034462899
 31
0.0
  0
LINE
  5
AE14
  8
0
 10
18.201128879745291
 20
9.9118077418799189
 30
0.0
 11
18.15805984634742
 21
9.9548767752777962
 31
0.0
  0
LINE
  5
AE15
  8
0
 10
18.074271984664541
 20
9.8689590094758941
 30
0.0
 11
18.073684005157311
 21
9.8695469889831458
 31
0.0
  0
LINE
  5
AE16
  8
0
 10
18.148311827919709
 20
9.8302137113963255
 30
0.0
 11
18.17247339633391
 21
9.8543752798105242
 31
0.0
  0
LINE
  5
AE17
  8
0
 10
18.133018346279169
 20
9.8667811903561926
 30
0.0
 11
18.095498383652298
 21
9.9043011529830665
 31
0.0
  0
LINE
  5
AE18
  8
0
 10
18.174857017754771
 20
9.8815110613755195
 30
0.0
 11
18.126271475938349
 21
9.9300966031919415
 31
0.0
  0
LINE
  5
AE19
  8
0
 10
18.118313606558779
 20
9.8002154900353844
 30
0.0
 11
18.13791291001322
 21
9.8198147934898472
 31
0.0
  0
LINE
  5
AE1A
  8
0
 10
18.07400339928617
 20
9.8690423677526322
 30
0.0
 11
18.164136893826839
 21
9.9591758622933142
 31
0.0
  0
LINE
  5
AE1B
  8
0
 10
18.190184888790981
 20
9.7530461053494601
 30
0.0
 11
18.112376967104652
 21
9.830854027035798
 31
0.0
  0
LINE
  5
AE1C
  8
0
 10
18.12988021693792
 20
9.9349416539368942
 30
0.0
 11
18.166276149709969
 21
9.9606892365463864
 31
0.0
  0
LINE
  5
AE1D
  8
0
 10
18.121859022604291
 20
9.9241724982712185
 30
0.0
 11
18.12988021693792
 21
9.9349416539368942
 31
0.0
  0
LINE
  5
AE1E
  8
0
 10
18.103821159897588
 20
9.9084124742744262
 30
0.0
 11
18.121859022604291
 21
9.9241724982712185
 31
0.0
  0
LINE
  5
AE1F
  8
0
 10
18.070093136618119
 20
9.9903637257634728
 30
0.0
 11
18.066522824569411
 21
9.9775292326344243
 31
0.0
  0
LINE
  5
AE20
  8
0
 10
18.186300753528158
 20
9.8922931873248601
 30
0.0
 11
18.185454961495289
 21
9.8922495605886525
 31
0.0
  0
LINE
  5
AE21
  8
0
 10
18.185756946826501
 20
9.8793861320550533
 30
0.0
 11
18.18648528780087
 21
9.8797930162820649
 31
0.0
  0
LINE
  5
AE22
  8
0
 10
18.18611812271347
 20
9.8691549791426496
 30
0.0
 11
18.185627937146538
 21
9.8704486398032643
 31
0.0
  0
LINE
  5
AE23
  8
0
 10
18.185814838482411
 20
9.8475804369625095
 30
0.0
 11
18.187327553639289
 21
9.8480161689424222
 31
0.0
  0
LINE
  5
AE24
  8
0
 10
18.133729633970759
 20
9.8478340311084978
 30
0.0
 11
18.132969975367359
 21
9.8472652404245764
 31
0.0
  0
LINE
  5
AE25
  8
0
 10
18.13450889617809
 20
9.8484095875371622
 30
0.0
 11
18.133729633970759
 21
9.8478340311084978
 31
0.0
  0
LINE
  5
AE26
  8
0
 10
18.135277173999469
 20
9.8489923304377882
 30
0.0
 11
18.13450889617809
 21
9.8484095875371622
 31
0.0
  0
LINE
  5
AE27
  8
0
 10
18.13600387944502
 20
9.8495826805374236
 30
0.0
 11
18.135277173999469
 21
9.8489923304377882
 31
0.0
  0
LINE
  5
AE28
  8
0
 10
18.136658424524882
 20
9.8501810585628302
 30
0.0
 11
18.13600387944502
 21
9.8495826805374236
 31
0.0
  0
LINE
  5
AE29
  8
0
 10
18.13721022124917
 20
9.8507878852412816
 30
0.0
 11
18.136658424524882
 21
9.8501810585628302
 31
0.0
  0
LINE
  5
AE2A
  8
0
 10
18.137628681628058
 20
9.8514035812997847
 30
0.0
 11
18.13721022124917
 21
9.8507878852412816
 31
0.0
  0
LINE
  5
AE2B
  8
0
 10
18.137883217671622
 20
9.8520285674655881
 30
0.0
 11
18.137628681628058
 21
9.8514035812997847
 31
0.0
  0
LINE
  5
AE2C
  8
0
 10
18.13795273898835
 20
9.8526639724059262
 30
0.0
 11
18.137883217671622
 21
9.8520285674655881
 31
0.0
  0
LINE
  5
AE2D
  8
0
 10
18.137854145579901
 20
9.8533137565539164
 30
0.0
 11
18.13795273898835
 21
9.8526639724059262
 31
0.0
  0
LINE
  5
AE2E
  8
0
 10
18.137613835046299
 20
9.8539825882830883
 30
0.0
 11
18.137854145579901
 21
9.8533137565539164
 31
0.0
  0
LINE
  5
AE2F
  8
0
 10
18.137258204987521
 20
9.8546751359667724
 30
0.0
 11
18.137613835046299
 21
9.8539825882830883
 31
0.0
  0
LINE
  5
AE30
  8
0
 10
18.136813653003578
 20
9.8553960679791999
 30
0.0
 11
18.137258204987521
 21
9.8546751359667724
 31
0.0
  0
LINE
  5
AE31
  8
0
 10
18.136306576694508
 20
9.8561500526930104
 30
0.0
 11
18.136813653003578
 21
9.8553960679791999
 31
0.0
  0
LINE
  5
AE32
  8
0
 10
18.135763373660239
 20
9.8569417584822077
 30
0.0
 11
18.136306576694508
 21
9.8561500526930104
 31
0.0
  0
LINE
  5
AE33
  8
0
 10
18.13521044150081
 20
9.8577758537205682
 30
0.0
 11
18.135763373660239
 21
9.8569417584822077
 31
0.0
  0
LINE
  5
AE34
  8
0
 10
18.134672084248479
 20
9.858653832939126
 30
0.0
 11
18.13521044150081
 21
9.8577758537205682
 31
0.0
  0
LINE
  5
AE35
  8
0
 10
18.1341642316643
 20
9.8595644953027204
 30
0.0
 11
18.134672084248479
 21
9.858653832939126
 31
0.0
  0
LINE
  5
AE36
  8
0
 10
18.133700719941672
 20
9.8604934661316221
 30
0.0
 11
18.1341642316643
 21
9.8595644953027204
 31
0.0
  0
LINE
  5
AE37
  8
0
 10
18.133295385273929
 20
9.8614263707486316
 30
0.0
 11
18.133700719941672
 21
9.8604934661316221
 31
0.0
  0
LINE
  5
AE38
  8
0
 10
18.132962063854421
 20
9.8623488344755899
 30
0.0
 11
18.133295385273929
 21
9.8614263707486316
 31
0.0
  0
LINE
  5
AE39
  8
0
 10
18.1327145918765
 20
9.8632464826339401
 30
0.0
 11
18.132962063854421
 21
9.8623488344755899
 31
0.0
  0
LINE
  5
AE3A
  8
0
 10
18.132566805533511
 20
9.8641049405452961
 30
0.0
 11
18.1327145918765
 21
9.8632464826339401
 31
0.0
  0
LINE
  5
AE3B
  8
0
 10
18.132532541018801
 20
9.8649098335322378
 30
0.0
 11
18.132566805533511
 21
9.8641049405452961
 31
0.0
  0
LINE
  5
AE3C
  8
0
 10
18.132620674698199
 20
9.8656518546954342
 30
0.0
 11
18.132532541018801
 21
9.8649098335322378
 31
0.0
  0
LINE
  5
AE3D
  8
0
 10
18.132820243627389
 20
9.8663419682573021
 30
0.0
 11
18.132620674698199
 21
9.8656518546954342
 31
0.0
  0
LINE
  5
AE3E
  8
0
 10
18.13311532503451
 20
9.8669962062183458
 30
0.0
 11
18.132820243627389
 21
9.8663419682573021
 31
0.0
  0
LINE
  5
AE3F
  8
0
 10
18.133489996147759
 20
9.8676306005809238
 30
0.0
 11
18.13311532503451
 21
9.8669962062183458
 31
0.0
  0
LINE
  5
AE40
  8
0
 10
18.133928334195272
 20
9.8682611833462417
 30
0.0
 11
18.133489996147759
 21
9.8676306005809238
 31
0.0
  0
LINE
  5
AE41
  8
0
 10
18.134414416405221
 20
9.8689039865155266
 30
0.0
 11
18.133928334195272
 21
9.8682611833462417
 31
0.0
  0
LINE
  5
AE42
  8
0
 10
18.13493232000576
 20
9.8695750420906663
 30
0.0
 11
18.134414416405221
 21
9.8689039865155266
 31
0.0
  0
LINE
  5
AE43
  8
0
 10
18.135466122225051
 20
9.8702903820721914
 30
0.0
 11
18.13493232000576
 21
9.8695750420906663
 31
0.0
  0
LINE
  5
AE44
  8
0
 10
18.136003161043089
 20
9.8710574453916706
 30
0.0
 11
18.135466122225051
 21
9.8702903820721914
 31
0.0
  0
LINE
  5
AE45
  8
0
 10
18.136543817447141
 20
9.8718492986947624
 30
0.0
 11
18.136003161043089
 21
9.8710574453916706
 31
0.0
  0
LINE
  5
AE46
  8
0
 10
18.137091733176359
 20
9.8726304155572961
 30
0.0
 11
18.136543817447141
 21
9.8718492986947624
 31
0.0
  0
LINE
  5
AE47
  8
0
 10
18.137650549969852
 20
9.8733652695539078
 30
0.0
 11
18.137091733176359
 21
9.8726304155572961
 31
0.0
  0
LINE
  5
AE48
  8
0
 10
18.138223909566729
 20
9.8740183342599721
 30
0.0
 11
18.137650549969852
 21
9.8733652695539078
 31
0.0
  0
LINE
  5
AE49
  8
0
 10
18.138815453706119
 20
9.8745540832512617
 30
0.0
 11
18.138223909566729
 21
9.8740183342599721
 31
0.0
  0
LINE
  5
AE4A
  8
0
 10
18.139428824127162
 20
9.8749369901031514
 30
0.0
 11
18.138815453706119
 21
9.8745540832512617
 31
0.0
  0
LINE
  5
AE4B
  8
0
 10
18.140067662568949
 20
9.8751315283905043
 30
0.0
 11
18.139428824127162
 21
9.8749369901031514
 31
0.0
  0
LINE
  5
AE4C
  8
0
 10
18.140731361777551
 20
9.8751120929825902
 30
0.0
 11
18.140067662568949
 21
9.8751315283905043
 31
0.0
  0
LINE
  5
AE4D
  8
0
 10
18.141402318526879
 20
9.8748927639237536
 30
0.0
 11
18.140731361777551
 21
9.8751120929825902
 31
0.0
  0
LINE
  5
AE4E
  8
0
 10
18.142058680597781
 20
9.8744975425522554
 30
0.0
 11
18.141402318526879
 21
9.8748927639237536
 31
0.0
  0
LINE
  5
AE4F
  8
0
 10
18.142678595771098
 20
9.8739504302061505
 30
0.0
 11
18.142058680597781
 21
9.8744975425522554
 31
0.0
  0
LINE
  5
AE50
  8
0
 10
18.143240211827639
 20
9.8732754282236783
 30
0.0
 11
18.142678595771098
 21
9.8739504302061505
 31
0.0
  0
LINE
  5
AE51
  8
0
 10
18.143721676548289
 20
9.8724965379428724
 30
0.0
 11
18.143240211827639
 21
9.8732754282236783
 31
0.0
  0
LINE
  5
AE52
  8
0
 10
18.144101137713871
 20
9.8716377607017805
 30
0.0
 11
18.143721676548289
 21
9.8724965379428724
 31
0.0
  0
LINE
  5
AE53
  8
0
 10
18.144356743105231
 20
9.8707230978388836
 30
0.0
 11
18.144101137713871
 21
9.8716377607017805
 31
0.0
  0
LINE
  5
AE54
  8
0
 10
18.144475431707541
 20
9.8697730664280243
 30
0.0
 11
18.144356743105231
 21
9.8707230978388836
 31
0.0
  0
LINE
  5
AE55
  8
0
 10
18.144479307323358
 20
9.8687942464880507
 30
0.0
 11
18.144475431707541
 21
9.8697730664280243
 31
0.0
  0
LINE
  5
AE56
  8
0
 10
18.144399264959539
 20
9.8677897337738543
 30
0.0
 11
18.144479307323358
 21
9.8687942464880507
 31
0.0
  0
LINE
  5
AE57
  8
0
 10
18.14426619962294
 20
9.8667626240396658
 30
0.0
 11
18.144399264959539
 21
9.8677897337738543
 31
0.0
  0
LINE
  5
AE58
  8
0
 10
18.14411100632045
 20
9.8657160130408101
 30
0.0
 11
18.14426619962294
 21
9.8667626240396658
 31
0.0
  0
LINE
  5
AE59
  8
0
 10
18.14396458005891
 20
9.8646529965317242
 30
0.0
 11
18.14411100632045
 21
9.8657160130408101
 31
0.0
  0
LINE
  5
AE5A
  8
0
 10
18.143857815845209
 20
9.8635766702668661
 30
0.0
 11
18.14396458005891
 21
9.8646529965317242
 31
0.0
  0
LINE
  5
AE5B
  8
0
 10
18.143821608686189
 20
9.8624901300020156
 30
0.0
 11
18.143857815845209
 21
9.8635766702668661
 31
0.0
  0
LINE
  5
AE5C
  8
0
 10
18.14387784444024
 20
9.8613951524546337
 30
0.0
 11
18.143821608686189
 21
9.8624901300020156
 31
0.0
  0
LINE
  5
AE5D
  8
0
 10
18.144012372371709
 20
9.8602882382003827
 30
0.0
 11
18.14387784444024
 21
9.8613951524546337
 31
0.0
  0
LINE
  5
AE5E
  8
0
 10
18.144202032596429
 20
9.8591645687777145
 30
0.0
 11
18.144012372371709
 21
9.8602882382003827
 31
0.0
  0
LINE
  5
AE5F
  8
0
 10
18.144423665230271
 20
9.8580193257250741
 30
0.0
 11
18.144202032596429
 21
9.8591645687777145
 31
0.0
  0
LINE
  5
AE60
  8
0
 10
18.14465411038908
 20
9.8568476905818443
 30
0.0
 11
18.144423665230271
 21
9.8580193257250741
 31
0.0
  0
LINE
  5
AE61
  8
0
 10
18.144870208188699
 20
9.8556448448859921
 30
0.0
 11
18.14465411038908
 21
9.8568476905818443
 31
0.0
  0
LINE
  5
AE62
  8
0
 10
18.14504879874498
 20
9.8544059701773605
 30
0.0
 11
18.144870208188699
 21
9.8556448448859921
 31
0.0
  0
LINE
  5
AE63
  8
0
 10
18.145166722173752
 20
9.8531262479939343
 30
0.0
 11
18.14504879874498
 21
9.8544059701773605
 31
0.0
  0
LINE
  5
AE64
  8
0
 10
18.145208436687081
 20
9.8518040982410184
 30
0.0
 11
18.145166722173752
 21
9.8531262479939343
 31
0.0
  0
LINE
  5
AE65
  8
0
 10
18.145188872881668
 20
9.8504508942867162
 30
0.0
 11
18.145208436687081
 21
9.8518040982410184
 31
0.0
  0
LINE
  5
AE66
  8
0
 10
18.14513057945042
 20
9.8490812478667067
 30
0.0
 11
18.145188872881668
 21
9.8504508942867162
 31
0.0
  0
LINE
  5
AE67
  8
0
 10
18.14505610508623
 20
9.8477097707159302
 30
0.0
 11
18.14513057945042
 21
9.8490812478667067
 31
0.0
  0
LINE
  5
AE68
  8
0
 10
18.144987998482019
 20
9.8463510745691494
 30
0.0
 11
18.14505610508623
 21
9.8477097707159302
 31
0.0
  0
LINE
  5
AE69
  8
0
 10
18.1449488083307
 20
9.845019771160878
 30
0.0
 11
18.144987998482019
 21
9.8463510745691494
 31
0.0
  0
LINE
  5
AE6A
  8
0
 10
18.144961083325139
 20
9.8437304722265182
 30
0.0
 11
18.1449488083307
 21
9.845019771160878
 31
0.0
  0
LINE
  5
AE6B
  8
0
 10
18.14504737215827
 20
9.8424977895010581
 30
0.0
 11
18.144961083325139
 21
9.8437304722265182
 31
0.0
  0
LINE
  5
AE6C
  8
0
 10
18.145223427455349
 20
9.8413311016902298
 30
0.0
 11
18.14504737215827
 21
9.8424977895010581
 31
0.0
  0
LINE
  5
AE6D
  8
0
 10
18.145477817571091
 20
9.8402188553843644
 30
0.0
 11
18.145223427455349
 21
9.8413311016902298
 31
0.0
  0
LINE
  5
AE6E
  8
0
 10
18.14579231479258
 20
9.8391442641450322
 30
0.0
 11
18.145477817571091
 21
9.8402188553843644
 31
0.0
  0
LINE
  5
AE6F
  8
0
 10
18.146148691406879
 20
9.8380905415331181
 30
0.0
 11
18.14579231479258
 21
9.8391442641450322
 31
0.0
  0
LINE
  5
AE70
  8
0
 10
18.146528719701092
 20
9.8370409011101856
 30
0.0
 11
18.146148691406879
 21
9.8380905415331181
 31
0.0
  0
LINE
  5
AE71
  8
0
 10
18.146914171962269
 20
9.8359785564380218
 30
0.0
 11
18.146528719701092
 21
9.8370409011101856
 31
0.0
  0
LINE
  5
AE72
  8
0
 10
18.147286820477511
 20
9.8348867210770532
 30
0.0
 11
18.146914171962269
 21
9.8359785564380218
 31
0.0
  0
LINE
  5
AE73
  8
0
 10
18.147628437533861
 20
9.8337486085890742
 30
0.0
 11
18.147286820477511
 21
9.8348867210770532
 31
0.0
  0
LINE
  5
AE74
  8
0
 10
18.147922406783898
 20
9.8325550283634584
 30
0.0
 11
18.147628437533861
 21
9.8337486085890742
 31
0.0
  0
LINE
  5
AE75
  8
0
 10
18.14815855734194
 20
9.8313271731012648
 30
0.0
 11
18.147922406783898
 21
9.8325550283634584
 31
0.0
  0
LINE
  5
AE76
  8
0
 10
18.14832832968775
 20
9.8300938313316166
 30
0.0
 11
18.14815855734194
 21
9.8313271731012648
 31
0.0
  0
LINE
  5
AE77
  8
0
 10
18.148423164301128
 20
9.828883791583614
 30
0.0
 11
18.14832832968775
 21
9.8300938313316166
 31
0.0
  0
LINE
  5
AE78
  8
0
 10
18.148434501661882
 20
9.8277258423856821
 30
0.0
 11
18.148423164301128
 21
9.828883791583614
 31
0.0
  0
LINE
  5
AE79
  8
0
 10
18.14835378224975
 20
9.8266487722685198
 30
0.0
 11
18.148434501661882
 21
9.8277258423856821
 31
0.0
  0
LINE
  5
AE7A
  8
0
 10
18.148172446544571
 20
9.8256813697601046
 30
0.0
 11
18.14835378224975
 21
9.8266487722685198
 31
0.0
  0
LINE
  5
AE7B
  8
0
 10
18.14788193502612
 20
9.8248524233897498
 30
0.0
 11
18.148172446544571
 21
9.8256813697601046
 31
0.0
  0
LINE
  5
AE7C
  8
0
 10
18.147477197549019
 20
9.8241811264581411
 30
0.0
 11
18.14788193502612
 21
9.8248524233897498
 31
0.0
  0
LINE
  5
AE7D
  8
0
 10
18.146967221467388
 20
9.8236482913498548
 30
0.0
 11
18.147477197549019
 21
9.8241811264581411
 31
0.0
  0
LINE
  5
AE7E
  8
0
 10
18.146364503510139
 20
9.8232251352219464
 30
0.0
 11
18.146967221467388
 21
9.8236482913498548
 31
0.0
  0
LINE
  5
AE7F
  8
0
 10
18.145681540406219
 20
9.8228828752303343
 30
0.0
 11
18.146364503510139
 21
9.8232251352219464
 31
0.0
  0
LINE
  5
AE80
  8
0
 10
18.144930828884611
 20
9.8225927285316104
 30
0.0
 11
18.145681540406219
 21
9.8228828752303343
 31
0.0
  0
LINE
  5
AE81
  8
0
 10
18.144124865674218
 20
9.8223259122817126
 30
0.0
 11
18.144930828884611
 21
9.8225927285316104
 31
0.0
  0
LINE
  5
AE82
  8
0
 10
18.143276147504022
 20
9.8220536436374442
 30
0.0
 11
18.144124865674218
 21
9.8223259122817126
 31
0.0
  0
LINE
  5
AE83
  8
0
 10
18.142397171102949
 20
9.8217471397551819
 30
0.0
 11
18.143276147504022
 21
9.8220536436374442
 31
0.0
  0
LINE
  5
AE84
  8
0
 10
18.141500646880001
 20
9.8213868676257263
 30
0.0
 11
18.142397171102949
 21
9.8217471397551819
 31
0.0
  0
LINE
  5
AE85
  8
0
 10
18.14060013996432
 20
9.8209902935789142
 30
0.0
 11
18.141500646880001
 21
9.8213868676257263
 31
0.0
  0
LINE
  5
AE86
  8
0
 10
18.139709429165102
 20
9.8205841337794482
 30
0.0
 11
18.14060013996432
 21
9.8209902935789142
 31
0.0
  0
LINE
  5
AE87
  8
0
 10
18.138842293291521
 20
9.8201951043913596
 30
0.0
 11
18.139709429165102
 21
9.8205841337794482
 31
0.0
  0
LINE
  5
AE88
  8
0
 10
18.138012511152791
 20
9.8198499215786796
 30
0.0
 11
18.138842293291521
 21
9.8201951043913596
 31
0.0
  0
LINE
  5
AE89
  8
0
 10
18.137233861558091
 20
9.8195753015065748
 30
0.0
 11
18.138012511152791
 21
9.8198499215786796
 31
0.0
  0
LINE
  5
AE8A
  8
0
 10
18.1365201233166
 20
9.8193979603386197
 30
0.0
 11
18.137233861558091
 21
9.8195753015065748
 31
0.0
  0
LINE
  5
AE8B
  8
0
 10
18.135885075237521
 20
9.8193446142404284
 30
0.0
 11
18.1365201233166
 21
9.8193979603386197
 31
0.0
  0
LINE
  5
AE8C
  8
0
 10
18.135337117647079
 20
9.8194341622861412
 30
0.0
 11
18.135885075237521
 21
9.8193446142404284
 31
0.0
  0
LINE
  5
AE8D
  8
0
 10
18.134863136939568
 20
9.8196542351979517
 30
0.0
 11
18.135337117647079
 21
9.8194341622861412
 31
0.0
  0
LINE
  5
AE8E
  8
0
 10
18.134444641026331
 20
9.8199846466075016
 30
0.0
 11
18.134863136939568
 21
9.8196542351979517
 31
0.0
  0
LINE
  5
AE8F
  8
0
 10
18.134063137818671
 20
9.8204052101475554
 30
0.0
 11
18.134444641026331
 21
9.8199846466075016
 31
0.0
  0
LINE
  5
AE90
  8
0
 10
18.133700135227929
 20
9.8208957394503997
 30
0.0
 11
18.134063137818671
 21
9.8204052101475554
 31
0.0
  0
LINE
  5
AE91
  8
0
 10
18.133337141165441
 20
9.8214360481481435
 30
0.0
 11
18.133700135227929
 21
9.8208957394503997
 31
0.0
  0
LINE
  5
AE92
  8
0
 10
18.132955663542539
 20
9.8220059498732937
 30
0.0
 11
18.133337141165441
 21
9.8214360481481435
 31
0.0
  0
LINE
  5
AE93
  8
0
 10
18.132537210270542
 20
9.8225852582581794
 30
0.0
 11
18.132955663542539
 21
9.8220059498732937
 31
0.0
  0
LINE
  5
AE94
  8
0
 10
18.13206963522634
 20
9.8231585613339121
 30
0.0
 11
18.132537210270542
 21
9.8225852582581794
 31
0.0
  0
LINE
  5
AE95
  8
0
 10
18.13156617614905
 20
9.8237295447254382
 30
0.0
 11
18.13206963522634
 21
9.8231585613339121
 31
0.0
  0
LINE
  5
AE96
  8
0
 10
18.131046416743299
 20
9.8243066684569822
 30
0.0
 11
18.13156617614905
 21
9.8237295447254382
 31
0.0
  0
LINE
  5
AE97
  8
0
 10
18.13052994071381
 20
9.8248983925523063
 30
0.0
 11
18.131046416743299
 21
9.8243066684569822
 31
0.0
  0
LINE
  5
AE98
  8
0
 10
18.130036331765211
 20
9.8255131770358641
 30
0.0
 11
18.13052994071381
 21
9.8248983925523063
 31
0.0
  0
LINE
  5
AE99
  8
0
 10
18.129585173602191
 20
9.8261594819309721
 30
0.0
 11
18.130036331765211
 21
9.8255131770358641
 31
0.0
  0
LINE
  5
AE9A
  8
0
 10
18.129196049929401
 20
9.8268457672620482
 30
0.0
 11
18.129585173602191
 21
9.8261594819309721
 31
0.0
  0
LINE
  5
AE9B
  8
0
 10
18.128888544451499
 20
9.8275804930526647
 30
0.0
 11
18.129196049929401
 21
9.8268457672620482
 31
0.0
  0
LINE
  5
AE9C
  8
0
 10
18.12867621755975
 20
9.8283695475861261
 30
0.0
 11
18.128888544451499
 21
9.8275804930526647
 31
0.0
  0
LINE
  5
AE9D
  8
0
 10
18.12854853639163
 20
9.8292085321804663
 30
0.0
 11
18.12867621755975
 21
9.8283695475861261
 31
0.0
  0
LINE
  5
AE9E
  8
0
 10
18.12848894477122
 20
9.8300904764125718
 30
0.0
 11
18.12854853639163
 21
9.8292085321804663
 31
0.0
  0
LINE
  5
AE9F
  8
0
 10
18.128480886522581
 20
9.831008409859578
 30
0.0
 11
18.12848894477122
 21
9.8300904764125718
 31
0.0
  0
LINE
  5
AEA0
  8
0
 10
18.128507805469809
 20
9.8319553620983697
 30
0.0
 11
18.128480886522581
 21
9.831008409859578
 31
0.0
  0
LINE
  5
AEA1
  8
0
 10
18.12855314543696
 20
9.8329243627060805
 30
0.0
 11
18.128507805469809
 21
9.8319553620983697
 31
0.0
  0
LINE
  5
AEA2
  8
0
 10
18.128600350248071
 20
9.8339084412596023
 30
0.0
 11
18.12855314543696
 21
9.8329243627060805
 31
0.0
  0
LINE
  5
AEA3
  8
0
 10
18.128632863727258
 20
9.8349006273360828
 30
0.0
 11
18.128600350248071
 21
9.8339084412596023
 31
0.0
  0
LINE
  5
AEA4
  8
0
 10
18.128639217747288
 20
9.8358938950791526
 30
0.0
 11
18.128632863727258
 21
9.8349006273360828
 31
0.0
  0
LINE
  5
AEA5
  8
0
 10
18.128628296375631
 20
9.836880996897662
 30
0.0
 11
18.128639217747288
 21
9.8358938950791526
 31
0.0
  0
LINE
  5
AEA6
  8
0
 10
18.128614071728471
 20
9.8378546297662979
 30
0.0
 11
18.128628296375631
 21
9.836880996897662
 31
0.0
  0
LINE
  5
AEA7
  8
0
 10
18.128610515922048
 20
9.8388074906608836
 30
0.0
 11
18.128614071728471
 21
9.8378546297662979
 31
0.0
  0
LINE
  5
AEA8
  8
0
 10
18.128631601072481
 20
9.8397322765565605
 30
0.0
 11
18.128610515922048
 21
9.8388074906608836
 31
0.0
  0
LINE
  5
AEA9
  8
0
 10
18.12869129929603
 20
9.8406216844286973
 30
0.0
 11
18.128631601072481
 21
9.8397322765565605
 31
0.0
  0
LINE
  5
AEAA
  8
0
 10
18.12880358270883
 20
9.8414684112524284
 30
0.0
 11
18.12869129929603
 21
9.8406216844286973
 31
0.0
  0
LINE
  5
AEAB
  8
0
 10
18.128982423427111
 20
9.8422651540033641
 30
0.0
 11
18.12880358270883
 21
9.8414684112524284
 31
0.0
  0
LINE
  5
AEAC
  8
0
 10
18.12923883284293
 20
9.8430071524962841
 30
0.0
 11
18.128982423427111
 21
9.8422651540033641
 31
0.0
  0
LINE
  5
AEAD
  8
0
 10
18.12957197945191
 20
9.8436998179058701
 30
0.0
 11
18.12923883284293
 21
9.8430071524962841
 31
0.0
  0
LINE
  5
AEAE
  8
0
 10
18.12997807102559
 20
9.844351104246698
 30
0.0
 11
18.12957197945191
 21
9.8436998179058701
 31
0.0
  0
LINE
  5
AEAF
  8
0
 10
18.130453315335469
 20
9.8449689655330914
 30
0.0
 11
18.12997807102559
 21
9.844351104246698
 31
0.0
  0
LINE
  5
AEB0
  8
0
 10
18.13099392015307
 20
9.8455613557796227
 30
0.0
 11
18.130453315335469
 21
9.8449689655330914
 31
0.0
  0
LINE
  5
AEB1
  8
0
 10
18.131596093249911
 20
9.846136229000642
 30
0.0
 11
18.13099392015307
 21
9.8455613557796227
 31
0.0
  0
LINE
  5
AEB2
  8
0
 10
18.132256042397501
 20
9.8467015392106916
 30
0.0
 11
18.131596093249911
 21
9.846136229000642
 31
0.0
  0
LINE
  5
AEB3
  8
0
 10
18.132969975367359
 20
9.8472652404245764
 30
0.0
 11
18.132256042397501
 21
9.8467015392106916
 31
0.0
  0
LINE
  5
AEB4
  8
0
 10
18.180314302982321
 20
9.8887372178974147
 30
0.0
 11
18.179426483733611
 21
9.8877554609230103
 31
0.0
  0
LINE
  5
AEB5
  8
0
 10
18.181189670986061
 20
9.8896316910763744
 30
0.0
 11
18.180314302982321
 21
9.8887372178974147
 31
0.0
  0
LINE
  5
AEB6
  8
0
 10
18.182054736863861
 20
9.8904233021896744
 30
0.0
 11
18.181189670986061
 21
9.8896316910763744
 31
0.0
  0
LINE
  5
AEB7
  8
0
 10
18.182911649734692
 20
9.8910964729670923
 30
0.0
 11
18.182054736863861
 21
9.8904233021896744
 31
0.0
  0
LINE
  5
AEB8
  8
0
 10
18.18376255871754
 20
9.8916356251397701
 30
0.0
 11
18.182911649734692
 21
9.8910964729670923
 31
0.0
  0
LINE
  5
AEB9
  8
0
 10
18.184609612931411
 20
9.8920251804368036
 30
0.0
 11
18.18376255871754
 21
9.8916356251397701
 31
0.0
  0
LINE
  5
AEBA
  8
0
 10
18.185454961495289
 20
9.8922495605886525
 30
0.0
 11
18.184609612931411
 21
9.8920251804368036
 31
0.0
  0
LINE
  5
AEBB
  8
0
 10
18.185101402993819
 20
9.8789496718568444
 30
0.0
 11
18.185756946826501
 21
9.8793861320550533
 31
0.0
  0
LINE
  5
AEBC
  8
0
 10
18.184552803415659
 20
9.8784516291659656
 30
0.0
 11
18.185101402993819
 21
9.8789496718568444
 31
0.0
  0
LINE
  5
AEBD
  8
0
 10
18.1841452952049
 20
9.8778599974598364
 30
0.0
 11
18.184552803415659
 21
9.8784516291659656
 31
0.0
  0
LINE
  5
AEBE
  8
0
 10
18.183913025474389
 20
9.8771427702163237
 30
0.0
 11
18.1841452952049
 21
9.8778599974598364
 31
0.0
  0
LINE
  5
AEBF
  8
0
 10
18.183878642650189
 20
9.8762773812129581
 30
0.0
 11
18.183913025474389
 21
9.8771427702163237
 31
0.0
  0
LINE
  5
AEC0
  8
0
 10
18.184018800411099
 20
9.8752790254213778
 30
0.0
 11
18.183878642650189
 21
9.8762773812129581
 31
0.0
  0
LINE
  5
AEC1
  8
0
 10
18.184298653749181
 20
9.8741723381128779
 30
0.0
 11
18.184018800411099
 21
9.8752790254213778
 31
0.0
  0
LINE
  5
AEC2
  8
0
 10
18.184683357656429
 20
9.8729819545596822
 30
0.0
 11
18.184298653749181
 21
9.8741723381128779
 31
0.0
  0
LINE
  5
AEC3
  8
0
 10
18.185138067124878
 20
9.871732510032416
 30
0.0
 11
18.184683357656429
 21
9.8729819545596822
 31
0.0
  0
LINE
  5
AEC4
  8
0
 10
18.185627937146538
 20
9.8704486398032643
 30
0.0
 11
18.185138067124878
 21
9.871732510032416
 31
0.0
  0
LINE
  5
AEC5
  8
0
 10
18.184378181101462
 20
9.8472796446385473
 30
0.0
 11
18.185814838482411
 21
9.8475804369625095
 31
0.0
  0
LINE
  5
AEC6
  8
0
 10
18.183013276151581
 20
9.8471189032359163
 30
0.0
 11
18.184378181101462
 21
9.8472796446385473
 31
0.0
  0
LINE
  5
AEC7
  8
0
 10
18.18171581828792
 20
9.8471033240184624
 30
0.0
 11
18.183013276151581
 21
9.8471189032359163
 31
0.0
  0
LINE
  5
AEC8
  8
0
 10
18.180481502165598
 20
9.847238018250664
 30
0.0
 11
18.18171581828792
 21
9.8471033240184624
 31
0.0
  0
LINE
  5
AEC9
  8
0
 10
18.179306022439778
 20
9.8475280971970278
 30
0.0
 11
18.180481502165598
 21
9.847238018250664
 31
0.0
  0
LINE
  5
AECA
  8
0
 10
18.178185073765601
 20
9.8479786721227356
 30
0.0
 11
18.179306022439778
 21
9.8475280971970278
 31
0.0
  0
LINE
  5
AECB
  8
0
 10
18.177116634000239
 20
9.8485911440291076
 30
0.0
 11
18.178185073765601
 21
9.8479786721227356
 31
0.0
  0
LINE
  5
AECC
  8
0
 10
18.176107813809011
 20
9.8493520728679798
 30
0.0
 11
18.177116634000239
 21
9.8485911440291076
 31
0.0
  0
LINE
  5
AECD
  8
0
 10
18.17516800705922
 20
9.8502443083289108
 30
0.0
 11
18.176107813809011
 21
9.8493520728679798
 31
0.0
  0
LINE
  5
AECE
  8
0
 10
18.174306607618231
 20
9.8512507001007563
 30
0.0
 11
18.17516800705922
 21
9.8502443083289108
 31
0.0
  0
LINE
  5
AECF
  8
0
 10
18.173533009353349
 20
9.8523540978733308
 30
0.0
 11
18.174306607618231
 21
9.8512507001007563
 31
0.0
  0
LINE
  5
AED0
  8
0
 10
18.172856606131941
 20
9.8535373513359445
 30
0.0
 11
18.173533009353349
 21
9.8523540978733308
 31
0.0
  0
LINE
  5
AED1
  8
0
 10
18.17228679182131
 20
9.8547833101777016
 30
0.0
 11
18.172856606131941
 21
9.8535373513359445
 31
0.0
  0
LINE
  5
AED2
  8
0
 10
18.171832960288821
 20
9.8560748240879548
 30
0.0
 11
18.17228679182131
 21
9.8547833101777016
 31
0.0
  0
LINE
  5
AED3
  8
0
 10
18.171500236775788
 20
9.8573968587097625
 30
0.0
 11
18.171832960288821
 21
9.8560748240879548
 31
0.0
  0
LINE
  5
AED4
  8
0
 10
18.171276672019541
 20
9.8587428435002877
 30
0.0
 11
18.171500236775788
 21
9.8573968587097625
 31
0.0
  0
LINE
  5
AED5
  8
0
 10
18.171146048131391
 20
9.8601083238704632
 30
0.0
 11
18.171276672019541
 21
9.8587428435002877
 31
0.0
  0
LINE
  5
AED6
  8
0
 10
18.171092147222659
 20
9.8614888452302623
 30
0.0
 11
18.171146048131391
 21
9.8601083238704632
 31
0.0
  0
LINE
  5
AED7
  8
0
 10
18.171098751404681
 20
9.8628799529910722
 30
0.0
 11
18.171092147222659
 21
9.8614888452302623
 31
0.0
  0
LINE
  5
AED8
  8
0
 10
18.171149642788741
 20
9.8642771925638044
 30
0.0
 11
18.171098751404681
 21
9.8628799529910722
 31
0.0
  0
LINE
  5
AED9
  8
0
 10
18.171228603486199
 20
9.8656761093593541
 30
0.0
 11
18.171149642788741
 21
9.8642771925638044
 31
0.0
  0
LINE
  5
AEDA
  8
0
 10
18.171319415608359
 20
9.8670722487875082
 30
0.0
 11
18.171228603486199
 21
9.8656761093593541
 31
0.0
  0
LINE
  5
AEDB
  8
0
 10
18.1714109450511
 20
9.8684619001130542
 30
0.0
 11
18.171319415608359
 21
9.8670722487875082
 31
0.0
  0
LINE
  5
AEDC
  8
0
 10
18.171512392848541
 20
9.8698443280106858
 30
0.0
 11
18.1714109450511
 21
9.8684619001130542
 31
0.0
  0
LINE
  5
AEDD
  8
0
 10
18.171638043819371
 20
9.8712195410091681
 30
0.0
 11
18.171512392848541
 21
9.8698443280106858
 31
0.0
  0
LINE
  5
AEDE
  8
0
 10
18.171802182782301
 20
9.8725875476359235
 30
0.0
 11
18.171638043819371
 21
9.8712195410091681
 31
0.0
  0
LINE
  5
AEDF
  8
0
 10
18.172019094555981
 20
9.8739483564199872
 30
0.0
 11
18.171802182782301
 21
9.8725875476359235
 31
0.0
  0
LINE
  5
AEE0
  8
0
 10
18.172303063959149
 20
9.8753019758894425
 30
0.0
 11
18.172019094555981
 21
9.8739483564199872
 31
0.0
  0
LINE
  5
AEE1
  8
0
 10
18.172668375810449
 20
9.8766484145721662
 30
0.0
 11
18.172303063959149
 21
9.8753019758894425
 31
0.0
  0
LINE
  5
AEE2
  8
0
 10
18.173129314928602
 20
9.8779876809967302
 30
0.0
 11
18.172668375810449
 21
9.8766484145721662
 31
0.0
  0
LINE
  5
AEE3
  8
0
 10
18.173695191319808
 20
9.8793184376495446
 30
0.0
 11
18.173129314928602
 21
9.8779876809967302
 31
0.0
  0
LINE
  5
AEE4
  8
0
 10
18.174355415740351
 20
9.8806339628476962
 30
0.0
 11
18.173695191319808
 21
9.8793184376495446
 31
0.0
  0
LINE
  5
AEE5
  8
0
 10
18.175094424134048
 20
9.8819261888666006
 30
0.0
 11
18.174355415740351
 21
9.8806339628476962
 31
0.0
  0
LINE
  5
AEE6
  8
0
 10
18.175896652444742
 20
9.8831870479827941
 30
0.0
 11
18.175094424134048
 21
9.8819261888666006
 31
0.0
  0
LINE
  5
AEE7
  8
0
 10
18.176746536616221
 20
9.8844084724705681
 30
0.0
 11
18.175896652444742
 21
9.8831870479827941
 31
0.0
  0
LINE
  5
AEE8
  8
0
 10
18.177628512592321
 20
9.8855823946064376
 30
0.0
 11
18.176746536616221
 21
9.8844084724705681
 31
0.0
  0
LINE
  5
AEE9
  8
0
 10
18.178527016316849
 20
9.886700746665376
 30
0.0
 11
18.177628512592321
 21
9.8855823946064376
 31
0.0
  0
LINE
  5
AEEA
  8
0
 10
18.179426483733611
 20
9.8877554609230103
 30
0.0
 11
18.178527016316849
 21
9.886700746665376
 31
0.0
  0
LINE
  5
AEEB
  8
0
 10
18.063955343748411
 20
9.8982124144145018
 30
0.0
 11
18.064729663361089
 21
9.8866310964476725
 31
0.0
  0
LINE
  5
AEEC
  8
0
 10
18.070654954983709
 20
9.9008570360988344
 30
0.0
 11
18.063955343748411
 21
9.8982124144145018
 31
0.0
  0
LINE
  5
AEED
  8
0
 10
18.074918079317442
 20
9.8892422419089598
 30
0.0
 11
18.0893041226478
 21
9.9012412849292541
 31
0.0
  0
LINE
  5
AEEE
  8
0
 10
18.07365908220283
 20
9.8691492301547896
 30
0.0
 11
18.074918079317442
 21
9.8892422419089598
 31
0.0
  0
LINE
  5
AEEF
  8
0
 10
18.089730580629968
 20
9.8641612728001746
 30
0.0
 11
18.07365908220283
 21
9.8691492301547896
 31
0.0
  0
LINE
  5
AEF0
  8
0
 10
18.108407402565931
 20
9.8675612927536278
 30
0.0
 11
18.089730580629968
 21
9.8641612728001746
 31
0.0
  0
LINE
  5
AEF1
  8
0
 10
18.125375481597231
 20
9.8602139893610001
 30
0.0
 11
18.108407402565931
 21
9.8675612927536278
 31
0.0
  0
LINE
  5
AEF2
  8
0
 10
18.120562182801859
 20
9.8503312258835578
 30
0.0
 11
18.12519447367788
 21
9.8602923671251101
 31
0.0
  0
LINE
  5
AEF3
  8
0
 10
18.11332986296085
 20
9.8426447937881676
 30
0.0
 11
18.120562182801859
 21
9.8503312258835578
 31
0.0
  0
LINE
  5
AEF4
  8
0
 10
18.117748724509909
 20
9.8024180166164498
 30
0.0
 11
18.11188456338304
 21
9.8247612128088804
 31
0.0
  0
LINE
  5
AEF5
  8
0
 10
18.12399422349116
 20
9.7780662469933741
 30
0.0
 11
18.117748724509909
 21
9.8024180166164498
 31
0.0
  0
LINE
  5
AEF6
  8
0
 10
18.126258962809441
 20
9.7470308765020945
 30
0.0
 11
18.12399422349116
 21
9.7780662469933741
 31
0.0
  0
LINE
  5
AEF7
  8
0
 10
18.11188456338304
 20
9.8247612128088804
 30
0.0
 11
18.11332986296085
 21
9.8426447937881676
 31
0.0
  0
LINE
  5
AEF8
  8
0
 10
18.187145294751051
 20
9.8921468809328417
 30
0.0
 11
18.186300753528158
 21
9.8922931873248601
 31
0.0
  0
LINE
  5
AEF9
  8
0
 10
18.187971517293018
 20
9.8918270559240682
 30
0.0
 11
18.187145294751051
 21
9.8921468809328417
 31
0.0
  0
LINE
  5
AEFA
  8
0
 10
18.18875850988514
 20
9.8913565253674278
 30
0.0
 11
18.187971517293018
 21
9.8918270559240682
 31
0.0
  0
LINE
  5
AEFB
  8
0
 10
18.189485361258519
 20
9.8907581023315743
 30
0.0
 11
18.18875850988514
 21
9.8913565253674278
 31
0.0
  0
LINE
  5
AEFC
  8
0
 10
18.190131160144251
 20
9.8900545998849339
 30
0.0
 11
18.189485361258519
 21
9.8907581023315743
 31
0.0
  0
LINE
  5
AEFD
  8
0
 10
18.190674995273419
 20
9.8892688310968424
 30
0.0
 11
18.190131160144251
 21
9.8900545998849339
 31
0.0
  0
LINE
  5
AEFE
  8
0
 10
18.191095955377119
 20
9.8884236090354918
 30
0.0
 11
18.190674995273419
 21
9.8892688310968424
 31
0.0
  0
LINE
  5
AEFF
  8
0
 10
18.191373129186442
 20
9.8875417467693296
 30
0.0
 11
18.191095955377119
 21
9.8884236090354918
 31
0.0
  0
LINE
  5
AF00
  8
0
 10
18.191491192857551
 20
9.8866445942987866
 30
0.0
 11
18.191373129186442
 21
9.8875417467693296
 31
0.0
  0
LINE
  5
AF01
  8
0
 10
18.191457172247059
 20
9.8857476493487866
 30
0.0
 11
18.191491192857551
 21
9.8866445942987866
 31
0.0
  0
LINE
  5
AF02
  8
0
 10
18.19128368063668
 20
9.8848649465762701
 30
0.0
 11
18.191457172247059
 21
9.8857476493487866
 31
0.0
  0
LINE
  5
AF03
  8
0
 10
18.190983331308111
 20
9.8840105206377302
 30
0.0
 11
18.19128368063668
 21
9.8848649465762701
 31
0.0
  0
LINE
  5
AF04
  8
0
 10
18.190568737542989
 20
9.8831984061903242
 30
0.0
 11
18.190983331308111
 21
9.8840105206377302
 31
0.0
  0
LINE
  5
AF05
  8
0
 10
18.19005251262308
 20
9.882442637890108
 30
0.0
 11
18.190568737542989
 21
9.8831984061903242
 31
0.0
  0
LINE
  5
AF06
  8
0
 10
18.189447269830069
 20
9.8817572503942301
 30
0.0
 11
18.19005251262308
 21
9.882442637890108
 31
0.0
  0
LINE
  5
AF07
  8
0
 10
18.188765622445601
 20
9.8811562783594056
 30
0.0
 11
18.189447269830069
 21
9.8817572503942301
 31
0.0
  0
LINE
  5
AF08
  8
0
 10
18.18802377272328
 20
9.8806460829121079
 30
0.0
 11
18.188765622445601
 21
9.8811562783594056
 31
0.0
  0
LINE
  5
AF09
  8
0
 10
18.187252278804088
 20
9.8802023310604383
 30
0.0
 11
18.18802377272328
 21
9.8806460829121079
 31
0.0
  0
LINE
  5
AF0A
  8
0
 10
18.18648528780087
 20
9.8797930162820649
 30
0.0
 11
18.187252278804088
 21
9.8802023310604383
 31
0.0
  0
LINE
  5
AF0B
  8
0
 10
18.18657377881766
 20
9.8678761633229897
 30
0.0
 11
18.18611812271347
 21
9.8691549791426496
 31
0.0
  0
LINE
  5
AF0C
  8
0
 10
18.186968119173571
 20
9.8666313193130009
 30
0.0
 11
18.18657377881766
 21
9.8678761633229897
 31
0.0
  0
LINE
  5
AF0D
  8
0
 10
18.187306592385351
 20
9.8654175408746596
 30
0.0
 11
18.186968119173571
 21
9.8666313193130009
 31
0.0
  0
LINE
  5
AF0E
  8
0
 10
18.187602705779561
 20
9.8642264134684865
 30
0.0
 11
18.187306592385351
 21
9.8654175408746596
 31
0.0
  0
LINE
  5
AF0F
  8
0
 10
18.187869966682769
 20
9.8630495225545474
 30
0.0
 11
18.187602705779561
 21
9.8642264134684865
 31
0.0
  0
LINE
  5
AF10
  8
0
 10
18.188121882421552
 20
9.8618784535919986
 30
0.0
 11
18.187869966682769
 21
9.8630495225545474
 31
0.0
  0
LINE
  5
AF11
  8
0
 10
18.188371960322449
 20
9.860704792041588
 30
0.0
 11
18.188121882421552
 21
9.8618784535919986
 31
0.0
  0
LINE
  5
AF12
  8
0
 10
18.188633707712071
 20
9.8595201233631542
 30
0.0
 11
18.188371960322449
 21
9.860704792041588
 31
0.0
  0
LINE
  5
AF13
  8
0
 10
18.18892063191694
 20
9.8583160330174362
 30
0.0
 11
18.188633707712071
 21
9.8595201233631542
 31
0.0
  0
LINE
  5
AF14
  8
0
 10
18.189270938312429
 20
9.8570416367260805
 30
0.0
 11
18.18892063191694
 21
9.8583160330174362
 31
0.0
  0
LINE
  5
AF15
  8
0
 10
18.189678759225679
 20
9.8556306349266762
 30
0.0
 11
18.189270938312429
 21
9.8570416367260805
 31
0.0
  0
LINE
  5
AF16
  8
0
 10
18.190065293627029
 20
9.8541595601345762
 30
0.0
 11
18.189678759225679
 21
9.8556306349266762
 31
0.0
  0
LINE
  5
AF17
  8
0
 10
18.1903517404868
 20
9.8527049448655362
 30
0.0
 11
18.190065293627029
 21
9.8541595601345762
 31
0.0
  0
LINE
  5
AF18
  8
0
 10
18.190459298775341
 20
9.8513433216330597
 30
0.0
 11
18.1903517404868
 21
9.8527049448655362
 31
0.0
  0
LINE
  5
AF19
  8
0
 10
18.190309167462981
 20
9.8501512229540822
 30
0.0
 11
18.190459298775341
 21
9.8513433216330597
 31
0.0
  0
LINE
  5
AF1A
  8
0
 10
18.189822545520059
 20
9.8492051813427661
 30
0.0
 11
18.190309167462981
 21
9.8501512229540822
 31
0.0
  0
LINE
  5
AF1B
  8
0
 10
18.18892063191694
 20
9.8485817293148941
 30
0.0
 11
18.189822545520059
 21
9.8492051813427661
 31
0.0
  0
LINE
  5
AF1C
  8
0
 10
18.187327553639289
 20
9.8480161689424222
 30
0.0
 11
18.18892063191694
 21
9.8485817293148941
 31
0.0
  0
LINE
  5
AF1D
  8
0
 10
18.066522824569411
 20
9.9775292326344243
 30
0.0
 11
18.070654954983709
 21
9.9008570360988344
 31
0.0
  0
LINE
  5
AF1E
  8
0
 10
18.0893041226478
 20
9.9012412849292541
 30
0.0
 11
18.103821159897588
 21
9.9084124742744262
 31
0.0
  0
LINE
  5
AF1F
  8
0
 10
18.041590315236238
 20
9.8826270489769286
 30
0.0
 11
18.038242692850599
 21
9.8621701652245903
 31
0.0
  0
LINE
  5
AF20
  8
0
 10
18.038242692850599
 20
9.8621701652245903
 30
0.0
 11
18.029832883222639
 21
9.8304812806243262
 31
0.0
  0
LINE
  5
AF21
  8
0
 10
18.029832883222639
 20
9.8304812806243262
 30
0.0
 11
18.037669230581049
 21
9.7904204290841719
 31
0.0
  0
LINE
  5
AF22
  8
0
 10
18.064729663361089
 20
9.8866310964476725
 30
0.0
 11
18.041590315236238
 21
9.8826270489769286
 31
0.0
  0
LINE
  5
AF23
  8
0
 10
18.037669230581049
 20
9.7904204290841719
 30
0.0
 11
18.067390295413698
 21
9.7524642131827477
 31
0.0
  0
LINE
  5
AF24
  8
0
 10
18.186416286867541
 20
9.8683181703441534
 30
0.0
 11
18.213184497766129
 21
9.8950863812427414
 31
0.0
  0
LINE
  5
AF25
  8
0
 10
18.240096487783049
 20
9.9294086763370881
 30
0.0
 11
18.194411188492499
 21
9.9750939756276296
 31
0.0
  0
LINE
  5
AF26
  8
0
 10
18.12594874029703
 20
9.7512820812787098
 30
0.0
 11
18.244347005860899
 21
9.8696803468425927
 31
0.0
  0
LINE
  5
AF27
  8
0
 10
18.122841008805061
 20
9.8613114347766082
 30
0.0
 11
18.25474056787877
 21
9.9932109938503118
 31
0.0
  0
LINE
  5
AF28
  8
0
 10
18.242369664935978
 20
9.7574298716993866
 30
0.0
 11
18.144990727276571
 21
9.8548088093588007
 31
0.0
  0
LINE
  5
AF29
  8
0
 10
18.166276149709969
 20
9.9606892365463864
 30
0.0
 11
18.221043251939289
 21
9.9887292127464136
 31
0.0
  0
LINE
  5
AF2A
  8
0
 10
18.18955085821824
 20
9.9069249655449241
 30
0.0
 11
18.207811410588
 21
9.9146259525198204
 31
0.0
  0
ARC
  5
AF2B
  8
0
 10
-18.214726434046359
 20
9.7299012383034462
 30
0.0
 40
0.0337338452314498
210
0.0
220
0.0
230
-1.0
 50
24.592019000001031
 51
112.9069699999996
  0
LINE
  5
AF2C
  8
0
 10
18.215628836602491
 20
9.8938619608009049
 30
0.0
 11
18.18955085821824
 21
9.9069249655449241
 31
0.0
  0
LINE
  5
AF2D
  8
0
 10
18.157628028100579
 20
9.6698242840924351
 30
0.0
 11
18.183557799106861
 21
9.6957540550987105
 31
0.0
  0
LINE
  5
AF2E
  8
0
 10
18.085276351296962
 20
9.5974726072888004
 30
0.0
 11
18.142820592546791
 21
9.6550168485386436
 31
0.0
  0
LINE
  5
AF2F
  8
0
 10
18.036030276146519
 20
9.6047950746333015
 30
0.0
 11
18.12156606809658
 21
9.6903308665833521
 31
0.0
  0
LINE
  5
AF30
  8
0
 10
18.178640829636119
 20
9.6514530795144662
 30
0.0
 11
18.158172585425952
 21
9.6719213237246464
 31
0.0
  0
LINE
  5
AF31
  8
0
 10
18.10338742447545
 20
9.7145618503373043
 30
0.0
 11
18.127859999602581
 21
9.6819414534209045
 31
0.0
  0
LINE
  5
AF32
  8
0
 10
18.160834080101289
 20
9.6968048968133118
 30
0.0
 11
18.14054748844422
 21
9.7147437863363848
 31
0.0
  0
LINE
  5
AF33
  8
0
 10
18.156373009400401
 20
9.6649879292695005
 30
0.0
 11
18.15728414488451
 21
9.6685000217983017
 31
0.0
  0
LINE
  5
AF34
  8
0
 10
18.154009296898529
 20
9.6620245557141882
 30
0.0
 11
18.156373009400401
 21
9.6649879292695005
 31
0.0
  0
LINE
  5
AF35
  8
0
 10
18.152416993033349
 20
9.6587657180962196
 30
0.0
 11
18.154009296898529
 21
9.6620245557141882
 31
0.0
  0
LINE
  5
AF36
  8
0
 10
18.150994981263452
 20
9.6558561975966697
 30
0.0
 11
18.152416993033349
 21
9.6587657180962196
 31
0.0
  0
LINE
  5
AF37
  8
0
 10
18.148033063196142
 20
9.6525245855789308
 30
0.0
 11
18.150994981263452
 21
9.6558561975966697
 31
0.0
  0
LINE
  5
AF38
  8
0
 10
18.140511101244371
 20
9.6561210964118729
 30
0.0
 11
18.148033063196142
 21
9.6525245855789308
 31
0.0
  0
LINE
  5
AF39
  8
0
 10
18.136671523916821
 20
9.6666966721743322
 30
0.0
 11
18.140511101244371
 21
9.6561210964118729
 31
0.0
  0
LINE
  5
AF3A
  8
0
 10
18.127859999602581
 20
9.6819414534209045
 30
0.0
 11
18.136671523916821
 21
9.6666966721743322
 31
0.0
  0
LINE
  5
AF3B
  8
0
 10
18.1598516257055
 20
9.6783871517400257
 30
0.0
 11
18.160834080101289
 21
9.6968048968133118
 31
0.0
  0
LINE
  5
AF3C
  8
0
 10
18.15728414488451
 20
9.6685000217983017
 30
0.0
 11
18.1598516257055
 21
9.6783871517400257
 31
0.0
  0
ARC
  5
AF3D
  8
0
 10
18.118638653931072
 20
9.6389337430075557
 30
0.0
 40
0.0419423262639052
 50
269.94752660459
 51
300.19915416281572
  0
ARC
  5
AF3E
  8
0
 10
18.094832066048109
 20
9.6784075285722722
 30
0.0
 40
0.088036646790761
 50
300.66775632646471
 51
350.33841200000262
  0
ARC
  5
AF3F
  8
0
 10
18.064422555394401
 20
9.3447005188020285
 30
0.0
 40
0.1004243051056796
 50
40.969227999999809
 51
84.215621000000283
  0
LINE
  5
AF40
  8
0
 10
18.028307531805179
 20
9.4446139476221944
 30
0.0
 11
18.07454401890304
 21
9.4446139476221944
 31
0.0
  0
LINE
  5
AF41
  8
0
 10
18.143430031897459
 20
9.7121948303842345
 30
0.0
 11
18.258766135669401
 21
9.8275309341561723
 31
0.0
  0
LINE
  5
AF42
  8
0
 10
18.183812185917269
 20
9.7028502657282445
 30
0.0
 11
18.125206310166579
 21
9.7614561414789378
 31
0.0
  0
ARC
  5
AF43
  8
0
 10
17.379768280568172
 20
9.7281211764868658
 30
0.0
 40
0.8044409367129516
 50
355.40189000000191
 51
1.126700999996852
  0
LINE
  5
AF44
  8
0
 10
18.067390295413698
 20
9.7524642131827477
 30
0.0
 11
18.10338742447545
 21
9.7145618503373043
 31
0.0
  0
LINE
  5
AF45
  8
0
 10
18.14054748844422
 20
9.7147437863363848
 30
0.0
 11
18.126258962809441
 21
9.7470308765020945
 31
0.0
  0
LINE
  5
AF46
  8
0
 10
17.909061957379251
 20
9.9726977049748697
 30
0.0
 11
17.909061957379251
 21
9.9726966629480742
 31
0.0
  0
TEXT
  5
AF47
  8
0
 10
17.909061284623512
 20
9.9726966632006704
 30
0.0
 40
0.000002
  1
S
 72
     1
 11
17.90906195129018
 21
9.9726976632006696
 31
0.0
 73
     2
  0
LINE
  5
AF48
  8
0
 10
17.866008336605201
 20
9.830752932556436
 30
0.0
 11
17.87035995453294
 21
9.8351045504841821
 31
0.0
  0
LINE
  5
AF49
  8
0
 10
17.824161208363961
 20
9.9020428893050578
 30
0.0
 11
17.901648107332971
 21
9.9795297882740481
 31
0.0
  0
ARC
  5
AF4A
  8
0
 10
17.878644067870479
 20
9.9471400988122696
 30
0.0
 40
0.0397275447897666
 50
40.031624428020287
 51
62.650123999999352
  0
ARC
  5
AF4B
  8
0
 10
-17.836057944660961
 20
9.8863021561612641
 30
0.0
 40
0.0790897620930986
210
0.0
220
0.0
230
-1.0
 50
202.61986499999699
 51
216.86989799999981
  0
ARC
  5
AF4C
  8
0
 10
-17.907846978977339
 20
9.8643999728310519
 30
0.0
 40
0.0086033895311342
210
0.0
220
0.0
230
-1.0
 50
81.869897999999509
 51
261.86989799999952
  0
ARC
  5
AF4D
  8
0
 10
17.867692976205419
 20
9.778009482961572
 30
0.0
 40
0.0224363474238598
 50
102.528807999999
 51
192.52880799999949
  0
ARC
  5
AF4E
  8
0
 10
-17.834841156698179
 20
9.7573240875940357
 30
0.0
 40
0.019238640301562
210
0.0
220
0.0
230
-1.0
 50
124.6951540000011
 51
161.5650510000014
  0
ARC
  5
AF4F
  8
0
 10
-17.848832762782202
 20
9.8145116663570136
 30
0.0
 40
0.0202240056733396
210
0.0
220
0.0
230
-1.0
 50
174.7547549999999
 51
226.21887499999909
  0
ARC
  5
AF50
  8
0
 10
17.875836431530509
 20
9.8252764555588783
 30
0.0
 40
0.0112509221917896
 50
116.2683000299469
 51
232.4058030000005
  0
ARC
  5
AF51
  8
0
 10
17.892028735461121
 20
9.9903346160033362
 30
0.0
 40
0.1183224409649856
 50
252.03086000000081
 51
277.0884759999995
  0
ARC
  5
AF52
  8
0
 10
17.890602981393471
 20
9.7920646610966742
 30
0.0
 40
0.0475906008671706
 50
79.43378225686908
 51
114.5137970194357
  0
LINE
  5
AF53
  8
0
 10
17.880582362447878
 20
9.6101002917331755
 30
0.0
 11
17.841276899469459
 21
9.6494057547115943
 31
0.0
  0
LINE
  5
AF54
  8
0
 10
17.920502148959269
 20
9.6267490477167001
 30
0.0
 11
17.846656916805181
 21
9.700594279870792
 31
0.0
  0
ARC
  5
AF55
  8
0
 10
17.87621049194491
 20
9.7147365088962943
 30
0.0
 40
0.0327630347396096
 50
148.6713069999989
 51
211.3286930000009
  0
ARC
  5
AF56
  8
0
 10
17.87012655213098
 20
9.6636328699473761
 30
0.0
 40
0.0277459676251078
 50
127.8749840000016
 51
195.25511900000041
  0
ARC
  5
AF57
  8
0
 10
-17.844574004912481
 20
9.689185417165838
 30
0.0
 40
0.0092670920562902
210
0.0
220
0.0
230
-1.0
 50
113.19859099999979
 51
203.1985909999978
  0
ARC
  5
AF58
  8
0
 10
17.94674955467385
 20
9.6072921382942624
 30
0.0
 40
0.029109759875264
 50
62.113737359304501
 51
117.37358084104289
  0
ARC
  5
AF59
  8
0
 10
17.733061792270298
 20
10.02000328326835
 30
0.0
 40
0.4356406559252694
 50
284.87299713120427
 51
297.37358084104301
  0
ARC
  5
AF5A
  8
0
 10
-17.834841156698179
 20
9.6551153542077301
 30
0.0
 40
0.0086033895311342
210
0.0
220
0.0
230
-1.0
 50
171.86989800000211
 51
261.86989799999952
  0
ARC
  5
AF5B
  8
0
 10
-17.789955362458521
 20
9.3955378034481782
 30
0.0
 40
0.1885715689839664
210
0.0
220
0.0
230
-1.0
 50
156.2835929999988
 51
173.20616899999911
  0
LINE
  5
AF5C
  8
0
 10
17.980583230050609
 20
9.6232365091202894
 30
0.0
 11
17.853597661551941
 21
9.7502220776189574
 31
0.0
  0
ARC
  5
AF5D
  8
0
 10
-17.803204669665739
 20
9.7548905116684637
 30
0.0
 40
0.0506087730311402
210
0.0
220
0.0
230
-1.0
 50
170.31121299999941
 51
207.18111099999879
  0
LINE
  5
AF5E
  8
0
 10
17.7626972884878
 20
9.9542595356729464
 30
0.0
 11
17.74745972893647
 21
9.9694970952242699
 31
0.0
  0
ARC
  5
AF5F
  8
0
 10
-17.755749939117081
 20
9.9288882793709945
 30
0.0
 40
0.0501692156570238
210
0.0
220
0.0
230
-1.0
 50
112.83365400000091
 51
140.90614099999971
  0
ARC
  5
AF60
  8
0
 10
-17.795903941889019
 20
9.9520072506638826
 30
0.0
 40
0.0310222710990688
210
0.0
220
0.0
230
-1.0
 50
11.309932000002499
 51
48.179829999999427
  0
ARC
  5
AF61
  8
0
 10
17.740845742060959
 20
9.9558089853035199
 30
0.0
 40
0.0074593759680364
 50
106.5873389999995
 51
272.3373059999999
  0
ARC
  5
AF62
  8
0
 10
-17.710382378351479
 20
9.9099421921557607
 30
0.0
 40
0.0983153030027166
210
0.0
220
0.0
230
-1.0
 50
149.0362429999995
 51
168.888733999999
  0
ARC
  5
AF63
  8
0
 10
17.747232423377579
 20
9.9684338881613641
 30
0.0
 40
0.020977948454109
 50
253.1416009999995
 51
330.46121799999742
  0
ARC
  5
AF64
  8
0
 10
-17.47710986210307
 20
10.3219049693987
 30
0.0
 40
0.444162538128753
210
0.0
220
0.0
230
-1.0
 50
230.33510599999889
 51
233.91492699999921
  0
LINE
  5
AF65
  8
0
 10
17.759556810681531
 20
9.6111643216429243
 30
0.0
 11
17.800710358332658
 21
9.6523178692940501
 31
0.0
  0
LINE
  5
AF66
  8
0
 10
17.719867873658259
 20
9.6280439271145752
 30
0.0
 11
17.768910659389761
 21
9.6770867128460623
 31
0.0
  0
ARC
  5
AF67
  8
0
 10
-17.960573487039412
 20
9.8903571457119526
 30
0.0
 40
0.286738412211319
210
0.0
220
0.0
230
-1.0
 50
303.5776790000013
 51
318.44049499999818
  0
ARC
  5
AF68
  8
0
 10
17.706870285822539
 20
9.6636750790992139
 30
0.0
 40
0.0534964612107664
 50
42.965933000000753
 51
89.7753119999999
  0
LINE
  5
AF69
  8
0
 10
17.748816393874669
 20
9.6178171142591964
 30
0.0
 11
17.748816393874669
 21
9.6178171142591964
 31
0.0
  0
ARC
  5
AF6A
  8
0
 10
17.696313338804568
 20
9.6072921382942624
 30
0.0
 40
0.029109759875264
 50
62.626419158956772
 51
117.88626264069551
  0
ARC
  5
AF6B
  8
0
 10
17.91000110120812
 20
10.02000328326835
 30
0.0
 40
0.4356406559252694
 50
242.62641915895671
 51
255.1270028687957
  0
LINE
  5
AF6C
  8
0
 10
17.90116029996733
 20
9.8723650666883458
 30
0.0
 11
17.780851263669341
 21
9.9926741029863262
 31
0.0
  0
LINE
  5
AF6D
  8
0
 10
17.836896888146711
 20
9.5972172235394098
 30
0.0
 11
17.718143947619339
 21
9.7159701640667961
 31
0.0
  0
ARC
  5
AF6E
  8
0
 10
17.903465960116119
 20
9.9721701258413304
 30
0.0
 40
0.1058634637383726
 50
204.1325169999981
 51
243.07312100000109
  0
ARC
  5
AF6F
  8
0
 10
17.821531446739201
 20
9.6868781412429144
 30
0.0
 40
0.0909679996102
 50
255.1270028687957
 51
284.87299713120427
  0
ARC
  5
AF70
  8
0
 10
-17.825106852995891
 20
9.6916189930911898
 30
0.0
 40
0.046332549305464
210
0.0
220
0.0
230
-1.0
 50
256.3286929999997
 51
299.93151200000068
  0
LINE
  5
AF71
  8
0
 10
18.03535885080521
 20
9.8513036008403105
 30
0.0
 11
17.90975112869301
 21
9.9769113229525104
 31
0.0
  0
LINE
  5
AF72
  8
0
 10
17.853373443100729
 20
9.7615494965570377
 30
0.0
 11
18.066667561798269
 21
9.9748436152545708
 31
0.0
  0
LINE
  5
AF73
  8
0
 10
17.992821592975211
 20
9.6181549339569017
 30
0.0
 11
18.09649048537899
 21
9.7218238263606764
 31
0.0
  0
ARC
  5
AF74
  8
0
 10
18.106441038286359
 20
9.9090718103354902
 30
0.0
 40
0.3123171582137136
 50
242.11373735930431
 51
272.23121636225119
  0
LINE
  5
AF75
  8
0
 10
17.962600981814731
 20
9.4713832828033446
 30
0.0
 11
18.10618050593548
 21
9.4713832828033446
 31
0.0
  0
LINE
  5
AF76
  8
0
 10
17.847445279787941
 20
9.6990527907493274
 30
0.0
 11
18.069560335041469
 21
9.9211678460028594
 31
0.0
  0
LINE
  5
AF77
  8
0
 10
17.95366632874072
 20
9.6355682122173363
 30
0.0
 11
18.068935422786922
 21
9.7508373062635343
 31
0.0
  0
LINE
  5
AF78
  8
0
 10
17.86698957996995
 20
9.6054600059415094
 30
0.0
 11
18.043940755702451
 21
9.7824111816739912
 31
0.0
  0
LINE
  5
AF79
  8
0
 10
18.06018998488187
 20
9.6001982967839581
 30
0.0
 11
17.86097258424239
 21
9.7994156974234414
 31
0.0
  0
LINE
  5
AF7A
  8
0
 10
18.11994505682128
 20
9.5970117673394597
 30
0.0
 11
17.878790782860129
 21
9.8381660413006102
 31
0.0
  0
LINE
  5
AF7B
  8
0
 10
18.157226098020399
 20
9.6162992686352737
 30
0.0
 11
17.914536026860191
 21
9.8589893397954853
 31
0.0
  0
LINE
  5
AF7C
  8
0
 10
17.8028170037569
 20
9.5978559722233712
 30
0.0
 11
18.030750628615468
 21
9.8257895970819362
 31
0.0
  0
LINE
  5
AF7D
  8
0
 10
17.647042344267
 20
10.34717799265227
 30
0.0
 11
17.69595672097163
 21
10.39609236935687
 31
0.0
  0
ARC
  5
AF7E
  8
0
 10
17.426287132336832
 20
10.38957642818081
 30
0.0
 40
0.2658550704768048
 50
7.2000759999996893
 51
33.103049558948548
  0
LINE
  5
AF7F
  8
0
 10
17.706235331376661
 20
10.35013274775363
 30
0.0
 11
17.607797708111161
 21
10.44857037101913
 31
0.0
  0
LINE
  5
AF80
  8
0
 10
17.690045128426171
 20
10.422891493199019
 30
0.0
 11
17.59620413221565
 21
10.516732489409559
 31
0.0
  0
LINE
  5
AF81
  8
0
 10
17.580970710575549
 20
10.337674901455721
 30
0.0
 11
17.686646892888682
 21
10.443351083768849
 31
0.0
  0
LINE
  5
AF82
  8
0
 10
17.678101174845889
 20
10.20853119574635
 30
0.0
 11
17.72728096992217
 21
10.257710990822661
 31
0.0
  0
ARC
  5
AF83
  8
0
 10
17.646241933442329
 20
10.08585101559424
 30
0.0
 40
0.0327630347396096
 50
344.9315119999971
 51
68.198591000001144
  0
ARC
  5
AF84
  8
0
 10
18.588629655740181
 20
10.733173478868579
 30
0.0
 40
1.05086233149703
 50
208.56810299999719
 51
214.64690200000121
  0
LINE
  5
AF85
  8
0
 10
17.655461549530258
 20
10.242460112925659
 30
0.0
 11
17.71678183862155
 21
10.303780402016949
 31
0.0
  0
LINE
  5
AF86
  8
0
 10
17.629772609545949
 20
10.273339715436281
 30
0.0
 11
17.706296130056831
 21
10.349863235947151
 31
0.0
  0
LINE
  5
AF87
  8
0
 10
17.738962579079761
 20
10.20426841506068
 30
0.0
 11
17.53749673991393
 21
10.405734254226511
 31
0.0
  0
LINE
  5
AF88
  8
0
 10
17.723005487620231
 20
10.27679404901513
 30
0.0
 11
17.543099438865671
 21
10.456700097769691
 31
0.0
  0
LINE
  5
AF89
  8
0
 10
17.819294243086759
 20
10.06736820855876
 30
0.0
 11
17.678060286008069
 21
10.208602165637441
 31
0.0
  0
LINE
  5
AF8A
  8
0
 10
17.662212714704928
 20
10.56386099191012
 30
0.0
 11
17.62952729582609
 21
10.59654641078896
 31
0.0
  0
LINE
  5
AF8B
  8
0
 10
17.61195614667519
 20
10.55754901744494
 30
0.0
 11
17.596859355077822
 21
10.57264580904231
 31
0.0
  0
LINE
  5
AF8C
  8
0
 10
17.575433456860871
 20
10.55841181772073
 30
0.0
 11
17.587081334116771
 21
10.57005969497663
 31
0.0
  0
LINE
  5
AF8D
  8
0
 10
17.55206466796616
 20
10.56087195365904
 30
0.0
 11
17.543606807448789
 21
10.56932981417641
 31
0.0
  0
LINE
  5
AF8E
  8
0
 10
17.487076295948039
 20
10.569291783182249
 30
0.0
 11
17.478567103505512
 21
10.577800975624781
 31
0.0
  0
LINE
  5
AF8F
  8
0
 10
17.525889867966882
 20
10.56543677132167
 30
0.0
 11
17.5304049901473
 21
10.56995189350209
 31
0.0
  0
ARC
  5
AF90
  8
0
 10
17.498429026837371
 20
10.514328587705441
 30
0.0
 40
0.0561234118320286
 50
72.30057821114552
 51
119.8650034551282
  0
ARC
  5
AF91
  8
0
 10
17.52083411308168
 20
10.69496561032906
 30
0.0
 40
0.1238437846381486
 50
254.92820235261081
 51
264.83689421914022
  0
ARC
  5
AF92
  8
0
 10
-17.560910852693951
 20
11.07695370110172
 30
0.0
 40
0.5079187342075562
210
0.0
220
0.0
230
-1.0
 50
267.39120499999939
 51
275.78789220674309
  0
LINE
  5
AF93
  8
0
 10
17.666934756865501
 20
10.50257040725462
 30
0.0
 11
17.641408757322331
 21
10.5280964067978
 31
0.0
  0
LINE
  5
AF94
  8
0
 10
17.63118993897158
 20
10.358565434270981
 30
0.0
 11
17.63164047788889
 21
10.357191820319469
 31
0.0
  0
LINE
  5
AF95
  8
0
 10
17.63079659049852
 20
10.36030335800409
 30
0.0
 11
17.63118993897158
 21
10.358565434270981
 31
0.0
  0
LINE
  5
AF96
  8
0
 10
17.630496199950059
 20
10.36220103291588
 30
0.0
 11
17.63079659049852
 21
10.36030335800409
 31
0.0
  0
LINE
  5
AF97
  8
0
 10
17.63032453480654
 20
10.36405390040226
 30
0.0
 11
17.630496199950059
 21
10.36220103291588
 31
0.0
  0
LINE
  5
AF98
  8
0
 10
17.630317362548318
 20
10.3656574018596
 30
0.0
 11
17.63032453480654
 21
10.36405390040226
 31
0.0
  0
LINE
  5
AF99
  8
0
 10
17.630510450655741
 20
10.366806978684041
 30
0.0
 11
17.630317362548318
 21
10.3656574018596
 31
0.0
  0
LINE
  5
AF9A
  8
0
 10
17.63093956660915
 20
10.367298072272879
 30
0.0
 11
17.630510450655741
 21
10.366806978684041
 31
0.0
  0
LINE
  5
AF9B
  8
0
 10
17.63164047788889
 20
10.3669261240218
 30
0.0
 11
17.63093956660915
 21
10.367298072272879
 31
0.0
  0
LINE
  5
AF9C
  8
0
 10
17.63315717763367
 20
10.353574449624359
 30
0.0
 11
17.63164047788889
 21
10.357191820319469
 31
0.0
  0
LINE
  5
AF9D
  8
0
 10
17.634640934170211
 20
10.350092679525231
 30
0.0
 11
17.63315717763367
 21
10.353574449624359
 31
0.0
  0
LINE
  5
AF9E
  8
0
 10
17.636095032296119
 20
10.346723212264109
 30
0.0
 11
17.634640934170211
 21
10.350092679525231
 31
0.0
  0
LINE
  5
AF9F
  8
0
 10
17.63752275680903
 20
10.343442750083559
 30
0.0
 11
17.636095032296119
 21
10.346723212264109
 31
0.0
  0
LINE
  5
AFA0
  8
0
 10
17.638927392506531
 20
10.34022799522676
 30
0.0
 11
17.63752275680903
 21
10.343442750083559
 31
0.0
  0
LINE
  5
AFA1
  8
0
 10
17.649628490131821
 20
10.3423366246925
 30
0.0
 11
17.651369300440841
 21
10.338541727814111
 31
0.0
  0
LINE
  5
AFA2
  8
0
 10
17.647778754645302
 20
10.345912171191451
 30
0.0
 11
17.649628490131821
 21
10.3423366246925
 31
0.0
  0
LINE
  5
AFA3
  8
0
 10
17.645819699786649
 20
10.34927960564937
 30
0.0
 11
17.647778754645302
 21
10.345912171191451
 31
0.0
  0
LINE
  5
AFA4
  8
0
 10
17.643749018664199
 20
10.35247128993228
 30
0.0
 11
17.645819699786649
 21
10.34927960564937
 31
0.0
  0
LINE
  5
AFA5
  8
0
 10
17.641564404386369
 20
10.35551958590554
 30
0.0
 11
17.643749018664199
 21
10.35247128993228
 31
0.0
  0
LINE
  5
AFA6
  8
0
 10
17.639263550061539
 20
10.358456855434939
 30
0.0
 11
17.641564404386369
 21
10.35551958590554
 31
0.0
  0
LINE
  5
AFA7
  8
0
 10
17.636844148798101
 20
10.361315460387001
 30
0.0
 11
17.639263550061539
 21
10.358456855434939
 31
0.0
  0
LINE
  5
AFA8
  8
0
 10
17.63430389370442
 20
10.36412776262727
 30
0.0
 11
17.636844148798101
 21
10.361315460387001
 31
0.0
  0
LINE
  5
AFA9
  8
0
 10
17.63164047788889
 20
10.3669261240218
 30
0.0
 11
17.63430389370442
 21
10.36412776262727
 31
0.0
  0
LINE
  5
AFAA
  8
0
 10
17.656607058528252
 20
10.303024996967901
 30
0.0
 11
17.656078175790221
 21
10.30340099092632
 31
0.0
  0
LINE
  5
AFAB
  8
0
 10
17.657103403149911
 20
10.302791021113521
 30
0.0
 11
17.656607058528252
 21
10.303024996967901
 31
0.0
  0
LINE
  5
AFAC
  8
0
 10
17.657578486844422
 20
10.30266196263301
 30
0.0
 11
17.657103403149911
 21
10.302791021113521
 31
0.0
  0
LINE
  5
AFAD
  8
0
 10
17.658040995634359
 20
10.30260641198196
 30
0.0
 11
17.657578486844422
 21
10.30266196263301
 31
0.0
  0
LINE
  5
AFAE
  8
0
 10
17.658489250875849
 20
10.3026157243571
 30
0.0
 11
17.658040995634359
 21
10.30260641198196
 31
0.0
  0
LINE
  5
AFAF
  8
0
 10
17.658918982758419
 20
10.302686946141179
 30
0.0
 11
17.658489250875849
 21
10.3026157243571
 31
0.0
  0
LINE
  5
AFB0
  8
0
 10
17.659325921471599
 20
10.30281712371788
 30
0.0
 11
17.658918982758419
 21
10.302686946141179
 31
0.0
  0
LINE
  5
AFB1
  8
0
 10
17.659705797204889
 20
10.303003303468801
 30
0.0
 11
17.659325921471599
 21
10.30281712371788
 31
0.0
  0
LINE
  5
AFB2
  8
0
 10
17.660054340147809
 20
10.303242531777631
 30
0.0
 11
17.659705797204889
 21
10.303003303468801
 31
0.0
  0
LINE
  5
AFB3
  8
0
 10
17.660367280489879
 20
10.303531855026669
 30
0.0
 11
17.660054340147809
 21
10.303242531777631
 31
0.0
  0
LINE
  5
AFB4
  8
0
 10
17.660640348420628
 20
10.30386831959845
 30
0.0
 11
17.660367280489879
 21
10.303531855026669
 31
0.0
  0
LINE
  5
AFB5
  8
0
 10
17.66086714775258
 20
10.304259263579061
 30
0.0
 11
17.660640348420628
 21
10.30386831959845
 31
0.0
  0
LINE
  5
AFB6
  8
0
 10
17.661032776790272
 20
10.30475319186325
 30
0.0
 11
17.66086714775258
 21
10.304259263579061
 31
0.0
  0
LINE
  5
AFB7
  8
0
 10
17.66112020746133
 20
10.30540890104907
 30
0.0
 11
17.661032776790272
 21
10.30475319186325
 31
0.0
  0
LINE
  5
AFB8
  8
0
 10
17.661112411693271
 20
10.30628518773482
 30
0.0
 11
17.66112020746133
 21
10.30540890104907
 31
0.0
  0
LINE
  5
AFB9
  8
0
 10
17.660992361413701
 20
10.3074408485188
 30
0.0
 11
17.661112411693271
 21
10.30628518773482
 31
0.0
  0
LINE
  5
AFBA
  8
0
 10
17.660743028550201
 20
10.30893467999794
 30
0.0
 11
17.660992361413701
 21
10.3074408485188
 31
0.0
  0
LINE
  5
AFBB
  8
0
 10
17.660347385030299
 20
10.310825478771219
 30
0.0
 11
17.660743028550201
 21
10.30893467999794
 31
0.0
  0
LINE
  5
AFBC
  8
0
 10
17.659788402781611
 20
10.31317204143601
 30
0.0
 11
17.660347385030299
 21
10.310825478771219
 31
0.0
  0
LINE
  5
AFBD
  8
0
 10
17.659053419958791
 20
10.316007635274429
 30
0.0
 11
17.659788402781611
 21
10.31317204143601
 31
0.0
  0
LINE
  5
AFBE
  8
0
 10
17.658147239624821
 20
10.319263410303391
 30
0.0
 11
17.659053419958791
 21
10.316007635274429
 31
0.0
  0
LINE
  5
AFBF
  8
0
 10
17.657079031069799
 20
10.32284498722265
 30
0.0
 11
17.658147239624821
 21
10.319263410303391
 31
0.0
  0
LINE
  5
AFC0
  8
0
 10
17.644693270638321
 20
10.32644525121008
 30
0.0
 11
17.644693270638321
 21
10.32644525121008
 31
0.0
  0
LINE
  5
AFC1
  8
0
 10
17.641680536645769
 20
10.33390241645202
 30
0.0
 11
17.640312224186239
 21
10.337055649935101
 31
0.0
  0
LINE
  5
AFC2
  8
0
 10
17.643035614682731
 20
10.330744997019551
 30
0.0
 11
17.641680536645769
 21
10.33390241645202
 31
0.0
  0
LINE
  5
AFC3
  8
0
 10
17.644378315386241
 20
10.327572145718699
 30
0.0
 11
17.643035614682731
 21
10.330744997019551
 31
0.0
  0
LINE
  5
AFC4
  8
0
 10
17.645699785011502
 20
10.32442082398461
 30
0.0
 11
17.644378315386241
 21
10.327572145718699
 31
0.0
  0
LINE
  5
AFC5
  8
0
 10
17.646988742105108
 20
10.321340045091789
 30
0.0
 11
17.645699785011502
 21
10.32442082398461
 31
0.0
  0
LINE
  5
AFC6
  8
0
 10
17.6482339052138
 20
10.31837882231388
 30
0.0
 11
17.646988742105108
 21
10.321340045091789
 31
0.0
  0
LINE
  5
AFC7
  8
0
 10
17.649423992884209
 20
10.315586168924471
 30
0.0
 11
17.6482339052138
 21
10.31837882231388
 31
0.0
  0
LINE
  5
AFC8
  8
0
 10
17.650547723663049
 20
10.313011098198089
 30
0.0
 11
17.649423992884209
 21
10.315586168924471
 31
0.0
  0
LINE
  5
AFC9
  8
0
 10
17.651593816096959
 20
10.310702623408121
 30
0.0
 11
17.650547723663049
 21
10.313011098198089
 31
0.0
  0
LINE
  5
AFCA
  8
0
 10
17.652550988732621
 20
10.30870975782863
 30
0.0
 11
17.651593816096959
 21
10.310702623408121
 31
0.0
  0
LINE
  5
AFCB
  8
0
 10
17.653411719890489
 20
10.30706716239956
 30
0.0
 11
17.652550988732621
 21
10.30870975782863
 31
0.0
  0
LINE
  5
AFCC
  8
0
 10
17.654183526985971
 20
10.30575208872459
 30
0.0
 11
17.653411719890489
 21
10.30706716239956
 31
0.0
  0
LINE
  5
AFCD
  8
0
 10
17.654877687208291
 20
10.304727436074471
 30
0.0
 11
17.654183526985971
 21
10.30575208872459
 31
0.0
  0
LINE
  5
AFCE
  8
0
 10
17.65550547774663
 20
10.303956103718059
 30
0.0
 11
17.654877687208291
 21
10.304727436074471
 31
0.0
  0
LINE
  5
AFCF
  8
0
 10
17.654493206456909
 20
10.33060802953468
 30
0.0
 11
17.655857963583792
 21
10.326657986733149
 31
0.0
  0
LINE
  5
AFD0
  8
0
 10
17.652993928979232
 20
10.334600736328181
 30
0.0
 11
17.654493206456909
 21
10.33060802953468
 31
0.0
  0
LINE
  5
AFD1
  8
0
 10
17.656078175790221
 20
10.30340099092632
 30
0.0
 11
17.65550547774663
 21
10.303956103718059
 31
0.0
  0
LINE
  5
AFD2
  8
0
 10
17.655857963583792
 20
10.326657986733149
 30
0.0
 11
17.657079031069799
 21
10.32284498722265
 31
0.0
  0
LINE
  5
AFD3
  8
0
 10
17.640312224186239
 20
10.337055649935101
 30
0.0
 11
17.638927392506531
 21
10.34022799522676
 31
0.0
  0
LINE
  5
AFD4
  8
0
 10
17.651369300440841
 20
10.338541727814111
 30
0.0
 11
17.652993928979232
 21
10.334600736328181
 31
0.0
  0
LINE
  5
AFD5
  8
0
 10
17.591959612190269
 20
10.46440846694002
 30
0.0
 11
17.518380071275061
 21
10.53798800785523
 31
0.0
  0
LINE
  5
AFD6
  8
0
 10
17.516257900420278
 20
10.49923626128014
 30
0.0
 11
17.547648200463371
 21
10.53062656132324
 31
0.0
  0
LINE
  5
AFD7
  8
0
 10
17.542248561292791
 20
10.468658379657739
 30
0.0
 11
17.591261131843311
 21
10.517670950208251
 31
0.0
  0
LINE
  5
AFD8
  8
0
 10
17.53706133846233
 20
10.40690261433236
 30
0.0
 11
17.577569000084321
 21
10.44741027595434
 31
0.0
  0
LINE
  5
AFD9
  8
0
 10
17.557879193684862
 20
10.371151927059969
 30
0.0
 11
17.604637201068918
 21
10.417909934444021
 31
0.0
  0
LINE
  5
AFDA
  8
0
 10
17.61524003917517
 20
10.4261106323122
 30
0.0
 11
17.614605446409879
 21
10.430197642598831
 31
0.0
  0
LINE
  5
AFDB
  8
0
 10
17.615189097095389
 20
10.4217296134509
 30
0.0
 11
17.61524003917517
 21
10.4261106323122
 31
0.0
  0
LINE
  5
AFDC
  8
0
 10
17.617039022335469
 20
10.41802976297048
 30
0.0
 11
17.615189097095389
 21
10.4217296134509
 31
0.0
  0
LINE
  5
AFDD
  8
0
 10
17.559384231926511
 20
10.47267897067263
 30
0.0
 11
17.5708010797496
 21
10.47156697784521
 31
0.0
  0
LINE
  5
AFDE
  8
0
 10
17.543369497531131
 20
10.46707825287262
 30
0.0
 11
17.559384231926511
 21
10.47267897067263
 31
0.0
  0
LINE
  5
AFDF
  8
0
 10
17.48630272427166
 20
10.520023084133751
 30
0.0
 11
17.518793582756459
 21
10.5382195950317
 31
0.0
  0
ARC
  5
AFE0
  8
0
 10
-17.42752720810752
 20
10.39896723671631
 30
0.0
 40
0.1338917960342706
210
0.0
220
0.0
230
-1.0
 50
121.6558269999997
 51
144.64895300000001
  0
LINE
  5
AFE1
  8
0
 10
17.497795257470429
 20
10.51293776858005
 30
0.0
 11
17.48630272427166
 21
10.520023084133751
 31
0.0
  0
LINE
  5
AFE2
  8
0
 10
17.518793582756459
 20
10.5382195950317
 30
0.0
 11
17.53186532042843
 21
10.534839951910261
 31
0.0
  0
LINE
  5
AFE3
  8
0
 10
17.536732472279589
 20
10.476434129696591
 30
0.0
 11
17.543369497531131
 21
10.46707825287262
 31
0.0
  0
ARC
  5
AFE4
  8
0
 10
17.554982836233371
 20
10.416812975008259
 30
0.0
 40
0.0416196791816588
 50
74.744880999999538
 51
127.8749840000016
  0
ARC
  5
AFE5
  8
0
 10
17.267825243479841
 20
9.5139694060126203
 30
0.0
 40
1.0544632087935999
 50
72.610478999999856
 51
75.498730000000094
  0
ARC
  5
AFE6
  8
0
 10
-20.740485691703419
 20
9.9483568867754002
 30
0.0
 40
3.3454711744005761
210
0.0
220
0.0
230
-1.0
 50
8.0156543690893525
 51
9.8425980000020008
  0
ARC
  5
AFE7
  8
0
 10
17.6540637259208
 20
10.44983945307467
 30
0.0
 40
0.124631981417949
 50
180.0799099999989
 51
205.5286220000001
  0
ARC
  5
AFE8
  8
0
 10
-17.44747321557406
 20
10.300871712400969
 30
0.0
 40
0.1959552595763272
210
0.0
220
0.0
230
-1.0
 50
127.19517800000079
 51
145.90113699999739
  0
LINE
  5
AFE9
  8
0
 10
17.61491718678807
 20
10.42818992016317
 30
0.0
 11
17.67367063509505
 21
10.48694336847014
 31
0.0
  0
LINE
  5
AFEA
  8
0
 10
17.593542230723578
 20
10.463383506593599
 30
0.0
 11
17.65509992874366
 21
10.524941204613659
 31
0.0
  0
LINE
  5
AFEB
  8
0
 10
17.604939183333379
 20
10.30507483171862
 30
0.0
 11
17.639281397996911
 21
10.339417046382151
 31
0.0
  0
ARC
  5
AFEC
  8
0
 10
17.566037267546001
 20
10.422648026374871
 30
0.0
 40
0.0491518295493832
 50
8.8358109999969923
 51
84.437342999999785
  0
ARC
  5
AFED
  8
0
 10
-17.605085099442679
 20
10.576996706161699
 30
0.0
 40
0.0609150835149774
210
0.0
220
0.0
230
-1.0
 50
223.8814911584208
 51
291.28884900000031
  0
ARC
  5
AFEE
  8
0
 10
17.61217187048431
 20
10.41559618704513
 30
0.0
 40
0.0054420696086806
 50
243.4349489999997
 51
26.56505100000237
  0
LINE
  5
AFEF
  8
0
 10
17.45498276597835
 20
10.54481677065702
 30
0.0
 11
17.427496708951541
 21
10.572302827683821
 31
0.0
  0
ARC
  5
AFF0
  8
0
 10
-17.527867094909571
 20
10.4983843441305
 30
0.0
 40
0.0864181441416962
210
0.0
220
0.0
230
-1.0
 50
14.64864200000166
 51
48.391215914724903
  0
ARC
  5
AFF1
  8
0
 10
17.60240948615813
 20
10.92687658479689
 30
0.0
 40
0.3694509314281618
 50
256.3929548767112
 51
277.39035656052778
  0
LINE
  5
AFF2
  8
0
 10
17.391279395896731
 20
10.54396338424136
 30
0.0
 11
17.409628192934719
 21
10.56231218127936
 31
0.0
  0
LINE
  5
AFF3
  8
0
 10
17.44115636052431
 20
10.502074633616131
 30
0.0
 11
17.394571259260839
 21
10.54865973487961
 31
0.0
  0
ARC
  5
AFF4
  8
0
 10
17.33216304439069
 20
10.426131786480481
 30
0.0
 40
0.09619915949456
 50
317.2386040915377
 51
353.272091005444
  0
LINE
  5
AFF5
  8
0
 10
17.67732862513521
 20
10.09619674152046
 30
0.0
 11
17.642067294888541
 21
10.13145807176714
 31
0.0
  0
LINE
  5
AFF6
  8
0
 10
17.631141288345471
 20
10.04843422425609
 30
0.0
 11
17.677702854316639
 21
10.09499579022728
 31
0.0
  0
LINE
  5
AFF7
  8
0
 10
17.673989356555438
 20
10.062890692492591
 30
0.0
 11
17.67787696498678
 21
10.07733495534284
 31
0.0
  0
LINE
  5
AFF8
  8
0
 10
17.63164047788889
 20
10.04813204423567
 30
0.0
 11
17.630659478981109
 21
10.048725883337269
 31
0.0
  0
LINE
  5
AFF9
  8
0
 10
17.653702764898359
 20
10.12131106958622
 30
0.0
 11
17.65110762980548
 21
10.123571442440589
 31
0.0
  0
LINE
  5
AFFA
  8
0
 10
17.655213561435879
 20
10.11754863312216
 30
0.0
 11
17.653702764898359
 21
10.12131106958622
 31
0.0
  0
LINE
  5
AFFB
  8
0
 10
17.658408357582189
 20
10.116270714663861
 30
0.0
 11
17.655213561435879
 21
10.11754863312216
 31
0.0
  0
LINE
  5
AFFC
  8
0
 10
17.663630648503819
 20
10.043084411873441
 30
0.0
 11
17.673989356555438
 21
10.062890692492591
 31
0.0
  0
LINE
  5
AFFD
  8
0
 10
17.648675509367902
 20
10.04326489238473
 30
0.0
 11
17.663630648503819
 21
10.043084411873441
 31
0.0
  0
ARC
  5
AFFE
  8
0
 10
17.649080135030161
 20
10.07692887419239
 30
0.0
 40
0.0336668927837366
 50
238.7994850000004
 51
269.30972299999962
  0
LINE
  5
AFFF
  8
0
 10
17.547722179985051
 20
10.13472074338045
 30
0.0
 11
17.590136269951081
 21
10.17713483334648
 31
0.0
  0
LINE
  5
B000
  8
0
 10
17.43370818973316
 20
10.19041238061333
 30
0.0
 11
17.50065713623988
 21
10.25736132712005
 31
0.0
  0
LINE
  5
B001
  8
0
 10
17.467184727261291
 20
10.16732037564654
 30
0.0
 11
17.530369244801602
 21
10.23050489318684
 31
0.0
  0
LINE
  5
B002
  8
0
 10
17.505041164222671
 20
10.148608270113
 30
0.0
 11
17.56019559760459
 21
10.20376270349491
 31
0.0
  0
ARC
  5
B003
  8
0
 10
-17.541599624130729
 20
10.072467803491451
 30
0.0
 40
0.062043086710144
210
0.0
220
0.0
230
-1.0
 50
101.30993199999961
 51
138.1798300000018
  0
ARC
  5
B004
  8
0
 10
17.619472598261041
 20
10.427764066673021
 30
0.0
 40
0.301699373299211
 50
236.18175400000169
 51
257.42106500000028
  0
LINE
  5
B005
  8
0
 10
17.585689243687501
 20
10.116119264587979
 30
0.0
 11
17.620191342799451
 21
10.15062136369993
 31
0.0
  0
LINE
  5
B006
  8
0
 10
17.606228799295021
 20
10.08009027770057
 30
0.0
 11
17.650360902784112
 21
10.124222381189661
 31
0.0
  0
ARC
  5
B007
  8
0
 10
17.801667674344319
 20
10.20848897846076
 30
0.0
 40
0.233843067541977
 50
203.8764569999976
 51
222.4805659999999
  0
LINE
  5
B008
  8
0
 10
17.40232027943388
 20
10.215593012808981
 30
0.0
 11
17.47105920225485
 21
10.28433193562994
 31
0.0
  0
ARC
  5
B009
  8
0
 10
18.676845327554169
 20
11.118281047137989
 30
0.0
 40
1.345469111802633
 50
212.4612569999974
 51
221.27853800000011
  0
ARC
  5
B00A
  8
0
 10
-24.183586634261641
 20
17.62103025383362
 30
0.0
 40
9.9441021081732863
210
0.0
220
0.0
230
-1.0
 50
311.0653919999998
 51
313.01071529566309
  0
LINE
  5
B00B
  8
0
 10
17.31273273411621
 20
10.352279637471
 30
0.0
 11
17.322331644750189
 21
10.36187854810497
 31
0.0
  0
LINE
  5
B00C
  8
0
 10
17.309099312175341
 20
10.351288969490479
 30
0.0
 11
17.299312847501358
 21
10.36107543416446
 31
0.0
  0
LINE
  5
B00D
  8
0
 10
17.37136655561347
 20
10.34559026854726
 30
0.0
 11
17.357643698066511
 21
10.359313126094239
 31
0.0
  0
LINE
  5
B00E
  8
0
 10
17.28257459826019
 20
10.321245140910699
 30
0.0
 11
17.256543937581
 21
10.3472758015899
 31
0.0
  0
LINE
  5
B00F
  8
0
 10
17.228389196325949
 20
10.324504642175659
 30
0.0
 11
17.238764798976561
 21
10.33488024482627
 31
0.0
  0
LINE
  5
B010
  8
0
 10
17.377887790080241
 20
10.48096943028508
 30
0.0
 11
17.380985068530968
 21
10.46670128148229
 31
0.0
  0
LINE
  5
B011
  8
0
 10
17.379983692791249
 20
10.495937668812751
 30
0.0
 11
17.377887790080241
 21
10.48096943028508
 31
0.0
  0
LINE
  5
B012
  8
0
 10
17.380985068530968
 20
10.5105041926547
 30
0.0
 11
17.379983692791249
 21
10.495937668812751
 31
0.0
  0
ARC
  5
B013
  8
0
 10
-17.224022332307559
 20
10.432631218524181
 30
0.0
 40
0.1606174665757504
210
0.0
220
0.0
230
-1.0
 50
167.753667000002
 51
198.4295387765639
  0
ARC
  5
B014
  8
0
 10
17.322850673750519
 20
10.308012199994421
 30
0.0
 40
0.0454090158799492
 50
61.640158362231332
 51
139.13362845344469
  0
ARC
  5
B015
  8
0
 10
17.315096968680891
 20
10.2389551834226
 30
0.0
 40
0.1231360796950428
 50
78.514521519517345
 51
118.2181686236387
  0
ARC
  5
B016
  8
0
 10
-17.345257204748059
 20
10.30796721637056
 30
0.0
 40
0.0640734924614436
210
0.0
220
0.0
230
-1.0
 50
358.3182239999997
 51
27.671010000001559
  0
ARC
  5
B017
  8
0
 10
17.33231500550751
 20
10.29878599810603
 30
0.0
 40
0.0121678796278604
 50
180.0
 51
233.13010199999891
  0
LINE
  5
B018
  8
0
 10
17.238137885623889
 20
10.33420551251128
 30
0.0
 11
17.238137885623889
 21
10.33420551251128
 31
0.0
  0
ARC
  5
B019
  8
0
 10
-17.349115703419521
 20
10.38751691266952
 30
0.0
 40
0.0294648989457422
210
0.0
220
0.0
230
-1.0
 50
246.9426104235107
 51
288.80904999999962
  0
ARC
  5
B01A
  8
0
 10
17.33926947961379
 20
10.39261136002732
 30
0.0
 40
0.0386595967369562
 50
303.58637854013671
 51
343.84355974110872
  0
LINE
  5
B01B
  8
0
 10
17.28733576585369
 20
10.0336412608426
 30
0.0
 11
17.243785958134879
 21
10.077191068561399
 31
0.0
  0
ARC
  5
B01C
  8
0
 10
17.18995226934954
 20
10.010411617389529
 30
0.0
 40
0.1001157416510018
 50
7.4819300195313572
 51
20.637547000001629
  0
ARC
  5
B01D
  8
0
 10
17.238513170773452
 20
10.02954837353149
 30
0.0
 40
0.0479335860986034
 50
19.689399999997601
 51
85.499885999999734
  0
LINE
  5
B01E
  8
0
 10
17.11615167003049
 20
10.042561488395419
 30
0.0
 11
17.133138347215841
 21
10.059548165580781
 31
0.0
  0
LINE
  5
B01F
  8
0
 10
17.09166690136621
 20
10.17274158283514
 30
0.0
 11
17.068025087531701
 21
10.19638339666964
 31
0.0
  0
LINE
  5
B020
  8
0
 10
17.124690960348811
 20
10.19628606634746
 30
0.0
 11
17.107540078605702
 21
10.21343694809058
 31
0.0
  0
LINE
  5
B021
  8
0
 10
17.168724280506709
 20
10.20882128868449
 30
0.0
 11
17.153645870605679
 21
10.223899698585511
 31
0.0
  0
LINE
  5
B022
  8
0
 10
17.225360315848881
 20
10.20875379583725
 30
0.0
 11
17.203298777416599
 21
10.23081533426952
 31
0.0
  0
LINE
  5
B023
  8
0
 10
17.209864800592211
 20
10.20766517225638
 30
0.0
 11
17.225239120270331
 21
10.208745144347629
 31
0.0
  0
LINE
  5
B024
  8
0
 10
17.202677600879021
 20
10.24947406487694
 30
0.0
 11
17.20333693694019
 21
10.26228381471037
 31
0.0
  0
LINE
  5
B025
  8
0
 10
17.203549432612039
 20
10.23351335821712
 30
0.0
 11
17.202677600879021
 21
10.24947406487694
 31
0.0
  0
ARC
  5
B026
  8
0
 10
-17.172917237870529
 20
10.08220065170576
 30
0.0
 40
0.1266900414411302
210
0.0
220
0.0
230
-1.0
 50
73.82784100000049
 51
92.752484999999922
  0
LINE
  5
B027
  8
0
 10
17.179001177684459
 20
10.208745144347629
 30
0.0
 11
17.194395874194491
 21
10.208005756446919
 31
0.0
  0
LINE
  5
B028
  8
0
 10
17.191169057312319
 20
10.225780175826671
 30
0.0
 11
17.196774162533568
 21
10.225631283259631
 31
0.0
  0
LINE
  5
B029
  8
0
 10
17.194395874194491
 20
10.208005756446919
 30
0.0
 11
17.209864800592211
 21
10.20766517225638
 31
0.0
  0
ARC
  5
B02A
  8
0
 10
17.196385621564939
 20
10.232818244236331
 30
0.0
 40
0.0071974559508554
 50
273.09450790218631
 51
5.5421348733659759
  0
LINE
  5
B02B
  8
0
 10
17.22205742351597
 20
10.078925803719811
 30
0.0
 11
17.201714067827151
 21
10.077413551694219
 31
0.0
  0
ARC
  5
B02C
  8
0
 10
17.181644343881139
 20
10.02383849413194
 30
0.0
 40
0.0534964612107664
 50
90.224687999999887
 51
137.0340669999992
  0
ARC
  5
B02D
  8
0
 10
-17.10842893133087
 20
10.038397740533339
 30
0.0
 40
0.0087736816264046
210
0.0
220
0.0
230
-1.0
 50
146.3099320000002
 51
303.69006799999852
  0
ARC
  5
B02E
  8
0
 10
17.124247174847099
 20
10.05056562016124
 30
0.0
 40
0.011217445967933
 50
167.4711920000004
 51
220.6012949999994
  0
ARC
  5
B02F
  8
0
 10
17.142903619951142
 20
9.9966223241362968
 30
0.0
 40
0.0636790552151338
 50
90.364936000000014
 51
117.7075509999996
  0
ARC
  5
B030
  8
0
 10
17.07679244429843
 20
10.037180952570671
 30
0.0
 40
0.011217445967933
 50
49.398704999999332
 51
130.6012950000005
  0
ARC
  5
B031
  8
0
 10
17.0098705618332
 20
9.9264547034451862
 30
0.0
 40
0.1404560468861426
 50
48.160362000000802
 51
58.099843000000789
  0
LINE
  5
B032
  8
0
 10
17.201714067827151
 20
10.077413551694219
 30
0.0
 11
17.181434753610048
 21
10.07733495534284
 31
0.0
  0
ARC
  5
B033
  8
0
 10
-17.28949309324301
 20
9.930198218565458
 30
0.0
 40
0.3129895936668322
210
0.0
220
0.0
230
-1.0
 50
44.07312200000132
 51
60.97451899999939
  0
LINE
  5
B034
  8
0
 10
17.225811450812841
 20
10.208789811672711
 30
0.0
 11
17.259174275647819
 21
10.24215263650769
 31
0.0
  0
ARC
  5
B035
  8
0
 10
17.222670183961341
 20
10.24529390335919
 30
0.0
 40
0.036638999267001
 50
274.02034199999991
 51
359.92952600000149
  0
LINE
  5
B036
  8
0
 10
17.242274151749339
 20
10.07733495534284
 30
0.0
 11
17.22205742351597
 21
10.078925803719811
 31
0.0
  0
LINE
  5
B037
  8
0
 10
17.169291908424309
 20
10.20883881177909
 30
0.0
 11
17.28282357128462
 21
10.322370474639399
 31
0.0
  0
LINE
  5
B038
  8
0
 10
17.27053697415317
 20
10.2767142225228
 30
0.0
 11
17.225824380982178
 21
10.321426815693791
 31
0.0
  0
LINE
  5
B039
  8
0
 10
17.257314114985981
 20
10.233368539195061
 30
0.0
 11
17.206776874737692
 21
10.283905779443341
 31
0.0
  0
ARC
  5
B03A
  8
0
 10
-22.563206405685001
 20
8.3702061868498276
 30
0.0
 40
5.625577534934262
210
0.0
220
0.0
230
-1.0
 50
19.469593999999692
 51
20.128158999999531
  0
ARC
  5
B03B
  8
0
 10
17.306282147251071
 20
10.25698729390114
 30
0.0
 40
0.103082026182291
 50
118.6401079999989
 51
177.05530099999939
  0
LINE
  5
B03C
  8
0
 10
17.407373776913779
 20
10.366151589741881
 30
0.0
 11
17.379845251422822
 21
10.393680115232851
 31
0.0
  0
ARC
  5
B03D
  8
0
 10
17.45764125469849
 20
10.50523095965309
 30
0.0
 40
0.0768381221667468
 50
147.0648840000004
 51
176.06521800000141
  0
ARC
  5
B03E
  8
0
 10
17.319402888941472
 20
10.38865374785609
 30
0.0
 40
0.0898708313849426
 50
270.47448234597562
 51
334.2733758010491
  0
ARC
  5
B03F
  8
0
 10
17.36287470264751
 20
10.403154044941621
 30
0.0
 40
0.05818676756424
 50
251.50885560391629
 51
313.31489517703852
  0
LINE
  5
B040
  8
0
 10
17.433343340554948
 20
10.45331911109057
 30
0.0
 11
17.380674593123
 21
10.505987858522509
 31
0.0
  0
LINE
  5
B041
  8
0
 10
17.425841145586642
 20
10.404252763563949
 30
0.0
 11
17.384081422088592
 21
10.446012487061999
 31
0.0
  0
LINE
  5
B042
  8
0
 10
17.361995558394732
 20
10.344973919254601
 30
0.0
 11
17.426995532349771
 21
10.40997389320963
 31
0.0
  0
LINE
  5
B043
  8
0
 10
17.384405131708441
 20
10.42395203506323
 30
0.0
 11
17.43696847761915
 21
10.47651538097394
 31
0.0
  0
LINE
  5
B044
  8
0
 10
17.379130272821651
 20
10.475245718671349
 30
0.0
 11
17.481168317558389
 21
10.577283763408101
 31
0.0
  0
ARC
  5
B045
  8
0
 10
17.46228426139859
 20
10.489109974634159
 30
0.0
 40
0.0901733031656052
 50
73.03881876547284
 51
140.05411400000079
  0
ARC
  5
B046
  8
0
 10
17.35908434068881
 20
9.7220372366730246
 30
0.0
 40
0.2975294001970794
 50
74.827085000000451
 51
93.780599201570212
  0
LINE
  5
B047
  8
0
 10
17.667147687483169
 20
10.04980913667757
 30
0.0
 11
17.387245252129169
 21
10.32971157203157
 31
0.0
  0
LINE
  5
B048
  8
0
 10
17.516039172904659
 20
10.144349108761171
 30
0.0
 11
17.354478092179249
 21
10.30591018948658
 31
0.0
  0
LINE
  5
B049
  8
0
 10
17.343448980536149
 20
10.26985879890109
 30
0.0
 11
17.412205607444111
 21
10.33861542580906
 31
0.0
  0
LINE
  5
B04A
  8
0
 10
17.372237661743341
 20
10.24207893761335
 30
0.0
 11
17.441575378802579
 21
10.311416654672589
 31
0.0
  0
ARC
  5
B04B
  8
0
 10
17.966657426853342
 20
10.88689193235359
 30
0.0
 40
0.8769941022260598
 50
222.97599100000181
 51
234.03107199999849
  0
LINE
  5
B04C
  8
0
 10
18.207586139655142
 20
10.568310533070839
 30
0.0
 11
18.21949072843217
 21
10.580215121847869
 31
0.0
  0
LINE
  5
B04D
  8
0
 10
18.232384965791429
 20
10.55937416577286
 30
0.0
 11
18.20675514332882
 21
10.58500398823548
 31
0.0
  0
LINE
  5
B04E
  8
0
 10
18.263008629948491
 20
10.28432176839466
 30
0.0
 11
18.28751602698777
 21
10.308829165433931
 31
0.0
  0
LINE
  5
B04F
  8
0
 10
18.230652191000789
 20
10.308533871941879
 30
0.0
 11
18.252697475492312
 21
10.33057915643341
 31
0.0
  0
ARC
  5
B050
  8
0
 10
17.708500789622249
 20
10.514278332349701
 30
0.0
 40
0.5530452836628448
 50
354.4404940156054
 51
0.5876029673891453
  0
ARC
  5
B051
  8
0
 10
-18.29338554109227
 20
10.39696329712228
 30
0.0
 40
0.0294648989457422
210
0.0
220
0.0
230
-1.0
 50
251.1909500000001
 51
2.5488450000021312
  0
LINE
  5
B052
  8
0
 10
18.24696258213222
 20
10.29954721832631
 30
0.0
 11
18.229089189568811
 21
10.30939505009246
 31
0.0
  0
ARC
  5
B053
  8
0
 10
-18.281659960415539
 20
10.338199157489029
 30
0.0
 40
0.0299481209596716
210
0.0
220
0.0
230
-1.0
 50
235.944996
 51
349.72231199999862
  0
ARC
  5
B054
  8
0
 10
-18.41537418691459
 20
10.4273579855228
 30
0.0
 40
0.1885715689839664
210
0.0
220
0.0
230
-1.0
 50
329.9239329999981
 51
348.9639769999971
  0
LINE
  5
B055
  8
0
 10
18.21180526964288
 20
10.32310283601737
 30
0.0
 11
18.206664486048901
 21
10.304820451327711
 31
0.0
  0
LINE
  5
B056
  8
0
 10
18.229089189568811
 20
10.30939505009246
 30
0.0
 11
18.21180526964288
 21
10.32310283601737
 31
0.0
  0
ARC
  5
B057
  8
0
 10
14.825444164576311
 20
10.068382188791469
 30
0.0
 40
3.4201217066346001
 50
5.4171073892208561
 51
7.2630351398035851
  0
ARC
  5
B058
  8
0
 10
-18.41847891220425
 20
10.44207760297672
 30
0.0
 40
0.1606174665757504
210
0.0
220
0.0
230
-1.0
 50
344.17384599999849
 51
6.6578431552748611
  0
ARC
  5
B059
  8
0
 10
18.184859989813319
 20
10.51467734410584
 30
0.0
 40
0.0768381221667468
 50
3.9347819999985312
 51
32.93511599999924
  0
ARC
  5
B05A
  8
0
 10
18.201959690886561
 20
10.55424516250582
 30
0.0
 40
0.0308545625078438
 50
355.59419036477749
 51
64.085314639206516
  0
LINE
  5
B05B
  8
0
 10
18.03038353138782
 20
10.560813552288289
 30
0.0
 11
18.040027302034709
 21
10.570457322935191
 31
0.0
  0
LINE
  5
B05C
  8
0
 10
18.159891081938529
 20
10.57529950713085
 30
0.0
 11
18.153969648727369
 21
10.581220940342
 31
0.0
  0
LINE
  5
B05D
  8
0
 10
18.1854492930518
 20
10.574647548539801
 30
0.0
 11
18.189849233256961
 21
10.57503907481008
 31
0.0
  0
LINE
  5
B05E
  8
0
 10
18.18161990414022
 20
10.57620928715686
 30
0.0
 11
18.1854492930518
 21
10.574647548539801
 31
0.0
  0
LINE
  5
B05F
  8
0
 10
18.171137543435599
 20
10.577851355018529
 30
0.0
 11
18.171137543435599
 21
10.577851355018529
 31
0.0
  0
ARC
  5
B060
  8
0
 10
-18.05750898742404
 20
10.81226324096132
 30
0.0
 40
0.250370133711158
210
0.0
220
0.0
230
-1.0
 50
244.6803130000001
 51
254.2075959999994
  0
ARC
  5
B061
  8
0
 10
-18.1717502400545
 20
10.552010343772499
 30
0.0
 40
0.026134742416012
210
0.0
220
0.0
230
-1.0
 50
33.607863999999189
 51
112.1866780000003
  0
LINE
  5
B062
  8
0
 10
18.189849233256961
 20
10.57503907481008
 30
0.0
 11
18.19378778376808
 21
10.57377571123151
 31
0.0
  0
ARC
  5
B063
  8
0
 10
-18.070893655014679
 20
11.07630186242204
 30
0.0
 40
0.5079187342075562
210
0.0
220
0.0
230
-1.0
 50
263.81138399999998
 51
272.6087950000001
  0
LINE
  5
B064
  8
0
 10
18.13816830019821
 20
10.37074811889147
 30
0.0
 11
18.0807857731944
 21
10.428130645895269
 31
0.0
  0
LINE
  5
B065
  8
0
 10
18.167784164199599
 20
10.284563712395149
 30
0.0
 11
18.075527168557159
 21
10.376820708037579
 31
0.0
  0
LINE
  5
B066
  8
0
 10
18.103989985701741
 20
10.46471437911743
 30
0.0
 11
18.177087893490381
 21
10.53781228690608
 31
0.0
  0
ARC
  5
B067
  8
0
 10
-18.221469709921461
 20
10.568985700243941
 30
0.0
 40
0.0542358491115982
210
0.0
220
0.0
230
-1.0
 50
289.32416899999902
 51
336.09461099999959
  0
LINE
  5
B068
  8
0
 10
18.0604578060994
 20
10.549584045286791
 30
0.0
 11
18.055075411498471
 21
10.551874983389091
 31
0.0
  0
LINE
  5
B069
  8
0
 10
18.132869789277109
 20
10.339564405227049
 30
0.0
 11
18.132687853277879
 21
10.334045194754699
 31
0.0
  0
LINE
  5
B06A
  8
0
 10
18.115337587357569
 20
10.33802183053489
 30
0.0
 11
18.116275550110199
 21
10.33716172193953
 31
0.0
  0
LINE
  5
B06B
  8
0
 10
18.132687853277879
 20
10.334045194754699
 30
0.0
 11
18.12966334922686
 21
10.334128157570371
 31
0.0
  0
LINE
  5
B06C
  8
0
 10
18.126971745176242
 20
10.334254620620181
 30
0.0
 11
18.12966334922686
 21
10.334128157570371
 31
0.0
  0
LINE
  5
B06D
  8
0
 10
18.12455128688358
 20
10.33448025300321
 30
0.0
 11
18.126971745176242
 21
10.334254620620181
 31
0.0
  0
LINE
  5
B06E
  8
0
 10
18.122395099158069
 20
10.334806933777131
 30
0.0
 11
18.12455128688358
 21
10.33448025300321
 31
0.0
  0
LINE
  5
B06F
  8
0
 10
18.1204963068088
 20
10.335236542000059
 30
0.0
 11
18.122395099158069
 21
10.334806933777131
 31
0.0
  0
LINE
  5
B070
  8
0
 10
18.118848034644969
 20
10.335770956729901
 30
0.0
 11
18.1204963068088
 21
10.335236542000059
 31
0.0
  0
LINE
  5
B071
  8
0
 10
18.117443407475712
 20
10.33641205702337
 30
0.0
 11
18.118848034644969
 21
10.335770956729901
 31
0.0
  0
LINE
  5
B072
  8
0
 10
18.116275550110199
 20
10.33716172193953
 30
0.0
 11
18.117443407475712
 21
10.33641205702337
 31
0.0
  0
LINE
  5
B073
  8
0
 10
18.140217820413621
 20
10.384599026904411
 30
0.0
 11
18.139713340315289
 21
10.383605148917461
 31
0.0
  0
LINE
  5
B074
  8
0
 10
18.140826959195518
 20
10.385543514952809
 30
0.0
 11
18.140217820413621
 21
10.384599026904411
 31
0.0
  0
LINE
  5
B075
  8
0
 10
18.141518480872062
 20
10.38641380438342
 30
0.0
 11
18.140826959195518
 21
10.385543514952809
 31
0.0
  0
LINE
  5
B076
  8
0
 10
18.142270109654341
 20
10.387185086518
 30
0.0
 11
18.141518480872062
 21
10.38641380438342
 31
0.0
  0
LINE
  5
B077
  8
0
 10
18.143059569753451
 20
10.3878325526764
 30
0.0
 11
18.142270109654341
 21
10.387185086518
 31
0.0
  0
LINE
  5
B078
  8
0
 10
18.143864585380499
 20
10.38833139418033
 30
0.0
 11
18.143059569753451
 21
10.3878325526764
 31
0.0
  0
LINE
  5
B079
  8
0
 10
18.14466288074658
 20
10.388656802350161
 30
0.0
 11
18.143864585380499
 21
10.38833139418033
 31
0.0
  0
LINE
  5
B07A
  8
0
 10
18.14543649393589
 20
10.388791766643619
 30
0.0
 11
18.14466288074658
 21
10.388656802350161
 31
0.0
  0
LINE
  5
B07B
  8
0
 10
18.14618471852507
 20
10.388750469066951
 30
0.0
 11
18.14543649393589
 21
10.388791766643619
 31
0.0
  0
LINE
  5
B07C
  8
0
 10
18.146911161963828
 20
10.388554889762631
 30
0.0
 11
18.14618471852507
 21
10.388750469066951
 31
0.0
  0
LINE
  5
B07D
  8
0
 10
18.147619431701909
 20
10.38822700887475
 30
0.0
 11
18.146911161963828
 21
10.388554889762631
 31
0.0
  0
LINE
  5
B07E
  8
0
 10
18.148313135189071
 20
10.387788806544441
 30
0.0
 11
18.147619431701909
 21
10.38822700887475
 31
0.0
  0
LINE
  5
B07F
  8
0
 10
18.14899587987502
 20
10.387262262915771
 30
0.0
 11
18.148313135189071
 21
10.387788806544441
 31
0.0
  0
LINE
  5
B080
  8
0
 10
18.149671273209488
 20
10.38666935813171
 30
0.0
 11
18.14899587987502
 21
10.387262262915771
 31
0.0
  0
LINE
  5
B081
  8
0
 10
18.150342922642249
 20
10.38603207233427
 30
0.0
 11
18.149671273209488
 21
10.38666935813171
 31
0.0
  0
LINE
  5
B082
  8
0
 10
18.151012750819831
 20
10.385367669545071
 30
0.0
 11
18.150342922642249
 21
10.38603207233427
 31
0.0
  0
LINE
  5
B083
  8
0
 10
18.15167594117619
 20
10.384674549295809
 30
0.0
 11
18.151012750819831
 21
10.385367669545071
 31
0.0
  0
LINE
  5
B084
  8
0
 10
18.152325992342121
 20
10.383946394995521
 30
0.0
 11
18.15167594117619
 21
10.384674549295809
 31
0.0
  0
LINE
  5
B085
  8
0
 10
18.15295640294838
 20
10.38317689005361
 30
0.0
 11
18.152325992342121
 21
10.383946394995521
 31
0.0
  0
LINE
  5
B086
  8
0
 10
18.153560671625751
 20
10.382359717879799
 30
0.0
 11
18.15295640294838
 21
10.38317689005361
 31
0.0
  0
LINE
  5
B087
  8
0
 10
18.154132297004999
 20
10.381488561883989
 30
0.0
 11
18.153560671625751
 21
10.382359717879799
 31
0.0
  0
LINE
  5
B088
  8
0
 10
18.154664777716931
 20
10.38055710547564
 30
0.0
 11
18.154132297004999
 21
10.381488561883989
 31
0.0
  0
LINE
  5
B089
  8
0
 10
18.155151612392299
 20
10.37955903206352
 30
0.0
 11
18.154664777716931
 21
10.38055710547564
 31
0.0
  0
LINE
  5
B08A
  8
0
 10
18.15558759406073
 20
10.37848993917645
 30
0.0
 11
18.155151612392299
 21
10.37955903206352
 31
0.0
  0
LINE
  5
B08B
  8
0
 10
18.15597269334712
 20
10.377353080815039
 30
0.0
 11
18.15558759406073
 21
10.37848993917645
 31
0.0
  0
LINE
  5
B08C
  8
0
 10
18.156308175275232
 20
10.376153625098819
 30
0.0
 11
18.15597269334712
 21
10.377353080815039
 31
0.0
  0
LINE
  5
B08D
  8
0
 10
18.156595304868791
 20
10.374896740147721
 30
0.0
 11
18.156308175275232
 21
10.376153625098819
 31
0.0
  0
LINE
  5
B08E
  8
0
 10
18.156835347151549
 20
10.373587594080609
 30
0.0
 11
18.156595304868791
 21
10.374896740147721
 31
0.0
  0
LINE
  5
B08F
  8
0
 10
18.157029567147259
 20
10.37223135501675
 30
0.0
 11
18.156835347151549
 21
10.373587594080609
 31
0.0
  0
LINE
  5
B090
  8
0
 10
18.157179229879659
 20
10.37083319107659
 30
0.0
 11
18.157029567147259
 21
10.37223135501675
 31
0.0
  0
LINE
  5
B091
  8
0
 10
18.1572856003725
 20
10.36939827037917
 30
0.0
 11
18.157179229879659
 21
10.37083319107659
 31
0.0
  0
LINE
  5
B092
  8
0
 10
18.15734604623928
 20
10.36793597684208
 30
0.0
 11
18.1572856003725
 21
10.36939827037917
 31
0.0
  0
LINE
  5
B093
  8
0
 10
18.157342345452591
 20
10.36647255757566
 30
0.0
 11
18.15734604623928
 21
10.36793597684208
 31
0.0
  0
LINE
  5
B094
  8
0
 10
18.157252378574778
 20
10.36503847548942
 30
0.0
 11
18.157342345452591
 21
10.36647255757566
 31
0.0
  0
LINE
  5
B095
  8
0
 10
18.157054026168151
 20
10.363664193491781
 30
0.0
 11
18.157252378574778
 21
10.36503847548942
 31
0.0
  0
LINE
  5
B096
  8
0
 10
18.156725168795099
 20
10.362380174491809
 30
0.0
 11
18.157054026168151
 21
10.363664193491781
 31
0.0
  0
LINE
  5
B097
  8
0
 10
18.156243687017959
 20
10.361216881398359
 30
0.0
 11
18.156725168795099
 21
10.362380174491809
 31
0.0
  0
LINE
  5
B098
  8
0
 10
18.155587461399069
 20
10.360204777119851
 30
0.0
 11
18.156243687017959
 21
10.361216881398359
 31
0.0
  0
LINE
  5
B099
  8
0
 10
18.154734372500759
 20
10.359374324566019
 30
0.0
 11
18.155587461399069
 21
10.360204777119851
 31
0.0
  0
LINE
  5
B09A
  8
0
 10
18.153672637124352
 20
10.35874738306233
 30
0.0
 11
18.154734372500759
 21
10.359374324566019
 31
0.0
  0
LINE
  5
B09B
  8
0
 10
18.152431817026962
 20
10.35831139760375
 30
0.0
 11
18.153672637124352
 21
10.35874738306233
 31
0.0
  0
LINE
  5
B09C
  8
0
 10
18.15105181020467
 20
10.358045209601411
 30
0.0
 11
18.152431817026962
 21
10.35831139760375
 31
0.0
  0
LINE
  5
B09D
  8
0
 10
18.149572514653538
 20
10.35792766046824
 30
0.0
 11
18.15105181020467
 21
10.358045209601411
 31
0.0
  0
LINE
  5
B09E
  8
0
 10
18.14803382836967
 20
10.357937591615149
 30
0.0
 11
18.149572514653538
 21
10.35792766046824
 31
0.0
  0
LINE
  5
B09F
  8
0
 10
18.146475649349139
 20
10.35805384445484
 30
0.0
 11
18.14803382836967
 21
10.357937591615149
 31
0.0
  0
LINE
  5
B0A0
  8
0
 10
18.14493787558802
 20
10.35825526039843
 30
0.0
 11
18.146475649349139
 21
10.35805384445484
 31
0.0
  0
LINE
  5
B0A1
  8
0
 10
18.143460405082401
 20
10.358520680857961
 30
0.0
 11
18.14493787558802
 21
10.35825526039843
 31
0.0
  0
LINE
  5
B0A2
  8
0
 10
18.142077024389671
 20
10.358827047340339
 30
0.0
 11
18.143460405082401
 21
10.358520680857961
 31
0.0
  0
LINE
  5
B0A3
  8
0
 10
18.140797074312481
 20
10.35914370173554
 30
0.0
 11
18.142077024389671
 21
10.358827047340339
 31
0.0
  0
LINE
  5
B0A4
  8
0
 10
18.139623784214841
 20
10.359438086026779
 30
0.0
 11
18.140797074312481
 21
10.35914370173554
 31
0.0
  0
LINE
  5
B0A5
  8
0
 10
18.138560383460739
 20
10.35967764219957
 30
0.0
 11
18.139623784214841
 21
10.359438086026779
 31
0.0
  0
LINE
  5
B0A6
  8
0
 10
18.13761010141414
 20
10.359829812237191
 30
0.0
 11
18.138560383460739
 21
10.35967764219957
 31
0.0
  0
LINE
  5
B0A7
  8
0
 10
18.136776167439049
 20
10.3598620381249
 30
0.0
 11
18.13761010141414
 21
10.359829812237191
 31
0.0
  0
LINE
  5
B0A8
  8
0
 10
18.136061810899442
 20
10.359741761846861
 30
0.0
 11
18.136776167439049
 21
10.3598620381249
 31
0.0
  0
LINE
  5
B0A9
  8
0
 10
18.135470261159309
 20
10.359436425387219
 30
0.0
 11
18.136061810899442
 21
10.359741761846861
 31
0.0
  0
LINE
  5
B0AA
  8
0
 10
18.135001216413361
 20
10.35892411754002
 30
0.0
 11
18.135470261159309
 21
10.359436425387219
 31
0.0
  0
LINE
  5
B0AB
  8
0
 10
18.134640250179199
 20
10.358225514336249
 30
0.0
 11
18.135001216413361
 21
10.35892411754002
 31
0.0
  0
LINE
  5
B0AC
  8
0
 10
18.134369404805149
 20
10.357371938617231
 30
0.0
 11
18.134640250179199
 21
10.358225514336249
 31
0.0
  0
LINE
  5
B0AD
  8
0
 10
18.134170722639539
 20
10.356394713223141
 30
0.0
 11
18.134369404805149
 21
10.357371938617231
 31
0.0
  0
LINE
  5
B0AE
  8
0
 10
18.1340262460307
 20
10.35532516099488
 30
0.0
 11
18.134170722639539
 21
10.356394713223141
 31
0.0
  0
LINE
  5
B0AF
  8
0
 10
18.133918017326959
 20
10.354194604773051
 30
0.0
 11
18.1340262460307
 21
10.35532516099488
 31
0.0
  0
LINE
  5
B0B0
  8
0
 10
18.13382807887664
 20
10.35303436739899
 30
0.0
 11
18.133918017326959
 21
10.354194604773051
 31
0.0
  0
LINE
  5
B0B1
  8
0
 10
18.13373847302806
 20
10.35187577171291
 30
0.0
 11
18.13382807887664
 21
10.35303436739899
 31
0.0
  0
LINE
  5
B0B2
  8
0
 10
18.133635284520039
 20
10.35074265133083
 30
0.0
 11
18.13373847302806
 21
10.35187577171291
 31
0.0
  0
LINE
  5
B0B3
  8
0
 10
18.13352076765333
 20
10.34962888296922
 30
0.0
 11
18.133635284520039
 21
10.35074265133083
 31
0.0
  0
LINE
  5
B0B4
  8
0
 10
18.133401219119129
 20
10.34852085412011
 30
0.0
 11
18.13352076765333
 21
10.34962888296922
 31
0.0
  0
LINE
  5
B0B5
  8
0
 10
18.133282935608669
 20
10.347404952274919
 30
0.0
 11
18.133401219119129
 21
10.34852085412011
 31
0.0
  0
LINE
  5
B0B6
  8
0
 10
18.133172213813189
 20
10.346267564925251
 30
0.0
 11
18.133282935608669
 21
10.347404952274919
 31
0.0
  0
LINE
  5
B0B7
  8
0
 10
18.133075350423901
 20
10.345095079562491
 30
0.0
 11
18.133172213813189
 21
10.346267564925251
 31
0.0
  0
LINE
  5
B0B8
  8
0
 10
18.132998642132019
 20
10.343873883679169
 30
0.0
 11
18.133075350423901
 21
10.345095079562491
 31
0.0
  0
LINE
  5
B0B9
  8
0
 10
18.13294838562879
 20
10.342590364766229
 30
0.0
 11
18.132998642132019
 21
10.343873883679169
 31
0.0
  0
LINE
  5
B0BA
  8
0
 10
18.129033497966471
 20
10.365225168096231
 30
0.0
 11
18.129033497966471
 21
10.365225168096231
 31
0.0
  0
ARC
  5
B0BB
  8
0
 10
17.937211123921269
 20
10.40120420681159
 30
0.0
 40
0.1404488633495502
 50
346.67496717791983
 51
1.400873055739229
  0
LINE
  5
B0BC
  8
0
 10
18.13294838562879
 20
10.342590364766229
 30
0.0
 11
18.132869789277109
 21
10.339564405227049
 31
0.0
  0
LINE
  5
B0BD
  8
0
 10
18.114619734946171
 20
10.338991890540671
 30
0.0
 11
18.115337587357569
 21
10.33802183053489
 31
0.0
  0
LINE
  5
B0BE
  8
0
 10
18.11410057228105
 20
10.340061924378221
 30
0.0
 11
18.114619734946171
 21
10.338991890540671
 31
0.0
  0
LINE
  5
B0BF
  8
0
 10
18.113755769686421
 20
10.34121958314131
 30
0.0
 11
18.11410057228105
 21
10.340061924378221
 31
0.0
  0
LINE
  5
B0C0
  8
0
 10
18.11356099748653
 20
10.342452517923901
 30
0.0
 11
18.113755769686421
 21
10.34121958314131
 31
0.0
  0
LINE
  5
B0C1
  8
0
 10
18.113491926005569
 20
10.343748379820219
 30
0.0
 11
18.11356099748653
 21
10.342452517923901
 31
0.0
  0
LINE
  5
B0C2
  8
0
 10
18.113524225567851
 20
10.345094819924491
 30
0.0
 11
18.113491926005569
 21
10.343748379820219
 31
0.0
  0
LINE
  5
B0C3
  8
0
 10
18.113633566497519
 20
10.346479489330701
 30
0.0
 11
18.113524225567851
 21
10.345094819924491
 31
0.0
  0
LINE
  5
B0C4
  8
0
 10
18.113795619118861
 20
10.347890039132601
 30
0.0
 11
18.113633566497519
 21
10.346479489330701
 31
0.0
  0
LINE
  5
B0C5
  8
0
 10
18.11399223413143
 20
10.349313940857421
 30
0.0
 11
18.113795619118861
 21
10.347890039132601
 31
0.0
  0
LINE
  5
B0C6
  8
0
 10
18.114229983736319
 20
10.350737947764159
 30
0.0
 11
18.11399223413143
 21
10.349313940857421
 31
0.0
  0
LINE
  5
B0C7
  8
0
 10
18.114521620509979
 20
10.352148633544161
 30
0.0
 11
18.114229983736319
 21
10.350737947764159
 31
0.0
  0
LINE
  5
B0C8
  8
0
 10
18.114879897028871
 20
10.35353257188966
 30
0.0
 11
18.114521620509979
 21
10.352148633544161
 31
0.0
  0
LINE
  5
B0C9
  8
0
 10
18.115317565869422
 20
10.35487633649244
 30
0.0
 11
18.114879897028871
 21
10.35353257188966
 31
0.0
  0
LINE
  5
B0CA
  8
0
 10
18.115847379608059
 20
10.35616650104429
 30
0.0
 11
18.115317565869422
 21
10.35487633649244
 31
0.0
  0
LINE
  5
B0CB
  8
0
 10
18.116482090821261
 20
10.357389639236761
 30
0.0
 11
18.115847379608059
 21
10.35616650104429
 31
0.0
  0
LINE
  5
B0CC
  8
0
 10
18.117234452085441
 20
10.358532324761869
 30
0.0
 11
18.116482090821261
 21
10.357389639236761
 31
0.0
  0
LINE
  5
B0CD
  8
0
 10
18.11811202795834
 20
10.359583459049629
 30
0.0
 11
18.117234452085441
 21
10.358532324761869
 31
0.0
  0
LINE
  5
B0CE
  8
0
 10
18.119101630922781
 20
10.36054125448436
 30
0.0
 11
18.11811202795834
 21
10.359583459049629
 31
0.0
  0
LINE
  5
B0CF
  8
0
 10
18.120184885442811
 20
10.361406251188541
 30
0.0
 11
18.119101630922781
 21
10.36054125448436
 31
0.0
  0
LINE
  5
B0D0
  8
0
 10
18.121343415982501
 20
10.362178989284979
 30
0.0
 11
18.120184885442811
 21
10.361406251188541
 31
0.0
  0
LINE
  5
B0D1
  8
0
 10
18.122558847005969
 20
10.362860008895041
 30
0.0
 11
18.121343415982501
 21
10.362178989284979
 31
0.0
  0
LINE
  5
B0D2
  8
0
 10
18.123812802977259
 20
10.363449850142841
 30
0.0
 11
18.122558847005969
 21
10.362860008895041
 31
0.0
  0
LINE
  5
B0D3
  8
0
 10
18.125086908360469
 20
10.363949053149319
 30
0.0
 11
18.123812802977259
 21
10.363449850142841
 31
0.0
  0
LINE
  5
B0D4
  8
0
 10
18.126362787619669
 20
10.364358158038151
 30
0.0
 11
18.125086908360469
 21
10.363949053149319
 31
0.0
  0
LINE
  5
B0D5
  8
0
 10
18.127623604568068
 20
10.364682411103781
 30
0.0
 11
18.126362787619669
 21
10.364358158038151
 31
0.0
  0
LINE
  5
B0D6
  8
0
 10
18.128858680415309
 20
10.36494588333175
 30
0.0
 11
18.127623604568068
 21
10.364682411103781
 31
0.0
  0
LINE
  5
B0D7
  8
0
 10
18.130058875720199
 20
10.36517735188044
 30
0.0
 11
18.128858680415309
 21
10.36494588333175
 31
0.0
  0
LINE
  5
B0D8
  8
0
 10
18.13121505104154
 20
10.365405593907999
 30
0.0
 11
18.130058875720199
 21
10.36517735188044
 31
0.0
  0
LINE
  5
B0D9
  8
0
 10
18.132318066938112
 20
10.3656593865728
 30
0.0
 11
18.13121505104154
 21
10.365405593907999
 31
0.0
  0
LINE
  5
B0DA
  8
0
 10
18.133358783968681
 20
10.36596750703211
 30
0.0
 11
18.132318066938112
 21
10.3656593865728
 31
0.0
  0
LINE
  5
B0DB
  8
0
 10
18.134328062692081
 20
10.366358732444709
 30
0.0
 11
18.133358783968681
 21
10.36596750703211
 31
0.0
  0
LINE
  5
B0DC
  8
0
 10
18.13521676366706
 20
10.3668618399688
 30
0.0
 11
18.134328062692081
 21
10.366358732444709
 31
0.0
  0
LINE
  5
B0DD
  8
0
 10
18.136017117184121
 20
10.36749759447116
 30
0.0
 11
18.13521676366706
 21
10.3668618399688
 31
0.0
  0
LINE
  5
B0DE
  8
0
 10
18.136726832460589
 20
10.368254711655929
 30
0.0
 11
18.136017117184121
 21
10.36749759447116
 31
0.0
  0
LINE
  5
B0DF
  8
0
 10
18.137344988445442
 20
10.369113894936611
 30
0.0
 11
18.136726832460589
 21
10.368254711655929
 31
0.0
  0
LINE
  5
B0E0
  8
0
 10
18.137870664087689
 20
10.37005584772578
 30
0.0
 11
18.137344988445442
 21
10.369113894936611
 31
0.0
  0
LINE
  5
B0E1
  8
0
 10
18.138302938336341
 20
10.37106127343668
 30
0.0
 11
18.137870664087689
 21
10.37005584772578
 31
0.0
  0
LINE
  5
B0E2
  8
0
 10
18.13864089014039
 20
10.37211087548234
 30
0.0
 11
18.138302938336341
 21
10.37106127343668
 31
0.0
  0
LINE
  5
B0E3
  8
0
 10
18.138883598448839
 20
10.373185357275799
 30
0.0
 11
18.13864089014039
 21
10.37211087548234
 31
0.0
  0
LINE
  5
B0E4
  8
0
 10
18.139030142210711
 20
10.374265422230559
 30
0.0
 11
18.138883598448839
 21
10.373185357275799
 31
0.0
  0
LINE
  5
B0E5
  8
0
 10
18.139084885047239
 20
10.375335280290971
 30
0.0
 11
18.139030142210711
 21
10.374265422230559
 31
0.0
  0
LINE
  5
B0E6
  8
0
 10
18.13907332926852
 20
10.376393167531431
 30
0.0
 11
18.139084885047239
 21
10.375335280290971
 31
0.0
  0
LINE
  5
B0E7
  8
0
 10
18.139026261856991
 20
10.3774408265574
 30
0.0
 11
18.13907332926852
 21
10.376393167531431
 31
0.0
  0
LINE
  5
B0E8
  8
0
 10
18.13897446979497
 20
10.378479999974831
 30
0.0
 11
18.139026261856991
 21
10.3774408265574
 31
0.0
  0
LINE
  5
B0E9
  8
0
 10
18.138948740064819
 20
10.37951243038923
 30
0.0
 11
18.13897446979497
 21
10.378479999974831
 31
0.0
  0
LINE
  5
B0EA
  8
0
 10
18.138979859648941
 20
10.380539860406079
 30
0.0
 11
18.138948740064819
 21
10.37951243038923
 31
0.0
  0
LINE
  5
B0EB
  8
0
 10
18.139098615529669
 20
10.381564032632239
 30
0.0
 11
18.138979859648941
 21
10.380539860406079
 31
0.0
  0
LINE
  5
B0EC
  8
0
 10
18.139335794689408
 20
10.382586689671809
 30
0.0
 11
18.139098615529669
 21
10.381564032632239
 31
0.0
  0
LINE
  5
B0ED
  8
0
 10
18.139713340315289
 20
10.383605148917461
 30
0.0
 11
18.139335794689408
 21
10.382586689671809
 31
0.0
  0
ARC
  5
B0EE
  8
0
 10
18.135649384074899
 20
10.40877287428202
 30
0.0
 40
0.0581785108152356
 50
116.54869068684521
 51
184.07575243617049
  0
LINE
  5
B0EF
  8
0
 10
18.04047395594505
 20
10.542140679687
 30
0.0
 11
18.035056629632251
 21
10.544344288509359
 31
0.0
  0
ARC
  5
B0F0
  8
0
 10
-18.027090743842368
 20
10.533623163947579
 30
0.0
 40
0.0354746088719904
210
0.0
220
0.0
230
-1.0
 50
210.96375700000019
 51
292.16634599999878
  0
ARC
  5
B0F1
  8
0
 10
18.071799242132101
 20
10.411948235089991
 30
0.0
 40
0.0618102736370894
 50
52.243595062829897
 51
126.0030158204668
  0
ARC
  5
B0F2
  8
0
 10
17.87493144379885
 20
10.420622802737171
 30
0.0
 40
0.205577545020086
 50
319.99137528222752
 51
345.40900459038647
  0
LINE
  5
B0F3
  8
0
 10
18.035056629632251
 20
10.544344288509359
 30
0.0
 11
18.0604578060994
 21
10.549584045286791
 31
0.0
  0
ARC
  5
B0F4
  8
0
 10
-18.030154546069252
 20
10.516768612979821
 30
0.0
 40
0.0273908285546296
210
0.0
220
0.0
230
-1.0
 50
112.1340119999995
 51
182.92360400000081
  0
LINE
  5
B0F5
  8
0
 10
18.054819405494019
 20
10.528680883899559
 30
0.0
 11
18.09509872896119
 21
10.568960207366739
 31
0.0
  0
LINE
  5
B0F6
  8
0
 10
18.053781053275291
 20
10.471073989185911
 30
0.0
 11
18.169699137769811
 21
10.586992073680429
 31
0.0
  0
ARC
  5
B0F7
  8
0
 10
-18.170668812475139
 20
10.567691771417669
 30
0.0
 40
0.020720327079213
210
0.0
220
0.0
230
-1.0
 50
266.63353899999942
 51
356.63353899999748
  0
ARC
  5
B0F8
  8
0
 10
-17.961384193851949
 20
10.331639273101009
 30
0.0
 40
0.2393360792304392
210
0.0
220
0.0
230
-1.0
 50
103.8242999999996
 51
113.0455979999996
  0
LINE
  5
B0F9
  8
0
 10
18.23023837597281
 20
10.391815128106719
 30
0.0
 11
18.053367923196241
 21
10.56868558088328
 31
0.0
  0
LINE
  5
B0FA
  8
0
 10
18.204589145756302
 20
10.30432727333338
 30
0.0
 11
18.150884504117279
 21
10.358031914972401
 31
0.0
  0
LINE
  5
B0FB
  8
0
 10
18.076086982270049
 20
10.380242833190829
 30
0.0
 11
18.20982097347099
 21
10.51397682439179
 31
0.0
  0
LINE
  5
B0FC
  8
0
 10
18.223646325912359
 20
10.45497572066208
 30
0.0
 11
18.10882089035016
 21
10.56980115622429
 31
0.0
  0
ARC
  5
B0FD
  8
0
 10
18.19378778376808
 20
10.49468594913832
 30
0.0
 40
0.025083880084515
 50
14.036242999997681
 51
67.166345999999052
  0
ARC
  5
B0FE
  8
0
 10
18.183871798259261
 20
10.50481862867354
 30
0.0
 40
0.0833866858056544
 50
38.259234046839168
 51
103.3732192694921
  0
ARC
  5
B0FF
  8
0
 10
18.159789039721769
 20
10.467773976133451
 30
0.0
 40
0.1113200882269908
 50
49.067058000001552
 51
72.217435000000492
  0
LINE
  5
B100
  8
0
 10
18.206664486048901
 20
10.304820451327711
 30
0.0
 11
18.175495210662461
 21
10.29741347292792
 31
0.0
  0
LINE
  5
B101
  8
0
 10
18.23963588697076
 20
10.156143447129059
 30
0.0
 11
18.237591528398919
 21
10.15818780570091
 31
0.0
  0
LINE
  5
B102
  8
0
 10
18.261610619741528
 20
10.190737256853231
 30
0.0
 11
18.218091262882311
 21
10.234256613712439
 31
0.0
  0
LINE
  5
B103
  8
0
 10
18.25537966920016
 20
10.186675579898059
 30
0.0
 11
18.239635655571611
 21
10.181163646866009
 31
0.0
  0
LINE
  5
B104
  8
0
 10
18.26530464182963
 20
10.19314522403055
 30
0.0
 11
18.25537966920016
 21
10.186675579898059
 31
0.0
  0
LINE
  5
B105
  8
0
 10
18.22775014061456
 20
10.23909061352947
 30
0.0
 11
18.24416804518421
 21
10.25344609161197
 31
0.0
  0
LINE
  5
B106
  8
0
 10
18.258328487875509
 20
10.25804980013617
 30
0.0
 11
18.26642973404881
 21
10.281075620197489
 31
0.0
  0
LINE
  5
B107
  8
0
 10
18.24416804518421
 20
10.25344609161197
 30
0.0
 11
18.258328487875509
 21
10.25804980013617
 31
0.0
  0
LINE
  5
B108
  8
0
 10
18.239635655571611
 20
10.181163646866009
 30
0.0
 11
18.215053918844959
 21
10.17789607631971
 31
0.0
  0
LINE
  5
B109
  8
0
 10
18.204632624809609
 20
10.227520939467
 30
0.0
 11
18.22775014061456
 21
10.23909061352947
 31
0.0
  0
LINE
  5
B10A
  8
0
 10
18.250110802662729
 20
10.138193274825881
 30
0.0
 11
18.23463750980104
 21
10.126197142781381
 31
0.0
  0
LINE
  5
B10B
  8
0
 10
18.238624091415961
 20
10.15787729445332
 30
0.0
 11
18.250110802662729
 21
10.138193274825881
 31
0.0
  0
LINE
  5
B10C
  8
0
 10
18.23463750980104
 20
10.126197142781381
 30
0.0
 11
18.220568762853318
 21
10.11162916345164
 31
0.0
  0
LINE
  5
B10D
  8
0
 10
18.217366689267031
 20
10.16426979772222
 30
0.0
 11
18.238624091415961
 21
10.15787729445332
 31
0.0
  0
LINE
  5
B10E
  8
0
 10
18.189326151809531
 20
10.093316097300439
 30
0.0
 11
18.14335187176205
 21
10.13929037734793
 31
0.0
  0
LINE
  5
B10F
  8
0
 10
18.095849813060081
 20
10.017086808565139
 30
0.0
 11
18.08005728702868
 21
10.032879334596529
 31
0.0
  0
LINE
  5
B110
  8
0
 10
18.121065985314509
 20
10.04843917880563
 30
0.0
 11
18.078690871136299
 21
10.090814292983829
 31
0.0
  0
LINE
  5
B111
  8
0
 10
18.155775602853051
 20
10.07029810376199
 30
0.0
 11
18.110355314494068
 21
10.11571839212098
 31
0.0
  0
LINE
  5
B112
  8
0
 10
18.074976996691341
 20
10.207665252418639
 30
0.0
 11
18.0207771224817
 21
10.26186512662829
 31
0.0
  0
LINE
  5
B113
  8
0
 10
18.07900025503546
 20
10.043744850986689
 30
0.0
 11
18.198880073888908
 21
10.163624669840139
 31
0.0
  0
LINE
  5
B114
  8
0
 10
18.166413153031691
 20
10.187726291477849
 30
0.0
 11
18.171202798857902
 21
10.19251593730406
 31
0.0
  0
LINE
  5
B115
  8
0
 10
18.099847677674621
 20
10.222940518750869
 30
0.0
 11
18.097173946230079
 21
10.206954894115141
 31
0.0
  0
LINE
  5
B116
  8
0
 10
18.195147209554261
 20
10.170331905216241
 30
0.0
 11
18.17057420575555
 21
10.173977902640431
 31
0.0
  0
LINE
  5
B117
  8
0
 10
18.077406963786778
 20
10.21022974210109
 30
0.0
 11
18.06294669056874
 21
10.19496895048678
 31
0.0
  0
LINE
  5
B118
  8
0
 10
18.097173946230079
 20
10.206954894115141
 30
0.0
 11
18.077406963786778
 21
10.21022974210109
 31
0.0
  0
LINE
  5
B119
  8
0
 10
18.166098580174729
 20
10.18876566065728
 30
0.0
 11
18.183267516549162
 21
10.20138037509877
 31
0.0
  0
LINE
  5
B11A
  8
0
 10
18.17057420575555
 20
10.173977902640431
 30
0.0
 11
18.166098580174729
 21
10.18876566065728
 31
0.0
  0
LINE
  5
B11B
  8
0
 10
18.12518044620607
 20
10.2506253558804
 30
0.0
 11
18.099847677674621
 21
10.222940518750869
 31
0.0
  0
LINE
  5
B11C
  8
0
 10
18.154748684799369
 20
10.262841266611749
 30
0.0
 11
18.12518044620607
 21
10.2506253558804
 31
0.0
  0
LINE
  5
B11D
  8
0
 10
18.190574066277861
 20
10.094071611782731
 30
0.0
 11
18.171245185720672
 21
10.082369488313351
 31
0.0
  0
LINE
  5
B11E
  8
0
 10
18.109378213057781
 20
10.024547316784711
 30
0.0
 11
18.08705248272144
 21
10.01223534384553
 31
0.0
  0
LINE
  5
B11F
  8
0
 10
18.123347986821919
 20
10.053103991222301
 30
0.0
 11
18.109378213057781
 21
10.024547316784711
 31
0.0
  0
LINE
  5
B120
  8
0
 10
18.14983059086844
 20
10.06565903065688
 30
0.0
 11
18.123347986821919
 21
10.053103991222301
 31
0.0
  0
LINE
  5
B121
  8
0
 10
18.066092000123259
 20
10.06987703486242
 30
0.0
 11
18.065237628670911
 21
10.08179748153133
 31
0.0
  0
LINE
  5
B122
  8
0
 10
18.070646222055739
 20
10.05279106130364
 30
0.0
 11
18.066092000123259
 21
10.06987703486242
 31
0.0
  0
LINE
  5
B123
  8
0
 10
18.083083366962441
 20
10.039323430897859
 30
0.0
 11
18.070646222055739
 21
10.05279106130364
 31
0.0
  0
LINE
  5
B124
  8
0
 10
18.074025865177259
 20
10.020035304004059
 30
0.0
 11
18.083083366962441
 21
10.039323430897859
 31
0.0
  0
LINE
  5
B125
  8
0
 10
18.063089328392131
 20
10.01285247075497
 30
0.0
 11
18.074025865177259
 21
10.020035304004059
 31
0.0
  0
LINE
  5
B126
  8
0
 10
18.094717082496601
 20
10.102348972003471
 30
0.0
 11
18.130431846887561
 21
10.1328821991367
 31
0.0
  0
LINE
  5
B127
  8
0
 10
18.081894233271552
 20
10.09221149812719
 30
0.0
 11
18.094717082496601
 21
10.102348972003471
 31
0.0
  0
LINE
  5
B128
  8
0
 10
18.073628516954962
 20
10.08860625436659
 30
0.0
 11
18.081894233271552
 21
10.09221149812719
 31
0.0
  0
LINE
  5
B129
  8
0
 10
18.171245185720672
 20
10.082369488313351
 30
0.0
 11
18.14983059086844
 21
10.06565903065688
 31
0.0
  0
LINE
  5
B12A
  8
0
 10
18.065237628670911
 20
10.08179748153133
 30
0.0
 11
18.073628516954962
 21
10.08860625436659
 31
0.0
  0
LINE
  5
B12B
  8
0
 10
18.20387868202884
 20
10.10228638602006
 30
0.0
 11
18.190574066277861
 21
10.094071611782731
 31
0.0
  0
LINE
  5
B12C
  8
0
 10
18.203607961262001
 20
10.117241525155791
 30
0.0
 11
18.20387868202884
 21
10.10228638602006
 31
0.0
  0
LINE
  5
B12D
  8
0
 10
18.130431846887561
 20
10.1328821991367
 30
0.0
 11
18.191924759136061
 21
10.163381950046171
 31
0.0
  0
LINE
  5
B12E
  8
0
 10
18.032375620747739
 20
10.137002685647071
 30
0.0
 11
18.00928721470266
 21
10.13278759241711
 31
0.0
  0
LINE
  5
B12F
  8
0
 10
18.044019524697841
 20
10.15728054437613
 30
0.0
 11
18.032375620747739
 21
10.137002685647071
 31
0.0
  0
LINE
  5
B130
  8
0
 10
18.020273238079579
 20
10.012370704229159
 30
0.0
 11
18.040607860840449
 21
10.011091330282619
 31
0.0
  0
LINE
  5
B131
  8
0
 10
18.051618627513271
 20
10.18008513026256
 30
0.0
 11
18.044019524697841
 21
10.15728054437613
 31
0.0
  0
LINE
  5
B132
  8
0
 10
18.040607860840449
 20
10.011091330282619
 30
0.0
 11
18.063089328392131
 21
10.01285247075497
 31
0.0
  0
LINE
  5
B133
  8
0
 10
18.06294669056874
 20
10.19496895048678
 30
0.0
 11
18.051618627513271
 21
10.18008513026256
 31
0.0
  0
LINE
  5
B134
  8
0
 10
18.08705248272144
 20
10.01223534384553
 30
0.0
 11
18.069788939627419
 21
10.00653856383814
 31
0.0
  0
LINE
  5
B135
  8
0
 10
18.19758537957842
 20
10.21889851802457
 30
0.0
 11
18.207785955256181
 21
10.22909909370235
 31
0.0
  0
LINE
  5
B136
  8
0
 10
18.17871708429481
 20
10.08689313775113
 30
0.0
 11
18.242706126552971
 21
10.150882180009271
 31
0.0
  0
LINE
  5
B137
  8
0
 10
18.217551290292409
 20
10.178228043807421
 30
0.0
 11
18.188273749698169
 21
10.207505584401661
 31
0.0
  0
LINE
  5
B138
  8
0
 10
18.224014066842589
 20
10.11519672476232
 30
0.0
 11
18.181165370146068
 21
10.158045421458841
 31
0.0
  0
LINE
  5
B139
  8
0
 10
18.183267516549162
 20
10.20138037509877
 30
0.0
 11
18.204632624809609
 21
10.227520939467
 31
0.0
  0
LINE
  5
B13A
  8
0
 10
18.191924759136061
 20
10.163381950046171
 30
0.0
 11
18.217366689267031
 21
10.16426979772222
 31
0.0
  0
LINE
  5
B13B
  8
0
 10
18.215053918844959
 20
10.17789607631971
 30
0.0
 11
18.195147209554261
 21
10.170331905216241
 31
0.0
  0
LINE
  5
B13C
  8
0
 10
18.220568762853318
 20
10.11162916345164
 30
0.0
 11
18.203607961262001
 21
10.117241525155791
 31
0.0
  0
LINE
  5
B13D
  8
0
 10
18.13931456571472
 20
10.25646476838511
 30
0.0
 11
18.06149836260753
 21
10.334280971492291
 31
0.0
  0
LINE
  5
B13E
  8
0
 10
18.10769468994874
 20
10.231516101656171
 30
0.0
 11
18.040476764822351
 21
10.29873402678256
 31
0.0
  0
LINE
  5
B13F
  8
0
 10
18.025818466537022
 20
10.273405774962869
 30
0.0
 11
18.22195726341981
 21
10.46954457184567
 31
0.0
  0
LINE
  5
B140
  8
0
 10
18.26642973404881
 20
10.281075620197489
 30
0.0
 11
18.24696258213222
 21
10.29954721832631
 31
0.0
  0
LINE
  5
B141
  8
0
 10
18.175495210662461
 20
10.29741347292792
 30
0.0
 11
18.154748684799369
 21
10.262841266611749
 31
0.0
  0
LINE
  5
B142
  8
0
 10
17.99962269103602
 20
10.586621254431421
 30
0.0
 11
18.005216916955739
 21
10.59221548035114
 31
0.0
  0
LINE
  5
B143
  8
0
 10
17.906467176359261
 20
10.56685632130916
 30
0.0
 11
17.904716224302749
 21
10.588173398465861
 31
0.0
  0
LINE
  5
B144
  8
0
 10
17.861264085736948
 20
10.591497733043511
 30
0.0
 11
17.86260167920323
 21
10.56989538024003
 31
0.0
  0
LINE
  5
B145
  8
0
 10
17.88250356505754
 20
10.356365043463081
 30
0.0
 11
17.977579436863909
 21
10.45144091526946
 31
0.0
  0
LINE
  5
B146
  8
0
 10
17.85075277761764
 20
10.375320928997411
 30
0.0
 11
17.819740090447478
 21
10.406333616167579
 31
0.0
  0
LINE
  5
B147
  8
0
 10
17.910703588124932
 20
10.497702151520331
 30
0.0
 11
17.95791268388443
 21
10.54491124727984
 31
0.0
  0
LINE
  5
B148
  8
0
 10
17.90603179609225
 20
10.436461816992709
 30
0.0
 11
17.984291079199551
 21
10.51472110010001
 31
0.0
  0
LINE
  5
B149
  8
0
 10
17.858389430209709
 20
10.424252818900269
 30
0.0
 11
17.815250874118419
 21
10.467391374991561
 31
0.0
  0
LINE
  5
B14A
  8
0
 10
17.97856270273871
 20
10.47378517385604
 30
0.0
 11
17.907984208406599
 21
10.54436366818816
 31
0.0
  0
LINE
  5
B14B
  8
0
 10
17.972035165750761
 20
10.423744168349071
 30
0.0
 11
17.911000263012959
 21
10.48477907108688
 31
0.0
  0
LINE
  5
B14C
  8
0
 10
17.95504415946931
 20
10.384166632135599
 30
0.0
 11
17.905563758045759
 21
10.433647033559151
 31
0.0
  0
LINE
  5
B14D
  8
0
 10
17.94117301768927
 20
10.34146923142071
 30
0.0
 11
17.89503061367666
 21
10.387611635433309
 31
0.0
  0
LINE
  5
B14E
  8
0
 10
17.933790424987201
 20
10.29228328162786
 30
0.0
 11
17.876725476705939
 21
10.34934822990912
 31
0.0
  0
LINE
  5
B14F
  8
0
 10
17.830211874238891
 20
10.304073352644449
 30
0.0
 11
17.875714022678409
 21
10.34957550108396
 31
0.0
  0
LINE
  5
B150
  8
0
 10
17.82453630987191
 20
10.35496633077239
 30
0.0
 11
17.851092858865201
 21
10.38152287976567
 31
0.0
  0
LINE
  5
B151
  8
0
 10
17.819708627675649
 20
10.406707191071041
 30
0.0
 11
17.862370846997461
 21
10.449369410392871
 31
0.0
  0
LINE
  5
B152
  8
0
 10
17.815768038847551
 20
10.459335144737871
 30
0.0
 11
17.865656645242922
 21
10.50922375113324
 31
0.0
  0
LINE
  5
B153
  8
0
 10
17.91137217089824
 20
10.46857886099405
 30
0.0
 11
17.910482867734039
 21
10.50731667394802
 31
0.0
  0
ARC
  5
B154
  8
0
 10
18.004445564995262
 20
10.464867503027101
 30
0.0
 40
0.0100874675929062
 50
121.39602558081189
 51
235.9605520503797
  0
LINE
  5
B155
  8
0
 10
17.978657925361919
 20
10.47526100637355
 30
0.0
 11
17.978071363700419
 21
10.466170028364781
 31
0.0
  0
LINE
  5
B156
  8
0
 10
17.97756776485458
 20
10.45190770151361
 30
0.0
 11
17.977928725877039
 21
10.43747217159147
 31
0.0
  0
LINE
  5
B157
  8
0
 10
17.978071363700419
 20
10.466170028364781
 30
0.0
 11
17.97756776485458
 21
10.45190770151361
 31
0.0
  0
LINE
  5
B158
  8
0
 10
17.86589108206913
 20
10.50069129260077
 30
0.0
 11
17.863064524385251
 21
10.454079289600481
 31
0.0
  0
LINE
  5
B159
  8
0
 10
17.863064524385251
 20
10.454079289600481
 30
0.0
 11
17.859721268463559
 21
10.43137949884953
 31
0.0
  0
LINE
  5
B15A
  8
0
 10
17.865236112471941
 20
10.524529274962321
 30
0.0
 11
17.86589108206913
 21
10.50069129260077
 31
0.0
  0
LINE
  5
B15B
  8
0
 10
17.893276088671779
 20
10.382165083316281
 30
0.0
 11
17.900979986622769
 21
10.40608020654189
 31
0.0
  0
LINE
  5
B15C
  8
0
 10
17.883665501448959
 20
10.35914799618307
 30
0.0
 11
17.893276088671779
 21
10.382165083316281
 31
0.0
  0
LINE
  5
B15D
  8
0
 10
17.943331776265289
 20
10.35688471235266
 30
0.0
 11
17.9345100635351
 21
10.293889736494741
 31
0.0
  0
LINE
  5
B15E
  8
0
 10
17.85058225935073
 20
10.355222545064169
 30
0.0
 11
17.87932960271554
 21
10.348763089347569
 31
0.0
  0
LINE
  5
B15F
  8
0
 10
17.850711797782161
 20
10.366474922743681
 30
0.0
 11
17.85058225935073
 21
10.355222545064169
 31
0.0
  0
LINE
  5
B160
  8
0
 10
17.85073217461408
 20
10.368262261999909
 30
0.0
 11
17.850711797782161
 21
10.366474922743681
 31
0.0
  0
LINE
  5
B161
  8
0
 10
17.85042070018342
 20
10.370052512232389
 30
0.0
 11
17.85073217461408
 21
10.368262261999909
 31
0.0
  0
LINE
  5
B162
  8
0
 10
17.850605547158619
 20
10.372686945501069
 30
0.0
 11
17.85042070018342
 21
10.370052512232389
 31
0.0
  0
LINE
  5
B163
  8
0
 10
17.85065503375041
 20
10.373538405977341
 30
0.0
 11
17.850605547158619
 21
10.372686945501069
 31
0.0
  0
LINE
  5
B164
  8
0
 10
17.851337657619489
 20
10.385987194787949
 30
0.0
 11
17.85065503375041
 21
10.373538405977341
 31
0.0
  0
LINE
  5
B165
  8
0
 10
17.85338116276273
 20
10.39745352920294
 30
0.0
 11
17.851337657619489
 21
10.385987194787949
 31
0.0
  0
LINE
  5
B166
  8
0
 10
17.87932960271554
 20
10.348763089347569
 30
0.0
 11
17.883665501448959
 21
10.35914799618307
 31
0.0
  0
LINE
  5
B167
  8
0
 10
17.859721268463559
 20
10.43137949884953
 30
0.0
 11
17.85338116276273
 21
10.39745352920294
 31
0.0
  0
LINE
  5
B168
  8
0
 10
17.900979986622769
 20
10.40608020654189
 30
0.0
 11
17.91137217089824
 21
10.46857886099405
 31
0.0
  0
LINE
  5
B169
  8
0
 10
17.977928725877039
 20
10.43747217159147
 30
0.0
 11
17.943331776265289
 21
10.35688471235266
 31
0.0
  0
LINE
  5
B16A
  8
0
 10
17.907530062947568
 20
10.55109716883789
 30
0.0
 11
17.943970798628019
 21
10.58753790451834
 31
0.0
  0
LINE
  5
B16B
  8
0
 10
17.910482867734039
 20
10.50731667394802
 30
0.0
 11
17.906467176359261
 21
10.56685632130916
 31
0.0
  0
LINE
  5
B16C
  8
0
 10
17.86260167920323
 20
10.56989538024003
 30
0.0
 11
17.865236112471941
 21
10.524529274962321
 31
0.0
  0
LINE
  5
B16D
  8
0
 10
17.86051872469714
 20
10.164674575617919
 30
0.0
 11
17.904096415900231
 21
10.20825226682101
 31
0.0
  0
LINE
  5
B16E
  8
0
 10
17.884720583168331
 20
10.17164749596197
 30
0.0
 11
17.83763152994521
 21
10.218736549185079
 31
0.0
  0
LINE
  5
B16F
  8
0
 10
17.97081219765073
 20
10.08555588147957
 30
0.0
 11
17.939619647637748
 21
10.11674843149253
 31
0.0
  0
LINE
  5
B170
  8
0
 10
17.904193825501281
 20
10.20874279612393
 30
0.0
 11
17.833260187162178
 21
10.27967643446304
 31
0.0
  0
LINE
  5
B171
  8
0
 10
17.888147934427892
 20
10.022598157863889
 30
0.0
 11
17.96390276679368
 21
10.09835299022969
 31
0.0
  0
LINE
  5
B172
  8
0
 10
17.85645738909151
 20
10.047476155022441
 30
0.0
 11
17.924017956135419
 21
10.11503672206635
 31
0.0
  0
LINE
  5
B173
  8
0
 10
17.819557617550839
 20
10.06714492597669
 30
0.0
 11
17.900312029326759
 21
10.147899337752619
 31
0.0
  0
LINE
  5
B174
  8
0
 10
17.910426103702289
 20
10.240126920981069
 30
0.0
 11
17.897678939852909
 21
10.175935533992281
 31
0.0
  0
LINE
  5
B175
  8
0
 10
17.986265761105319
 20
10.20215469471168
 30
0.0
 11
18.005734368509899
 21
10.227429243723449
 31
0.0
  0
LINE
  5
B176
  8
0
 10
17.88166857192153
 20
10.17063755769481
 30
0.0
 11
17.890632922475099
 21
10.162028346211841
 31
0.0
  0
LINE
  5
B177
  8
0
 10
17.897678939852909
 20
10.175935533992281
 30
0.0
 11
17.88166857192153
 21
10.17063755769481
 31
0.0
  0
LINE
  5
B178
  8
0
 10
17.979197911407599
 20
10.174838096044811
 30
0.0
 11
17.986265761105319
 21
10.20215469471168
 31
0.0
  0
ARC
  5
B179
  8
0
 10
-17.707854195706311
 20
10.126558103803511
 30
0.0
 40
0.1591823554138998
210
0.0
220
0.0
230
-1.0
 50
143.64770099999751
 51
160.55775699999791
  0
ARC
  5
B17A
  8
0
 10
17.874993703982121
 20
10.23794805545457
 30
0.0
 40
0.0425002494178854
 50
166.759479999999
 51
203.62937799999861
  0
ARC
  5
B17B
  8
0
 10
-17.791036790037872
 20
10.26228381471037
 30
0.0
 40
0.0450211546230834
210
0.0
220
0.0
230
-1.0
 50
161.07535599999699
 51
198.9246440000025
  0
LINE
  5
B17C
  8
0
 10
17.963143878836391
 20
10.099721816174441
 30
0.0
 11
17.970878342035249
 21
10.08577096375461
 31
0.0
  0
LINE
  5
B17D
  8
0
 10
17.951047318120231
 20
10.112358362936661
 30
0.0
 11
17.963143878836391
 21
10.099721816174441
 31
0.0
  0
LINE
  5
B17E
  8
0
 10
17.937979946912218
 20
10.117378341027219
 30
0.0
 11
17.951047318120231
 21
10.112358362936661
 31
0.0
  0
LINE
  5
B17F
  8
0
 10
17.920605786730668
 20
10.114464454063629
 30
0.0
 11
17.937979946912218
 21
10.117378341027219
 31
0.0
  0
LINE
  5
B180
  8
0
 10
17.911632703249129
 20
10.12491485785903
 30
0.0
 11
17.920605786730668
 21
10.114464454063629
 31
0.0
  0
LINE
  5
B181
  8
0
 10
17.903289846068869
 20
10.13546423483762
 30
0.0
 11
17.911632703249129
 21
10.12491485785903
 31
0.0
  0
LINE
  5
B182
  8
0
 10
17.900220221890031
 20
10.1482827175987
 30
0.0
 11
17.903289846068869
 21
10.13546423483762
 31
0.0
  0
LINE
  5
B183
  8
0
 10
17.984666179800161
 20
10.131757106917339
 30
0.0
 11
17.976182140284521
 21
10.15343368960861
 31
0.0
  0
LINE
  5
B184
  8
0
 10
17.970878342035249
 20
10.08577096375461
 30
0.0
 11
17.96598062493625
 21
10.06984501412694
 31
0.0
  0
LINE
  5
B185
  8
0
 10
17.973156180745502
 20
10.0309718407891
 30
0.0
 11
17.99879605724362
 21
10.014373455708419
 31
0.0
  0
LINE
  5
B186
  8
0
 10
17.969802736407861
 20
10.050700980544651
 30
0.0
 11
17.973156180745502
 21
10.0309718407891
 31
0.0
  0
LINE
  5
B187
  8
0
 10
17.96598062493625
 20
10.06984501412694
 30
0.0
 11
17.969802736407861
 21
10.050700980544651
 31
0.0
  0
ARC
  5
B188
  8
0
 10
17.854308308614758
 20
10.072467803491451
 30
0.0
 40
0.025083880084515
 50
230.9061410000015
 51
284.03624299999922
  0
ARC
  5
B189
  8
0
 10
-17.860392248428681
 20
10.035964164608
 30
0.0
 40
0.0121678796278604
210
0.0
220
0.0
230
-1.0
 50
90.0
 51
143.13010200000019
  0
ARC
  5
B18A
  8
0
 10
-17.824664384645779
 20
10.166159021137901
 30
0.0
 40
0.0358850564862318
210
0.0
220
0.0
230
-1.0
 50
158.10020099999781
 51
259.5213870000004
  0
LINE
  5
B18B
  8
0
 10
17.890632922475099
 20
10.162028346211841
 30
0.0
 11
17.900220221890031
 21
10.1482827175987
 31
0.0
  0
LINE
  5
B18C
  8
0
 10
17.976182140284521
 20
10.15343368960861
 30
0.0
 11
17.979197911407599
 21
10.174838096044811
 31
0.0
  0
ARC
  5
B18D
  8
0
 10
-17.529604947574111
 20
9.7281211764868658
 30
0.0
 40
0.4639717297238703
210
0.0
220
0.0
230
-1.0
 50
137.2165990000006
 51
143.83848199999801
  0
LINE
  5
B18E
  8
0
 10
17.916289449523742
 20
10.253215714596401
 30
0.0
 11
17.825702370847988
 21
10.34380279327214
 31
0.0
  0
LINE
  5
B18F
  8
0
 10
17.845605642565399
 20
10.2063300359811
 30
0.0
 11
17.93472904125364
 21
10.295453434669341
 31
0.0
  0
LINE
  5
B190
  8
0
 10
17.834916238338579
 20
10.252209174249201
 30
0.0
 11
17.946145239009731
 21
10.363438174920351
 31
0.0
  0
LINE
  5
B191
  8
0
 10
17.9345100635351
 20
10.293889736494741
 30
0.0
 11
17.910426103702289
 21
10.240126920981069
 31
0.0
  0
LINE
  5
B192
  8
0
 10
17.72180469018441
 20
10.13909762609504
 30
0.0
 11
17.747454624355392
 21
10.16474756026602
 31
0.0
  0
LINE
  5
B193
  8
0
 10
17.699372118221181
 20
10.173233596626719
 30
0.0
 11
17.737438604650791
 21
10.211300083056351
 31
0.0
  0
LINE
  5
B194
  8
0
 10
17.74327755674296
 20
10.086816352407631
 30
0.0
 11
17.720061365433491
 21
10.1100325437171
 31
0.0
  0
LINE
  5
B195
  8
0
 10
17.725387645171541
 20
10.08611203858724
 30
0.0
 11
17.775707132359742
 21
10.13643152577543
 31
0.0
  0
ARC
  5
B196
  8
0
 10
-17.780085698372801
 20
10.064558681733381
 30
0.0
 40
0.0302057423345678
210
0.0
220
0.0
230
-1.0
 50
55.669783000000209
 51
124.33021699999939
  0
ARC
  5
B197
  8
0
 10
-17.710730239981999
 20
10.12316536129037
 30
0.0
 40
0.0183638920173102
210
0.0
220
0.0
230
-1.0
 50
136.78991099999729
 51
210.5297060000018
  0
ARC
  5
B198
  8
0
 10
17.703055451790888
 20
10.091654046225351
 30
0.0
 40
0.0061014056698554
 50
122.4711920000004
 51
311.26860299999788
  0
ARC
  5
B199
  8
0
 10
17.726548483498199
 20
10.28418454255233
 30
0.0
 40
0.19807590558324
 50
264.35945099999969
 51
280.61965500000008
  0
ARC
  5
B19A
  8
0
 10
17.892028735461121
 20
9.8242459700593301
 30
0.0
 40
0.3335367176747872
 50
119.7448810000009
 51
125.19750300000059
  0
ARC
  5
B19B
  8
0
 10
4.6109889789946896
 20
7.3627217640309928
 30
0.0
 40
13.43197968337164
 50
12.020444000001859
 51
12.5091040000021
  0
ARC
  5
B19C
  8
0
 10
-17.783736062261159
 20
10.032313800719511
 30
0.0
 40
0.0310222710990688
210
0.0
220
0.0
230
-1.0
 50
205.55996499999949
 51
244.4400350000011
  0
ARC
  5
B19D
  8
0
 10
-30.192351948801921
 20
13.166711561752649
 30
0.0
 40
12.79985251475232
210
0.0
220
0.0
230
-1.0
 50
346.92944999999759
 51
347.62183800000122
  0
LINE
  5
B19E
  8
0
 10
17.864865349044539
 20
10.530913985055291
 30
0.0
 11
17.811187167999261
 21
10.58459216610057
 31
0.0
  0
LINE
  5
B19F
  8
0
 10
17.864326162755908
 20
10.474884628849001
 30
0.0
 11
17.812128995863048
 21
10.527081795741861
 31
0.0
  0
LINE
  5
B1A0
  8
0
 10
17.81275783849977
 20
10.512893486885011
 30
0.0
 11
17.862994537546388
 21
10.563130185931641
 31
0.0
  0
LINE
  5
B1A1
  8
0
 10
17.789200519922879
 20
10.09335637084366
 30
0.0
 11
17.825303619885119
 21
10.129459470805889
 31
0.0
  0
ARC
  5
B1A2
  8
0
 10
20.671630921182441
 20
10.64671021459889
 30
0.0
 40
2.8620031830002461
 50
182.19141899999829
 51
187.4244890000007
  0
ARC
  5
B1A3
  8
0
 10
-17.810505397442469
 20
10.204081760815811
 30
0.0
 40
0.076075446458015
210
0.0
220
0.0
230
-1.0
 50
254.22244200000071
 51
324.657627999998
  0
ARC
  5
B1A4
  8
0
 10
17.945565950335709
 20
10.21604587212412
 30
0.0
 40
0.1950630454361502
 50
220.446232000002
 51
236.70643699999999
  0
ARC
  5
B1A5
  8
0
 10
17.825106852995891
 20
9.9860758581337379
 30
0.0
 40
0.0354746088719904
 50
67.833654000001147
 51
112.1663459999987
  0
ARC
  5
B1A6
  8
0
 10
18.032304301836032
 20
10.59480896822947
 30
0.0
 40
0.0336916360796306
 50
170.1975030000022
 51
245.9474710000006
  0
ARC
  5
B1A7
  8
0
 10
-18.05733578435278
 20
10.6368740267369
 30
0.0
 40
0.0686349918338974
210
0.0
220
0.0
230
-1.0
 50
278.0069739999995
 51
328.04076100000208
  0
ARC
  5
B1A8
  8
0
 10
17.99495387817278
 20
10.470948602340499
 30
0.0
 40
0.0168568949263376
 50
41.405285992195509
 51
165.1775633013595
  0
LINE
  5
B1A9
  8
0
 10
17.99919049448993
 20
10.47347803358138
 30
0.0
 11
18.007597393141921
 21
10.48209743348024
 31
0.0
  0
LINE
  5
B1AA
  8
0
 10
17.995333475880081
 20
10.46919495428563
 30
0.0
 11
18.024390029953011
 21
10.49825150835856
 31
0.0
  0
LINE
  5
B1AB
  8
0
 10
18.042528175142429
 20
10.46638824394725
 30
0.0
 11
18.005560025160658
 21
10.503356393929019
 31
0.0
  0
ARC
  5
B1AC
  8
0
 10
18.00916537796229
 20
10.51289449381942
 30
0.0
 40
0.0573309938490632
 50
259.58265735866331
 51
297.30588215302879
  0
ARC
  5
B1AD
  8
0
 10
-18.036612546297579
 20
10.58705558368637
 30
0.0
 40
0.0892738115854596
210
0.0
220
0.0
230
-1.0
 50
284.86799099999968
 51
353.02238199999681
  0
LINE
  5
B1AE
  8
0
 10
18.050211451625952
 20
10.17586225498909
 30
0.0
 11
18.002649414294019
 21
10.223424292321029
 31
0.0
  0
LINE
  5
B1AF
  8
0
 10
18.032421893855648
 20
10.13708327026449
 30
0.0
 11
17.98237765339789
 21
10.18712751072224
 31
0.0
  0
LINE
  5
B1B0
  8
0
 10
17.99879605724362
 20
10.014373455708419
 30
0.0
 11
18.020273238079579
 21
10.012370704229159
 31
0.0
  0
LINE
  5
B1B1
  8
0
 10
18.00928721470266
 20
10.13278759241711
 30
0.0
 11
17.984666179800161
 21
10.131757106917339
 31
0.0
  0
LINE
  5
B1B2
  8
0
 10
17.997859056371752
 20
10.13230927980776
 30
0.0
 11
18.235692200712119
 21
10.37014242414814
 31
0.0
  0
LINE
  5
B1B3
  8
0
 10
17.978439989960751
 20
10.16945875589168
 30
0.0
 11
18.22758700820604
 21
10.418605774136971
 31
0.0
  0
LINE
  5
B1B4
  8
0
 10
18.005734368509899
 20
10.227429243723449
 30
0.0
 11
18.032393086603651
 21
10.288456399814089
 31
0.0
  0
LINE
  5
B1B5
  8
0
 10
18.407932155511801
 20
9.9936674409279842
 30
0.0
 11
18.40616706551203
 21
9.9948036653559011
 31
0.0
  0
LINE
  5
B1B6
  8
0
 10
18.38979477855144
 20
9.9940864158445422
 30
0.0
 11
18.38978773895488
 21
9.9920375976012021
 31
0.0
  0
LINE
  5
B1B7
  8
0
 10
18.487689369945521
 20
9.8515214216593918
 30
0.0
 11
18.33178401650984
 21
10.00742677509508
 31
0.0
  0
LINE
  5
B1B8
  8
0
 10
18.33521485768285
 20
9.9605481986645401
 30
0.0
 11
18.44068968352542
 21
10.066023024507111
 31
0.0
  0
LINE
  5
B1B9
  8
0
 10
18.418447623761342
 20
9.9872124222481133
 30
0.0
 11
18.482727283617962
 21
10.051492082104719
 31
0.0
  0
LINE
  5
B1BA
  8
0
 10
18.444029910348188
 20
9.9562261663400378
 30
0.0
 11
18.518940229540981
 21
10.031136485532819
 31
0.0
  0
LINE
  5
B1BB
  8
0
 10
18.574348471680342
 20
9.8779994049144122
 30
0.0
 11
18.38535767864138
 21
10.06699019795337
 31
0.0
  0
LINE
  5
B1BC
  8
0
 10
18.47030427876339
 20
9.9259319922603169
 30
0.0
 11
18.637732309171739
 21
10.093360022668669
 31
0.0
  0
LINE
  5
B1BD
  8
0
 10
18.446708469718381
 20
9.845767640720382
 30
0.0
 11
18.652234814710681
 21
10.051293985712681
 31
0.0
  0
LINE
  5
B1BE
  8
0
 10
18.514358277306389
 20
9.8568489058134716
 30
0.0
 11
18.653986405284279
 21
9.9964770337913702
 31
0.0
  0
LINE
  5
B1BF
  8
0
 10
18.64908141091756
 20
9.9729720931619781
 30
0.0
 11
18.561490112832711
 21
10.060563391246809
 31
0.0
  0
LINE
  5
B1C0
  8
0
 10
18.631789182200698
 20
9.9336957793839105
 30
0.0
 11
18.546048468696629
 21
10.019436492887969
 31
0.0
  0
LINE
  5
B1C1
  8
0
 10
18.606651902298449
 20
9.9022645167912344
 30
0.0
 11
18.443097041603291
 21
10.065819377486379
 31
0.0
  0
ARC
  5
B1C2
  8
0
 10
18.49489186247785
 20
10.017412514639309
 30
0.0
 40
0.160466095824399
 50
282.4976340000004
 51
5.3357755839129428
  0
LINE
  5
B1C3
  8
0
 10
18.821548488406108
 20
9.4227117642917602
 30
0.0
 11
18.901855038461989
 21
9.4227117642917602
 31
0.0
  0
LINE
  5
B1C4
  8
0
 10
18.456753953332289
 20
9.9390253807675464
 30
0.0
 11
18.444378096757148
 21
9.9514012373426937
 31
0.0
  0
LINE
  5
B1C5
  8
0
 10
18.40473846276447
 20
9.9169347187563162
 30
0.0
 11
18.422528687793701
 21
9.9347249437855396
 31
0.0
  0
LINE
  5
B1C6
  8
0
 10
18.533995467224749
 20
9.8617838668750863
 30
0.0
 11
18.470545138535989
 21
9.9252341955638457
 31
0.0
  0
LINE
  5
B1C7
  8
0
 10
18.443578362722679
 20
9.9594718625035057
 30
0.0
 11
18.443156553110519
 21
9.961498749403745
 31
0.0
  0
LINE
  5
B1C8
  8
0
 10
18.47056192517411
 20
9.9252393709703028
 30
0.0
 11
18.463253919957399
 21
9.9229862755560063
 31
0.0
  0
LINE
  5
B1C9
  8
0
 10
18.467461735747388
 20
9.9335734952223902
 30
0.0
 11
18.47056192517411
 21
9.9252393709703028
 31
0.0
  0
LINE
  5
B1CA
  8
0
 10
18.463383458388861
 20
9.9368075895447419
 30
0.0
 11
18.467461735747388
 21
9.9335734952223902
 31
0.0
  0
LINE
  5
B1CB
  8
0
 10
18.46005184637113
 20
9.9384843117136281
 30
0.0
 11
18.463383458388861
 21
9.9368075895447419
 31
0.0
  0
LINE
  5
B1CC
  8
0
 10
18.443898870939019
 20
9.9574033207873001
 30
0.0
 11
18.443578362722679
 21
9.9594718625035057
 31
0.0
  0
LINE
  5
B1CD
  8
0
 10
18.444132061246719
 20
9.955308523431988
 30
0.0
 11
18.443898870939019
 21
9.9574033207873001
 31
0.0
  0
LINE
  5
B1CE
  8
0
 10
18.444291917133
 20
9.9532028696150903
 30
0.0
 11
18.444132061246719
 21
9.955308523431988
 31
0.0
  0
LINE
  5
B1CF
  8
0
 10
18.444392422085041
 20
9.9511017585123227
 30
0.0
 11
18.444291917133
 21
9.9532028696150903
 31
0.0
  0
LINE
  5
B1D0
  8
0
 10
18.44444755959001
 20
9.9490205893005097
 30
0.0
 11
18.444392422085041
 21
9.9511017585123227
 31
0.0
  0
LINE
  5
B1D1
  8
0
 10
18.444466781791629
 20
9.9469746038580524
 30
0.0
 11
18.44444755959001
 21
9.9490205893005097
 31
0.0
  0
LINE
  5
B1D2
  8
0
 10
18.444441415459689
 20
9.9449784148666822
 30
0.0
 11
18.444466781791629
 21
9.9469746038580524
 31
0.0
  0
LINE
  5
B1D3
  8
0
 10
18.4443582560205
 20
9.9430464777108227
 30
0.0
 11
18.444441415459689
 21
9.9449784148666822
 31
0.0
  0
LINE
  5
B1D4
  8
0
 10
18.444204098900371
 20
9.9411932477739722
 30
0.0
 11
18.4443582560205
 21
9.9430464777108227
 31
0.0
  0
LINE
  5
B1D5
  8
0
 10
18.443965739525598
 20
9.9394331804396643
 30
0.0
 11
18.444204098900371
 21
9.9411932477739722
 31
0.0
  0
LINE
  5
B1D6
  8
0
 10
18.443629973322501
 20
9.9377807310918342
 30
0.0
 11
18.443965739525598
 21
9.9394331804396643
 31
0.0
  0
LINE
  5
B1D7
  8
0
 10
18.443183595717372
 20
9.9362503551133141
 30
0.0
 11
18.443629973322501
 21
9.9377807310918342
 31
0.0
  0
LINE
  5
B1D8
  8
0
 10
18.44261340213653
 20
9.9348565078892062
 30
0.0
 11
18.443183595717372
 21
9.9362503551133141
 31
0.0
  0
LINE
  5
B1D9
  8
0
 10
18.441911821389152
 20
9.9336111398656541
 30
0.0
 11
18.44261340213653
 21
9.9348565078892062
 31
0.0
  0
LINE
  5
B1DA
  8
0
 10
18.441093815816039
 20
9.9325161817437202
 30
0.0
 11
18.441911821389152
 21
9.9336111398656541
 31
0.0
  0
LINE
  5
B1DB
  8
0
 10
18.44017998114083
 20
9.9315710592884443
 30
0.0
 11
18.441093815816039
 21
9.9325161817437202
 31
0.0
  0
LINE
  5
B1DC
  8
0
 10
18.439190913087199
 20
9.9307751982639658
 30
0.0
 11
18.44017998114083
 21
9.9315710592884443
 31
0.0
  0
LINE
  5
B1DD
  8
0
 10
18.43814720737879
 20
9.9301280244349002
 30
0.0
 11
18.439190913087199
 21
9.9307751982639658
 31
0.0
  0
LINE
  5
B1DE
  8
0
 10
18.437069459739281
 20
9.9296289635656123
 30
0.0
 11
18.43814720737879
 21
9.9301280244349002
 31
0.0
  0
LINE
  5
B1DF
  8
0
 10
18.435978265892331
 20
9.9292774414204743
 30
0.0
 11
18.437069459739281
 21
9.9296289635656123
 31
0.0
  0
LINE
  5
B1E0
  8
0
 10
18.43489422156161
 20
9.9290728837645403
 30
0.0
 11
18.435978265892331
 21
9.9292774414204743
 31
0.0
  0
LINE
  5
B1E1
  8
0
 10
18.433832374370361
 20
9.9290137517220884
 30
0.0
 11
18.43489422156161
 21
9.9290728837645403
 31
0.0
  0
LINE
  5
B1E2
  8
0
 10
18.432785579540301
 20
9.9290946478586122
 30
0.0
 11
18.433832374370361
 21
9.9290137517220884
 31
0.0
  0
LINE
  5
B1E3
  8
0
 10
18.431741144192731
 20
9.9293092100992837
 30
0.0
 11
18.432785579540301
 21
9.9290946478586122
 31
0.0
  0
LINE
  5
B1E4
  8
0
 10
18.430686375448971
 20
9.9296510763701917
 30
0.0
 11
18.431741144192731
 21
9.9293092100992837
 31
0.0
  0
LINE
  5
B1E5
  8
0
 10
18.42960858043029
 20
9.9301138845962598
 30
0.0
 11
18.430686375448971
 21
9.9296510763701917
 31
0.0
  0
LINE
  5
B1E6
  8
0
 10
18.42849506625803
 20
9.9306912727038181
 30
0.0
 11
18.42960858043029
 21
9.9301138845962598
 31
0.0
  0
LINE
  5
B1E7
  8
0
 10
18.42733314005347
 20
9.9313768786173497
 30
0.0
 11
18.42849506625803
 21
9.9306912727038181
 31
0.0
  0
LINE
  5
B1E8
  8
0
 10
18.42611010893792
 20
9.9321643402633981
 30
0.0
 11
18.42733314005347
 21
9.9313768786173497
 31
0.0
  0
LINE
  5
B1E9
  8
0
 10
18.424817984547008
 20
9.933047037350434
 30
0.0
 11
18.42611010893792
 21
9.9321643402633981
 31
0.0
  0
LINE
  5
B1EA
  8
0
 10
18.423467596573719
 20
9.9340173167217927
 30
0.0
 11
18.424817984547008
 21
9.933047037350434
 31
0.0
  0
LINE
  5
B1EB
  8
0
 10
18.42207447922538
 20
9.9350672670041078
 30
0.0
 11
18.423467596573719
 21
9.9340173167217927
 31
0.0
  0
LINE
  5
B1EC
  8
0
 10
18.420654166709291
 20
9.9361889768247238
 30
0.0
 11
18.42207447922538
 21
9.9350672670041078
 31
0.0
  0
LINE
  5
B1ED
  8
0
 10
18.419222193232731
 20
9.9373745348097984
 30
0.0
 11
18.420654166709291
 21
9.9361889768247238
 31
0.0
  0
LINE
  5
B1EE
  8
0
 10
18.417794093003049
 20
9.9386160295866741
 30
0.0
 11
18.419222193232731
 21
9.9373745348097984
 31
0.0
  0
LINE
  5
B1EF
  8
0
 10
18.416385400227512
 20
9.9399055497815425
 30
0.0
 11
18.417794093003049
 21
9.9386160295866741
 31
0.0
  0
LINE
  5
B1F0
  8
0
 10
18.41501164911346
 20
9.9412351840219344
 30
0.0
 11
18.416385400227512
 21
9.9399055497815425
 31
0.0
  0
LINE
  5
B1F1
  8
0
 10
18.413685175300671
 20
9.9425986948397096
 30
0.0
 11
18.41501164911346
 21
9.9412351840219344
 31
0.0
  0
LINE
  5
B1F2
  8
0
 10
18.41240552015881
 20
9.9439965403921562
 30
0.0
 11
18.413685175300671
 21
9.9425986948397096
 31
0.0
  0
LINE
  5
B1F3
  8
0
 10
18.411169026489979
 20
9.9454308527410742
 30
0.0
 11
18.41240552015881
 21
9.9439965403921562
 31
0.0
  0
LINE
  5
B1F4
  8
0
 10
18.409972037096392
 20
9.9469037639494218
 30
0.0
 11
18.411169026489979
 21
9.9454308527410742
 31
0.0
  0
LINE
  5
B1F5
  8
0
 10
18.408810894780139
 20
9.948417406080118
 30
0.0
 11
18.409972037096392
 21
9.9469037639494218
 31
0.0
  0
LINE
  5
B1F6
  8
0
 10
18.40768194234337
 20
9.9499739111943182
 30
0.0
 11
18.408810894780139
 21
9.948417406080118
 31
0.0
  0
LINE
  5
B1F7
  8
0
 10
18.40658152258824
 20
9.9515754113558543
 30
0.0
 11
18.40768194234337
 21
9.9499739111943182
 31
0.0
  0
LINE
  5
B1F8
  8
0
 10
18.40550597831686
 20
9.9532240386265585
 30
0.0
 11
18.40658152258824
 21
9.9515754113558543
 31
0.0
  0
LINE
  5
B1F9
  8
0
 10
18.410497025266931
 20
9.9093384806574178
 30
0.0
 11
18.413005285446399
 21
9.9060827117880308
 31
0.0
  0
LINE
  5
B1FA
  8
0
 10
18.40786341402676
 20
9.9128038938103984
 30
0.0
 11
18.410497025266931
 21
9.9093384806574178
 31
0.0
  0
LINE
  5
B1FB
  8
0
 10
18.405141757133961
 20
9.9164028366155819
 30
0.0
 11
18.40786341402676
 21
9.9128038938103984
 31
0.0
  0
LINE
  5
B1FC
  8
0
 10
18.402369359996641
 20
9.920059194442274
 30
0.0
 11
18.405141757133961
 21
9.9164028366155819
 31
0.0
  0
LINE
  5
B1FD
  8
0
 10
18.454176041340311
 20
9.93829218729865
 30
0.0
 11
18.454176041340311
 21
9.9361890071475045
 31
0.0
  0
LINE
  5
B1FE
  8
0
 10
18.458172811371181
 20
9.9394289234216942
 30
0.0
 11
18.454176041340311
 21
9.93829218729865
 31
0.0
  0
LINE
  5
B1FF
  8
0
 10
18.46005184637113
 20
9.9384843117136281
 30
0.0
 11
18.458172811371181
 21
9.9394289234216942
 31
0.0
  0
LINE
  5
B200
  8
0
 10
18.454176041340311
 20
9.933755431221698
 30
0.0
 11
18.454176041340311
 21
9.9361890071475045
 31
0.0
  0
LINE
  5
B201
  8
0
 10
18.454807723129601
 20
9.9295243276237581
 30
0.0
 11
18.454176041340311
 21
9.933755431221698
 31
0.0
  0
LINE
  5
B202
  8
0
 10
18.451866181894211
 20
9.91900697138135
 30
0.0
 11
18.454807723129601
 21
9.9295243276237581
 31
0.0
  0
LINE
  5
B203
  8
0
 10
18.463253919957399
 20
9.9229862755560063
 30
0.0
 11
18.451866181894211
 21
9.91900697138135
 31
0.0
  0
LINE
  5
B204
  8
0
 10
18.399583528022859
 20
9.9236968526595302
 30
0.0
 11
18.402369359996641
 21
9.920059194442274
 31
0.0
  0
LINE
  5
B205
  8
0
 10
18.403545435989258
 20
9.9563023957332462
 30
0.0
 11
18.401980786395971
 21
9.9598232211901561
 31
0.0
  0
LINE
  5
B206
  8
0
 10
18.40550597831686
 20
9.9532240386265585
 30
0.0
 11
18.403545435989258
 21
9.9563023957332462
 31
0.0
  0
LINE
  5
B207
  8
0
 10
18.409842248502951
 20
9.9924880066996522
 30
0.0
 11
18.407932155511801
 21
9.9936674409279842
 31
0.0
  0
LINE
  5
B208
  8
0
 10
18.411914491953411
 20
9.9912302262821342
 30
0.0
 11
18.409842248502951
 21
9.9924880066996522
 31
0.0
  0
LINE
  5
B209
  8
0
 10
18.414155357857311
 20
9.9898678554072742
 30
0.0
 11
18.411914491953411
 21
9.9912302262821342
 31
0.0
  0
LINE
  5
B20A
  8
0
 10
18.41652861631362
 20
9.9884102182943462
 30
0.0
 11
18.414155357857311
 21
9.9898678554072742
 31
0.0
  0
LINE
  5
B20B
  8
0
 10
18.418987361947611
 20
9.9868755312859321
 30
0.0
 11
18.41652861631362
 21
9.9884102182943462
 31
0.0
  0
LINE
  5
B20C
  8
0
 10
18.421484689384389
 20
9.9852820107237221
 30
0.0
 11
18.418987361947611
 21
9.9868755312859321
 31
0.0
  0
LINE
  5
B20D
  8
0
 10
18.423973693249231
 20
9.9836478729496321
 30
0.0
 11
18.421484689384389
 21
9.9852820107237221
 31
0.0
  0
LINE
  5
B20E
  8
0
 10
18.426407468167291
 20
9.9819913343060236
 30
0.0
 11
18.423973693249231
 21
9.9836478729496321
 31
0.0
  0
LINE
  5
B20F
  8
0
 10
18.428739108763821
 20
9.9803306111339225
 30
0.0
 11
18.426407468167291
 21
9.9819913343060236
 31
0.0
  0
LINE
  5
B210
  8
0
 10
18.430921709663959
 20
9.9786839197761221
 30
0.0
 11
18.428739108763821
 21
9.9803306111339225
 31
0.0
  0
LINE
  5
B211
  8
0
 10
18.432917280830701
 20
9.9770639384232638
 30
0.0
 11
18.430921709663959
 21
9.9786839197761221
 31
0.0
  0
LINE
  5
B212
  8
0
 10
18.434723493578002
 20
9.9754611926634862
 30
0.0
 11
18.432917280830701
 21
9.9770639384232638
 31
0.0
  0
LINE
  5
B213
  8
0
 10
18.436346934557591
 20
9.9738606699340764
 30
0.0
 11
18.434723493578002
 21
9.9754611926634862
 31
0.0
  0
LINE
  5
B214
  8
0
 10
18.437794190421169
 20
9.9722473576730408
 30
0.0
 11
18.436346934557591
 21
9.9738606699340764
 31
0.0
  0
LINE
  5
B215
  8
0
 10
18.4390718478205
 20
9.9706062433169702
 30
0.0
 11
18.437794190421169
 21
9.9722473576730408
 31
0.0
  0
LINE
  5
B216
  8
0
 10
18.440186493407261
 20
9.9689223143027377
 30
0.0
 11
18.4390718478205
 21
9.9706062433169702
 31
0.0
  0
LINE
  5
B217
  8
0
 10
18.441144713833189
 20
9.9671805580685486
 30
0.0
 11
18.440186493407261
 21
9.9689223143027377
 31
0.0
  0
LINE
  5
B218
  8
0
 10
18.441953095750019
 20
9.9653659620516901
 30
0.0
 11
18.441144713833189
 21
9.9671805580685486
 31
0.0
  0
LINE
  5
B219
  8
0
 10
18.442619458615379
 20
9.9634685823123164
 30
0.0
 11
18.441953095750019
 21
9.9653659620516901
 31
0.0
  0
LINE
  5
B21A
  8
0
 10
18.443156553110519
 20
9.961498749403745
 30
0.0
 11
18.442619458615379
 21
9.9634685823123164
 31
0.0
  0
ARC
  5
B21B
  8
0
 10
18.421931160326491
 20
10.250115935082009
 30
0.0
 40
0.4039823365729263
 50
276.3116059999997
 51
285.4594479999999
  0
LINE
  5
B21C
  8
0
 10
18.4024668620571
 20
9.8952601830176263
 30
0.0
 11
18.400419047778669
 21
9.8971520914108169
 31
0.0
  0
LINE
  5
B21D
  8
0
 10
18.404379517787358
 20
9.8936164722829218
 30
0.0
 11
18.4024668620571
 21
9.8952601830176263
 31
0.0
  0
LINE
  5
B21E
  8
0
 10
18.40617058910064
 20
9.8922031436927682
 30
0.0
 11
18.404379517787358
 21
9.8936164722829218
 31
0.0
  0
LINE
  5
B21F
  8
0
 10
18.407853650128128
 20
9.8910023817331876
 30
0.0
 11
18.40617058910064
 21
9.8922031436927682
 31
0.0
  0
LINE
  5
B220
  8
0
 10
18.409442275001041
 20
9.8899963708895484
 30
0.0
 11
18.407853650128128
 21
9.8910023817331876
 31
0.0
  0
LINE
  5
B221
  8
0
 10
18.41095003785054
 20
9.8891672956481145
 30
0.0
 11
18.409442275001041
 21
9.8899963708895484
 31
0.0
  0
LINE
  5
B222
  8
0
 10
18.412390512807821
 20
9.8884973404942684
 30
0.0
 11
18.41095003785054
 21
9.8891672956481145
 31
0.0
  0
LINE
  5
B223
  8
0
 10
18.41377727400409
 20
9.8879686899140324
 30
0.0
 11
18.412390512807821
 21
9.8884973404942684
 31
0.0
  0
LINE
  5
B224
  8
0
 10
18.41512091778992
 20
9.8875650648997109
 30
0.0
 11
18.41377727400409
 21
9.8879686899140324
 31
0.0
  0
LINE
  5
B225
  8
0
 10
18.41642012939343
 20
9.8872763324689004
 30
0.0
 11
18.41512091778992
 21
9.8875650648997109
 31
0.0
  0
LINE
  5
B226
  8
0
 10
18.417670616262161
 20
9.8870938961458705
 30
0.0
 11
18.41642012939343
 21
9.8872763324689004
 31
0.0
  0
LINE
  5
B227
  8
0
 10
18.418868085843609
 20
9.8870091594542302
 30
0.0
 11
18.417670616262161
 21
9.8870938961458705
 31
0.0
  0
LINE
  5
B228
  8
0
 10
18.420008245585301
 20
9.8870135259185101
 30
0.0
 11
18.418868085843609
 21
9.8870091594542302
 31
0.0
  0
LINE
  5
B229
  8
0
 10
18.421086802934759
 20
9.8870983990616423
 30
0.0
 11
18.420008245585301
 21
9.8870135259185101
 31
0.0
  0
LINE
  5
B22A
  8
0
 10
18.422099465339521
 20
9.887255182409028
 30
0.0
 11
18.421086802934759
 21
9.8870983990616423
 31
0.0
  0
LINE
  5
B22B
  8
0
 10
18.42304194024706
 20
9.8874752794843062
 30
0.0
 11
18.422099465339521
 21
9.887255182409028
 31
0.0
  0
LINE
  5
B22C
  8
0
 10
18.423907795461769
 20
9.8877508608795779
 30
0.0
 11
18.42304194024706
 21
9.8874752794843062
 31
0.0
  0
LINE
  5
B22D
  8
0
 10
18.424682040215352
 20
9.8880771654632937
 30
0.0
 11
18.423907795461769
 21
9.8877508608795779
 31
0.0
  0
LINE
  5
B22E
  8
0
 10
18.425347544096429
 20
9.8884501991710678
 30
0.0
 11
18.424682040215352
 21
9.8880771654632937
 31
0.0
  0
LINE
  5
B22F
  8
0
 10
18.425887176693539
 20
9.8888659679394024
 30
0.0
 11
18.425347544096429
 21
9.8884501991710678
 31
0.0
  0
LINE
  5
B230
  8
0
 10
18.426283807595251
 20
9.889320477704814
 30
0.0
 11
18.425887176693539
 21
9.8888659679394024
 31
0.0
  0
LINE
  5
B231
  8
0
 10
18.426520306390142
 20
9.8898097344031157
 30
0.0
 11
18.426283807595251
 21
9.889320477704814
 31
0.0
  0
LINE
  5
B232
  8
0
 10
18.426579542666811
 20
9.8903297439710514
 30
0.0
 11
18.426520306390142
 21
9.8898097344031157
 31
0.0
  0
LINE
  5
B233
  8
0
 10
18.42644438601382
 20
9.8908765123444482
 30
0.0
 11
18.426579542666811
 21
9.8903297439710514
 31
0.0
  0
LINE
  5
B234
  8
0
 10
18.426100024756121
 20
9.8914553616250416
 30
0.0
 11
18.42644438601382
 21
9.8908765123444482
 31
0.0
  0
LINE
  5
B235
  8
0
 10
18.425540922164341
 20
9.8921088785768845
 30
0.0
 11
18.426100024756121
 21
9.8914553616250416
 31
0.0
  0
LINE
  5
B236
  8
0
 10
18.42476386024552
 20
9.8928889661294761
 30
0.0
 11
18.425540922164341
 21
9.8921088785768845
 31
0.0
  0
LINE
  5
B237
  8
0
 10
18.423765621006631
 20
9.8938475272113902
 30
0.0
 11
18.42476386024552
 21
9.8928889661294761
 31
0.0
  0
LINE
  5
B238
  8
0
 10
18.42254298645468
 20
9.8950364647525841
 30
0.0
 11
18.423765621006631
 21
9.8938475272113902
 31
0.0
  0
LINE
  5
B239
  8
0
 10
18.421092738596741
 20
9.8965076816823441
 30
0.0
 11
18.42254298645468
 21
9.8950364647525841
 31
0.0
  0
LINE
  5
B23A
  8
0
 10
18.419411659439781
 20
9.8983130809292561
 30
0.0
 11
18.421092738596741
 21
9.8965076816823441
 31
0.0
  0
LINE
  5
B23B
  8
0
 10
18.41749653099081
 20
9.9005045654227999
 30
0.0
 11
18.419411659439781
 21
9.8983130809292561
 31
0.0
  0
LINE
  5
B23C
  8
0
 10
18.41535088915705
 20
9.9031127018331517
 30
0.0
 11
18.41749653099081
 21
9.9005045654227999
 31
0.0
  0
LINE
  5
B23D
  8
0
 10
18.406339255367541
 20
9.8928055175781537
 30
0.0
 11
18.406339255367541
 21
9.8928055175781537
 31
0.0
  0
ARC
  5
B23E
  8
0
 10
18.434094619636149
 20
10.00365525312349
 30
0.0
 40
0.1583906795371874
 50
270.3585265090901
 51
281.74765214791682
  0
LINE
  5
B23F
  8
0
 10
18.413005285446399
 20
9.9060827117880308
 30
0.0
 11
18.41535088915705
 21
9.9031127018331517
 31
0.0
  0
LINE
  5
B240
  8
0
 10
18.379302951028279
 20
9.9480677495150545
 30
0.0
 11
18.396394558643639
 21
9.9651593571304176
 31
0.0
  0
LINE
  5
B241
  8
0
 10
18.347587136481241
 20
9.8597833924730907
 30
0.0
 11
18.392829025174809
 21
9.9050252811666724
 31
0.0
  0
LINE
  5
B242
  8
0
 10
18.313275194122429
 20
9.8820399926092062
 30
0.0
 11
18.368305252329471
 21
9.9370700508162457
 31
0.0
  0
LINE
  5
B243
  8
0
 10
18.34565860023579
 20
9.7447177712377862
 30
0.0
 11
18.386431400569471
 21
9.7854905715714722
 31
0.0
  0
LINE
  5
B244
  8
0
 10
18.3857702977628
 20
9.7837348663573422
 30
0.0
 11
18.35782387292776
 21
9.8116812911923716
 31
0.0
  0
LINE
  5
B245
  8
0
 10
18.361958391861631
 20
9.7509782297635823
 30
0.0
 11
18.308435188119351
 21
9.8045014335058696
 31
0.0
  0
LINE
  5
B246
  8
0
 10
18.394117598739751
 20
9.9306234015741666
 30
0.0
 11
18.396821566620751
 21
9.9272396966366543
 31
0.0
  0
LINE
  5
B247
  8
0
 10
18.398426738430629
 20
9.962825787265956
 30
0.0
 11
18.399176061031991
 21
9.9621578239321025
 31
0.0
  0
LINE
  5
B248
  8
0
 10
18.397686170077861
 20
9.9635790814258982
 30
0.0
 11
18.398426738430629
 21
9.962825787265956
 31
0.0
  0
LINE
  5
B249
  8
0
 10
18.396957447464299
 20
9.9644215753949084
 30
0.0
 11
18.397686170077861
 21
9.9635790814258982
 31
0.0
  0
LINE
  5
B24A
  8
0
 10
18.396243662080551
 20
9.9653571381559161
 30
0.0
 11
18.396957447464299
 21
9.9644215753949084
 31
0.0
  0
LINE
  5
B24B
  8
0
 10
18.395547905417232
 20
9.9663896386916804
 30
0.0
 11
18.396243662080551
 21
9.9653571381559161
 31
0.0
  0
LINE
  5
B24C
  8
0
 10
18.394873268964929
 20
9.9675229459842285
 30
0.0
 11
18.395547905417232
 21
9.9663896386916804
 31
0.0
  0
LINE
  5
B24D
  8
0
 10
18.394222844214259
 20
9.9687609290172006
 30
0.0
 11
18.394873268964929
 21
9.9675229459842285
 31
0.0
  0
LINE
  5
B24E
  8
0
 10
18.393599722655889
 20
9.9701074567728938
 30
0.0
 11
18.394222844214259
 21
9.9687609290172006
 31
0.0
  0
LINE
  5
B24F
  8
0
 10
18.393007333120021
 20
9.9715639790538262
 30
0.0
 11
18.393599722655889
 21
9.9701074567728938
 31
0.0
  0
LINE
  5
B250
  8
0
 10
18.395936497258859
 20
9.9016632362049606
 30
0.0
 11
18.393574781788871
 21
9.9041963789752501
 31
0.0
  0
LINE
  5
B251
  8
0
 10
18.398231607096658
 20
9.8992989470987141
 30
0.0
 11
18.395936497258859
 21
9.9016632362049606
 31
0.0
  0
LINE
  5
B252
  8
0
 10
18.367755566143622
 20
9.9621000554620807
 30
0.0
 11
18.36861026782875
 21
9.9610465034156661
 31
0.0
  0
LINE
  5
B253
  8
0
 10
18.35680229693207
 20
9.9612067241209843
 30
0.0
 11
18.357254913899631
 21
9.9616604184911921
 31
0.0
  0
LINE
  5
B254
  8
0
 10
18.33319145076802
 20
9.9615226057619495
 30
0.0
 11
18.334238251283569
 21
9.9610130826249588
 31
0.0
  0
LINE
  5
B255
  8
0
 10
18.30838417546903
 20
9.9615363305588218
 30
0.0
 11
18.310597972707551
 21
9.9605247664030685
 31
0.0
  0
LINE
  5
B256
  8
0
 10
18.35673368289698
 20
9.9485943066213096
 30
0.0
 11
18.355332066436858
 21
9.9495468467589419
 31
0.0
  0
LINE
  5
B257
  8
0
 10
18.356334499679569
 20
9.9607566741569826
 30
0.0
 11
18.35680229693207
 21
9.9612067241209843
 31
0.0
  0
LINE
  5
B258
  8
0
 10
18.311380381365311
 20
9.9601818888243017
 30
0.0
 11
18.310597972707551
 21
9.9605247664032959
 31
0.0
  0
LINE
  5
B259
  8
0
 10
18.3122421624455
 20
9.9598349390057521
 30
0.0
 11
18.311380381365311
 21
9.9601818888243017
 31
0.0
  0
LINE
  5
B25A
  8
0
 10
18.313185320086831
 20
9.9594863261784141
 30
0.0
 11
18.3122421624455
 21
9.9598349390057521
 31
0.0
  0
LINE
  5
B25B
  8
0
 10
18.31421185842806
 20
9.9591384595732961
 30
0.0
 11
18.313185320086831
 21
9.9594863261784141
 31
0.0
  0
LINE
  5
B25C
  8
0
 10
18.315323781607919
 20
9.9587937484200122
 30
0.0
 11
18.31421185842806
 21
9.9591384595732961
 31
0.0
  0
LINE
  5
B25D
  8
0
 10
18.316523093765149
 20
9.9584546019504998
 30
0.0
 11
18.315323781607919
 21
9.9587937484200122
 31
0.0
  0
LINE
  5
B25E
  8
0
 10
18.317811799038509
 20
9.9581234293946181
 30
0.0
 11
18.316523093765149
 21
9.9584546019504998
 31
0.0
  0
LINE
  5
B25F
  8
0
 10
18.319191901566722
 20
9.9578026399831217
 30
0.0
 11
18.317811799038509
 21
9.9581234293946181
 31
0.0
  0
LINE
  5
B260
  8
0
 10
18.320663213254491
 20
9.9574941227231122
 30
0.0
 11
18.319191901566722
 21
9.9578026399831217
 31
0.0
  0
LINE
  5
B261
  8
0
 10
18.32221677707043
 20
9.9571976857287083
 30
0.0
 11
18.320663213254491
 21
9.9574941227231122
 31
0.0
  0
LINE
  5
B262
  8
0
 10
18.32384144374906
 20
9.9569126168921684
 30
0.0
 11
18.32221677707043
 21
9.9571976857287083
 31
0.0
  0
LINE
  5
B263
  8
0
 10
18.32552606402492
 20
9.9566382041039105
 30
0.0
 11
18.32384144374906
 21
9.9569126168921684
 31
0.0
  0
LINE
  5
B264
  8
0
 10
18.327259488632571
 20
9.9563737352548216
 30
0.0
 11
18.32552606402492
 21
9.9566382041039105
 31
0.0
  0
LINE
  5
B265
  8
0
 10
18.32903056830655
 20
9.9561184982367195
 30
0.0
 11
18.327259488632571
 21
9.9563737352548216
 31
0.0
  0
LINE
  5
B266
  8
0
 10
18.330828153781439
 20
9.9558717809397805
 30
0.0
 11
18.32903056830655
 21
9.9561184982367195
 31
0.0
  0
LINE
  5
B267
  8
0
 10
18.33264109579175
 20
9.9556328712562774
 30
0.0
 11
18.330828153781439
 21
9.9558717809397805
 31
0.0
  0
LINE
  5
B268
  8
0
 10
18.334458698016881
 20
9.9553999230558858
 30
0.0
 11
18.33264109579175
 21
9.9556328712562774
 31
0.0
  0
LINE
  5
B269
  8
0
 10
18.336272075915531
 20
9.9551665541289296
 30
0.0
 11
18.334458698016881
 21
9.9553999230558858
 31
0.0
  0
LINE
  5
B26A
  8
0
 10
18.338072797891229
 20
9.9549252482436241
 30
0.0
 11
18.336272075915531
 21
9.9551665541289296
 31
0.0
  0
LINE
  5
B26B
  8
0
 10
18.33985243234752
 20
9.9546684891697623
 30
0.0
 11
18.338072797891229
 21
9.9549252482436241
 31
0.0
  0
LINE
  5
B26C
  8
0
 10
18.341602547687948
 20
9.9543887606757764
 30
0.0
 11
18.33985243234752
 21
9.9546684891697623
 31
0.0
  0
LINE
  5
B26D
  8
0
 10
18.343314712316019
 20
9.9540785465308002
 30
0.0
 11
18.341602547687948
 21
9.9543887606757764
 31
0.0
  0
LINE
  5
B26E
  8
0
 10
18.344980494635291
 20
9.9537303305044063
 30
0.0
 11
18.343314712316019
 21
9.9540785465308002
 31
0.0
  0
LINE
  5
B26F
  8
0
 10
18.346591463049322
 20
9.9533365963648066
 30
0.0
 11
18.344980494635291
 21
9.9537303305044063
 31
0.0
  0
LINE
  5
B270
  8
0
 10
18.34814241769455
 20
9.9528895938283242
 30
0.0
 11
18.346591463049322
 21
9.9533365963648066
 31
0.0
  0
LINE
  5
B271
  8
0
 10
18.349641085639249
 20
9.9523806363990843
 30
0.0
 11
18.34814241769455
 21
9.9528895938283242
 31
0.0
  0
LINE
  5
B272
  8
0
 10
18.351098425684629
 20
9.9518008035263321
 30
0.0
 11
18.349641085639249
 21
9.9523806363990843
 31
0.0
  0
LINE
  5
B273
  8
0
 10
18.35252539663189
 20
9.9511411746620961
 30
0.0
 11
18.351098425684629
 21
9.9518008035263321
 31
0.0
  0
LINE
  5
B274
  8
0
 10
18.353932957282229
 20
9.9503928292560886
 30
0.0
 11
18.35252539663189
 21
9.9511411746620961
 31
0.0
  0
LINE
  5
B275
  8
0
 10
18.355332066436858
 20
9.9495468467589419
 30
0.0
 11
18.353932957282229
 21
9.9503928292560886
 31
0.0
  0
LINE
  5
B276
  8
0
 10
18.355849162659648
 20
9.9603108542048631
 30
0.0
 11
18.356334499679569
 21
9.9607566741569826
 31
0.0
  0
LINE
  5
B277
  8
0
 10
18.355337899759839
 20
9.9598751260148202
 30
0.0
 11
18.355849162659648
 21
9.9603108542048631
 31
0.0
  0
LINE
  5
B278
  8
0
 10
18.35479081821018
 20
9.9594566703738021
 30
0.0
 11
18.355337899759839
 21
9.9598751260148202
 31
0.0
  0
LINE
  5
B279
  8
0
 10
18.354198025240731
 20
9.9590626680680998
 30
0.0
 11
18.35479081821018
 21
9.9594566703738021
 31
0.0
  0
LINE
  5
B27A
  8
0
 10
18.353549628081499
 20
9.9587002998844127
 30
0.0
 11
18.354198025240731
 21
9.9590626680680998
 31
0.0
  0
LINE
  5
B27B
  8
0
 10
18.352835733962561
 20
9.958376746608792
 30
0.0
 11
18.353549628081499
 21
9.9587002998844127
 31
0.0
  0
LINE
  5
B27C
  8
0
 10
18.352046450113939
 20
9.9580991890286441
 30
0.0
 11
18.352835733962561
 21
9.958376746608792
 31
0.0
  0
LINE
  5
B27D
  8
0
 10
18.35117188376568
 20
9.957874807929322
 30
0.0
 11
18.352046450113939
 21
9.9580991890286441
 31
0.0
  0
LINE
  5
B27E
  8
0
 10
18.35020682415707
 20
9.9577092291137816
 30
0.0
 11
18.35117188376568
 21
9.957874807929322
 31
0.0
  0
LINE
  5
B27F
  8
0
 10
18.349164788564291
 20
9.9576018584464236
 30
0.0
 11
18.35020682415707
 21
9.9577092291137816
 31
0.0
  0
LINE
  5
B280
  8
0
 10
18.348063976272751
 20
9.9575505468089887
 30
0.0
 11
18.349164788564291
 21
9.9576018584464236
 31
0.0
  0
LINE
  5
B281
  8
0
 10
18.346922586567889
 20
9.957553145082322
 30
0.0
 11
18.348063976272751
 21
9.9575505468089887
 31
0.0
  0
LINE
  5
B282
  8
0
 10
18.345758818735131
 20
9.9576075041479726
 30
0.0
 11
18.346922586567889
 21
9.957553145082322
 31
0.0
  0
LINE
  5
B283
  8
0
 10
18.344590872059879
 20
9.9577114748860822
 30
0.0
 11
18.345758818735131
 21
9.9576075041479726
 31
0.0
  0
LINE
  5
B284
  8
0
 10
18.343436945827591
 20
9.9578629081779582
 30
0.0
 11
18.344590872059879
 21
9.9577114748860822
 31
0.0
  0
LINE
  5
B285
  8
0
 10
18.342315239323639
 20
9.9580596549042184
 30
0.0
 11
18.343436945827591
 21
9.9578629081779582
 31
0.0
  0
LINE
  5
B286
  8
0
 10
18.341239172223169
 20
9.9582995777918697
 30
0.0
 11
18.342315239323639
 21
9.9580596549042184
 31
0.0
  0
LINE
  5
B287
  8
0
 10
18.34020304576002
 20
9.9585805869446542
 30
0.0
 11
18.341239172223169
 21
9.9582995777918697
 31
0.0
  0
LINE
  5
B288
  8
0
 10
18.339196381557748
 20
9.9589006043127029
 30
0.0
 11
18.34020304576002
 21
9.9585805869446542
 31
0.0
  0
LINE
  5
B289
  8
0
 10
18.3382087012399
 20
9.9592575518458943
 30
0.0
 11
18.339196381557748
 21
9.9589006043127029
 31
0.0
  0
LINE
  5
B28A
  8
0
 10
18.337229526430011
 20
9.9596493514941287
 30
0.0
 11
18.3382087012399
 21
9.9592575518458943
 31
0.0
  0
LINE
  5
B28B
  8
0
 10
18.336248378751641
 20
9.9600739252066361
 30
0.0
 11
18.337229526430011
 21
9.9596493514941287
 31
0.0
  0
LINE
  5
B28C
  8
0
 10
18.335254779828311
 20
9.9605291949337698
 30
0.0
 11
18.336248378751641
 21
9.9600739252066361
 31
0.0
  0
LINE
  5
B28D
  8
0
 10
18.334238251283569
 20
9.9610130826249588
 30
0.0
 11
18.335254779828311
 21
9.9605291949337698
 31
0.0
  0
LINE
  5
B28E
  8
0
 10
18.358148765463799
 20
9.9475262882936022
 30
0.0
 11
18.35673368289698
 21
9.9485943066213096
 31
0.0
  0
LINE
  5
B28F
  8
0
 10
18.359585295631671
 20
9.9463367030791687
 30
0.0
 11
18.358148765463799
 21
9.9475262882936022
 31
0.0
  0
LINE
  5
B290
  8
0
 10
18.361039345667731
 20
9.9450307896925096
 30
0.0
 11
18.359585295631671
 21
9.9463367030791687
 31
0.0
  0
LINE
  5
B291
  8
0
 10
18.362504010532259
 20
9.9436166187008421
 30
0.0
 11
18.361039345667731
 21
9.9450307896925096
 31
0.0
  0
LINE
  5
B292
  8
0
 10
18.363972385185502
 20
9.9421022606713905
 30
0.0
 11
18.362504010532259
 21
9.9436166187008421
 31
0.0
  0
LINE
  5
B293
  8
0
 10
18.365437564587779
 20
9.9404957861711338
 30
0.0
 11
18.363972385185502
 21
9.9421022606713905
 31
0.0
  0
LINE
  5
B294
  8
0
 10
18.36689264369933
 20
9.9388052657679964
 30
0.0
 11
18.365437564587779
 21
9.9404957861711338
 31
0.0
  0
LINE
  5
B295
  8
0
 10
18.368330717480461
 20
9.9370387700284937
 30
0.0
 11
18.36689264369933
 21
9.9388052657679964
 31
0.0
  0
LINE
  5
B296
  8
0
 10
18.369744880891432
 20
9.9352043695196244
 30
0.0
 11
18.368330717480461
 21
9.9370387700284937
 31
0.0
  0
LINE
  5
B297
  8
0
 10
18.371133767043311
 20
9.9333074815760938
 30
0.0
 11
18.369744880891432
 21
9.9352043695196244
 31
0.0
  0
LINE
  5
B298
  8
0
 10
18.372518161650209
 20
9.9313429105977704
 30
0.0
 11
18.371133767043311
 21
9.9333074815760938
 31
0.0
  0
LINE
  5
B299
  8
0
 10
18.37392438857702
 20
9.9293028077524923
 30
0.0
 11
18.372518161650209
 21
9.9313429105977704
 31
0.0
  0
LINE
  5
B29A
  8
0
 10
18.375378771688631
 20
9.9271793242076001
 30
0.0
 11
18.37392438857702
 21
9.9293028077524923
 31
0.0
  0
LINE
  5
B29B
  8
0
 10
18.376907634849921
 20
9.9249646111297736
 30
0.0
 11
18.375378771688631
 21
9.9271793242076001
 31
0.0
  0
LINE
  5
B29C
  8
0
 10
18.378537301925761
 20
9.9226508196868508
 30
0.0
 11
18.376907634849921
 21
9.9249646111297736
 31
0.0
  0
LINE
  5
B29D
  8
0
 10
18.38029409678105
 20
9.9202301010452558
 30
0.0
 11
18.378537301925761
 21
9.9226508196868508
 31
0.0
  0
LINE
  5
B29E
  8
0
 10
18.382204343280709
 20
9.9176946063735159
 30
0.0
 11
18.38029409678105
 21
9.9202301010452558
 31
0.0
  0
LINE
  5
B29F
  8
0
 10
18.38428313405818
 20
9.9150458916024036
 30
0.0
 11
18.382204343280709
 21
9.9176946063735159
 31
0.0
  0
LINE
  5
B2A0
  8
0
 10
18.38650063682131
 20
9.9123231317228147
 30
0.0
 11
18.38428313405818
 21
9.9150458916024036
 31
0.0
  0
LINE
  5
B2A1
  8
0
 10
18.388815788046511
 20
9.9095749064886078
 30
0.0
 11
18.38650063682131
 21
9.9123231317228147
 31
0.0
  0
LINE
  5
B2A2
  8
0
 10
18.391187524210221
 20
9.9068497956545798
 30
0.0
 11
18.388815788046511
 21
9.9095749064886078
 31
0.0
  0
LINE
  5
B2A3
  8
0
 10
18.388966033542658
 20
9.9368565222741836
 30
0.0
 11
18.391493017494909
 21
9.9338308020001023
 31
0.0
  0
LINE
  5
B2A4
  8
0
 10
18.386554857539391
 20
9.9396951867563441
 30
0.0
 11
18.388966033542658
 21
9.9368565222741836
 31
0.0
  0
LINE
  5
B2A5
  8
0
 10
18.38427770014157
 20
9.9423414198065458
 30
0.0
 11
18.386554857539391
 21
9.9396951867563441
 31
0.0
  0
LINE
  5
B2A6
  8
0
 10
18.38215277200559
 20
9.9447898457844985
 30
0.0
 11
18.38427770014157
 21
9.9423414198065458
 31
0.0
  0
LINE
  5
B2A7
  8
0
 10
18.380198283787891
 20
9.9470350890494501
 30
0.0
 11
18.38215277200559
 21
9.9447898457844985
 31
0.0
  0
LINE
  5
B2A8
  8
0
 10
18.378432446144881
 20
9.9490717739613501
 30
0.0
 11
18.380198283787891
 21
9.9470350890494501
 31
0.0
  0
LINE
  5
B2A9
  8
0
 10
18.376866021728009
 20
9.9508999095232866
 30
0.0
 11
18.378432446144881
 21
9.9490717739613501
 31
0.0
  0
LINE
  5
B2AA
  8
0
 10
18.375479981168859
 20
9.9525410433047838
 30
0.0
 11
18.376866021728009
 21
9.9508999095232866
 31
0.0
  0
LINE
  5
B2AB
  8
0
 10
18.37424784709405
 20
9.9540221075201316
 30
0.0
 11
18.375479981168859
 21
9.9525410433047838
 31
0.0
  0
LINE
  5
B2AC
  8
0
 10
18.3731431421302
 20
9.9553700343826677
 30
0.0
 11
18.37424784709405
 21
9.9540221075201316
 31
0.0
  0
LINE
  5
B2AD
  8
0
 10
18.372139388903921
 20
9.9566117561057581
 30
0.0
 11
18.3731431421302
 21
9.9553700343826677
 31
0.0
  0
LINE
  5
B2AE
  8
0
 10
18.371210110041819
 20
9.9577742049023072
 30
0.0
 11
18.372139388903921
 21
9.9566117561057581
 31
0.0
  0
LINE
  5
B2AF
  8
0
 10
18.370328828170511
 20
9.9588843129863562
 30
0.0
 11
18.371210110041819
 21
9.9577742049023072
 31
0.0
  0
LINE
  5
B2B0
  8
0
 10
18.369469065916611
 20
9.9599690125712641
 30
0.0
 11
18.370328828170511
 21
9.9588843129863562
 31
0.0
  0
LINE
  5
B2B1
  8
0
 10
18.36861026782875
 20
9.9610465034156661
 30
0.0
 11
18.369469065916611
 21
9.9599690125712641
 31
0.0
  0
LINE
  5
B2B2
  8
0
 10
18.374350859471392
 20
9.9289634453716644
 30
0.0
 11
18.374350859471392
 21
9.9289634453716644
 31
0.0
  0
LINE
  5
B2B3
  8
0
 10
18.332119580040331
 20
9.9620511639525304
 30
0.0
 11
18.33319145076802
 21
9.9615226057619495
 31
0.0
  0
LINE
  5
B2B4
  8
0
 10
18.331030976886201
 20
9.9625912523374538
 30
0.0
 11
18.332119580040331
 21
9.9620511639525304
 31
0.0
  0
LINE
  5
B2B5
  8
0
 10
18.329933979091361
 20
9.9631353660558943
 30
0.0
 11
18.331030976886201
 21
9.9625912523374538
 31
0.0
  0
LINE
  5
B2B6
  8
0
 10
18.328836924441511
 20
9.9636760002488245
 30
0.0
 11
18.329933979091361
 21
9.9631353660558943
 31
0.0
  0
LINE
  5
B2B7
  8
0
 10
18.327748150722389
 20
9.9642056500554101
 30
0.0
 11
18.328836924441511
 21
9.9636760002488245
 31
0.0
  0
LINE
  5
B2B8
  8
0
 10
18.32667599571969
 20
9.9647168106162098
 30
0.0
 11
18.327748150722389
 21
9.9642056500554101
 31
0.0
  0
LINE
  5
B2B9
  8
0
 10
18.325628797219139
 20
9.9652019770710467
 30
0.0
 11
18.32667599571969
 21
9.9647168106162098
 31
0.0
  0
LINE
  5
B2BA
  8
0
 10
18.324612698403449
 20
9.9656547049062283
 30
0.0
 11
18.325628797219139
 21
9.9652019770710467
 31
0.0
  0
LINE
  5
B2BB
  8
0
 10
18.323625064043391
 20
9.9660727909895286
 30
0.0
 11
18.324612698403449
 21
9.9656547049062283
 31
0.0
  0
LINE
  5
B2BC
  8
0
 10
18.322661064306718
 20
9.9664550925360782
 30
0.0
 11
18.323625064043391
 21
9.9660727909895286
 31
0.0
  0
LINE
  5
B2BD
  8
0
 10
18.321715869361238
 20
9.9668004667603327
 30
0.0
 11
18.322661064306718
 21
9.9664550925360782
 31
0.0
  0
LINE
  5
B2BE
  8
0
 10
18.320784649374691
 20
9.9671077708767282
 30
0.0
 11
18.321715869361238
 21
9.9668004667603327
 31
0.0
  0
LINE
  5
B2BF
  8
0
 10
18.31986257451485
 20
9.9673758620999706
 30
0.0
 11
18.320784649374691
 21
9.9671077708767282
 31
0.0
  0
LINE
  5
B2C0
  8
0
 10
18.318944814949479
 20
9.9676035976440218
 30
0.0
 11
18.31986257451485
 21
9.9673758620999706
 31
0.0
  0
LINE
  5
B2C1
  8
0
 10
18.318026540846379
 20
9.9677898347240443
 30
0.0
 11
18.318944814949479
 21
9.9676035976440218
 31
0.0
  0
LINE
  5
B2C2
  8
0
 10
18.31710392965438
 20
9.9679337759482678
 30
0.0
 11
18.318026540846379
 21
9.9677898347240443
 31
0.0
  0
LINE
  5
B2C3
  8
0
 10
18.316177187946629
 20
9.9680360055019719
 30
0.0
 11
18.31710392965438
 21
9.9679337759482678
 31
0.0
  0
LINE
  5
B2C4
  8
0
 10
18.315247529577409
 20
9.9680974529644573
 30
0.0
 11
18.316177187946629
 21
9.9680360055019719
 31
0.0
  0
LINE
  5
B2C5
  8
0
 10
18.314316168400939
 20
9.9681190479145698
 30
0.0
 11
18.315247529577409
 21
9.9680974529644573
 31
0.0
  0
LINE
  5
B2C6
  8
0
 10
18.313384318271481
 20
9.9681017199320632
 30
0.0
 11
18.314316168400939
 21
9.9681190479145698
 31
0.0
  0
LINE
  5
B2C7
  8
0
 10
18.312453193043261
 20
9.9680463985960142
 30
0.0
 11
18.313384318271481
 21
9.9681017199320632
 31
0.0
  0
LINE
  5
B2C8
  8
0
 10
18.311524006570551
 20
9.9679540134852616
 30
0.0
 11
18.312453193043261
 21
9.9680463985960142
 31
0.0
  0
LINE
  5
B2C9
  8
0
 10
18.310597972707551
 20
9.9678254941798041
 30
0.0
 11
18.311524006570551
 21
9.9679540134852616
 31
0.0
  0
LINE
  5
B2CA
  8
0
 10
18.308193506541851
 20
9.9674441563254277
 30
0.0
 11
18.30838417546903
 21
9.9615363305588218
 31
0.0
  0
LINE
  5
B2CB
  8
0
 10
18.310597972707551
 20
9.9678254941798041
 30
0.0
 11
18.308193506541851
 21
9.9674441563254277
 31
0.0
  0
LINE
  5
B2CC
  8
0
 10
18.391934200211331
 20
9.9747716803376463
 30
0.0
 11
18.392450453795639
 21
9.9731222689415446
 31
0.0
  0
LINE
  5
B2CD
  8
0
 10
18.391463687895701
 20
9.9765015671425701
 30
0.0
 11
18.391934200211331
 21
9.9747716803376463
 31
0.0
  0
LINE
  5
B2CE
  8
0
 10
18.391044032377351
 20
9.9783012832585882
 30
0.0
 11
18.391463687895701
 21
9.9765015671425701
 31
0.0
  0
LINE
  5
B2CF
  8
0
 10
18.39068034918489
 20
9.9801601825868147
 30
0.0
 11
18.391044032377351
 21
9.9783012832585882
 31
0.0
  0
LINE
  5
B2D0
  8
0
 10
18.390377753846909
 20
9.98206761902793
 30
0.0
 11
18.39068034918489
 21
9.9801601825868147
 31
0.0
  0
LINE
  5
B2D1
  8
0
 10
18.390141361892031
 20
9.9840129464839702
 30
0.0
 11
18.390377753846909
 21
9.98206761902793
 31
0.0
  0
LINE
  5
B2D2
  8
0
 10
18.389973595106341
 20
9.98598672749835
 30
0.0
 11
18.390141361892031
 21
9.9840129464839702
 31
0.0
  0
LINE
  5
B2D3
  8
0
 10
18.389866100305881
 20
9.9879843591847859
 30
0.0
 11
18.389973595106341
 21
9.98598672749835
 31
0.0
  0
LINE
  5
B2D4
  8
0
 10
18.389807830564219
 20
9.9900024473006397
 30
0.0
 11
18.389866100305881
 21
9.9879843591847859
 31
0.0
  0
LINE
  5
B2D5
  8
0
 10
18.38978773895488
 20
9.9920375976012021
 30
0.0
 11
18.389807830564219
 21
9.9900024473006397
 31
0.0
  0
LINE
  5
B2D6
  8
0
 10
18.366914015019951
 20
9.9631042061998851
 30
0.0
 11
18.367755566143622
 21
9.9621000554620807
 31
0.0
  0
LINE
  5
B2D7
  8
0
 10
18.366094668616409
 20
9.9640334931163963
 30
0.0
 11
18.366914015019951
 21
9.9631042061998851
 31
0.0
  0
LINE
  5
B2D8
  8
0
 10
18.365306581091751
 20
9.9648624537000998
 30
0.0
 11
18.366094668616409
 21
9.9640334931163963
 31
0.0
  0
LINE
  5
B2D9
  8
0
 10
18.364558806604659
 20
9.9655656254396945
 30
0.0
 11
18.365306581091751
 21
9.9648624537000998
 31
0.0
  0
LINE
  5
B2DA
  8
0
 10
18.363860399313861
 20
9.966117545823856
 30
0.0
 11
18.364558806604659
 21
9.9655656254396945
 31
0.0
  0
LINE
  5
B2DB
  8
0
 10
18.363220413378059
 20
9.9664927523404003
 30
0.0
 11
18.363860399313861
 21
9.966117545823856
 31
0.0
  0
LINE
  5
B2DC
  8
0
 10
18.362644796304021
 20
9.9666744211210698
 30
0.0
 11
18.363220413378059
 21
9.9664927523404003
 31
0.0
  0
LINE
  5
B2DD
  8
0
 10
18.362127068990741
 20
9.9666802828714864
 30
0.0
 11
18.362644796304021
 21
9.9666744211210698
 31
0.0
  0
LINE
  5
B2DE
  8
0
 10
18.361657645685248
 20
9.9665367069403601
 30
0.0
 11
18.362127068990741
 21
9.9666802828714864
 31
0.0
  0
LINE
  5
B2DF
  8
0
 10
18.361226940634602
 20
9.9662700626774878
 30
0.0
 11
18.361657645685248
 21
9.9665367069403601
 31
0.0
  0
LINE
  5
B2E0
  8
0
 10
18.36082536808582
 20
9.9659067194304498
 30
0.0
 11
18.361226940634602
 21
9.9662700626774878
 31
0.0
  0
LINE
  5
B2E1
  8
0
 10
18.360443342285969
 20
9.9654730465488157
 30
0.0
 11
18.36082536808582
 21
9.9659067194304498
 31
0.0
  0
LINE
  5
B2E2
  8
0
 10
18.360071277482049
 20
9.9649954133813026
 30
0.0
 11
18.360443342285969
 21
9.9654730465488157
 31
0.0
  0
LINE
  5
B2E3
  8
0
 10
18.359699587921138
 20
9.9645001892767961
 30
0.0
 11
18.360071277482049
 21
9.9649954133813026
 31
0.0
  0
LINE
  5
B2E4
  8
0
 10
18.35932014333827
 20
9.9640092264544364
 30
0.0
 11
18.359699587921138
 21
9.9645001892767961
 31
0.0
  0
LINE
  5
B2E5
  8
0
 10
18.358930635420439
 20
9.9635263086149664
 30
0.0
 11
18.35932014333827
 21
9.9640092264544364
 31
0.0
  0
LINE
  5
B2E6
  8
0
 10
18.358530211342661
 20
9.9630507023282462
 30
0.0
 11
18.358930635420439
 21
9.9635263086149664
 31
0.0
  0
LINE
  5
B2E7
  8
0
 10
18.358118018279921
 20
9.9625816741647668
 30
0.0
 11
18.358530211342661
 21
9.9630507023282462
 31
0.0
  0
LINE
  5
B2E8
  8
0
 10
18.357693203407251
 20
9.9621184906957296
 30
0.0
 11
18.358118018279921
 21
9.9625816741647668
 31
0.0
  0
LINE
  5
B2E9
  8
0
 10
18.357254913899631
 20
9.9616604184911921
 30
0.0
 11
18.357693203407251
 21
9.9621184906957296
 31
0.0
  0
LINE
  5
B2EA
  8
0
 10
18.373140291799562
 20
9.8193060438084103
 30
0.0
 11
18.353483926443779
 21
9.8095207980259076
 31
0.0
  0
LINE
  5
B2EB
  8
0
 10
18.334840580731662
 20
9.8682191733266702
 30
0.0
 11
18.362604014212689
 21
9.8498450928934744
 31
0.0
  0
ARC
  5
B2EC
  8
0
 10
18.336149064438061
 20
9.7938262709897117
 30
0.0
 40
0.0500207558816598
 50
274.18491599999982
 51
341.56505100000112
  0
LINE
  5
B2ED
  8
0
 10
18.333328328706141
 20
9.7434663864055437
 30
0.0
 11
18.33979942832643
 21
9.7439394200034641
 31
0.0
  0
LINE
  5
B2EE
  8
0
 10
18.326778632734211
 20
9.7432014875903405
 30
0.0
 11
18.333328328706141
 21
9.7434663864055437
 31
0.0
  0
LINE
  5
B2EF
  8
0
 10
18.32033227640984
 20
9.7439394200034641
 30
0.0
 11
18.326778632734211
 21
9.7432014875903405
 31
0.0
  0
LINE
  5
B2F0
  8
0
 10
18.338914491626209
 20
9.8032854874609257
 30
0.0
 11
18.319131498814979
 21
9.8007296505440902
 31
0.0
  0
LINE
  5
B2F1
  8
0
 10
18.350476888248672
 20
9.8005986566245156
 30
0.0
 11
18.338914491626209
 21
9.8032854874609257
 31
0.0
  0
LINE
  5
B2F2
  8
0
 10
18.353483926443779
 20
9.8095207980259076
 30
0.0
 11
18.350476888248672
 21
9.8005986566245156
 31
0.0
  0
LINE
  5
B2F3
  8
0
 10
18.383132216876739
 20
9.8351926952605027
 30
0.0
 11
18.373140291799562
 21
9.8193060438084103
 31
0.0
  0
LINE
  5
B2F4
  8
0
 10
18.362604014212689
 20
9.8498450928934744
 30
0.0
 11
18.383132216876739
 21
9.8351926952605027
 31
0.0
  0
LINE
  5
B2F5
  8
0
 10
18.393574781788871
 20
9.9041963789752501
 30
0.0
 11
18.391187524210221
 21
9.9068497956545798
 31
0.0
  0
LINE
  5
B2F6
  8
0
 10
18.391493017494909
 20
9.9338308020001023
 30
0.0
 11
18.394117598739751
 21
9.9306234015741666
 31
0.0
  0
LINE
  5
B2F7
  8
0
 10
18.392450453795639
 20
9.9731222689415446
 30
0.0
 11
18.393007333120021
 21
9.9715639790538262
 31
0.0
  0
LINE
  5
B2F8
  8
0
 10
18.43734433467473
 20
9.8452979144352621
 30
0.0
 11
18.326090100068811
 21
9.9565521490411726
 31
0.0
  0
LINE
  5
B2F9
  8
0
 10
18.401980786395971
 20
9.9598232211901561
 30
0.0
 11
18.399176061031991
 21
9.9621578239321025
 31
0.0
  0
LINE
  5
B2FA
  8
0
 10
18.396821566620751
 20
9.9272396966366543
 30
0.0
 11
18.399583528022859
 21
9.9236968526595302
 31
0.0
  0
LINE
  5
B2FB
  8
0
 10
18.400419047778669
 20
9.8971520914108169
 30
0.0
 11
18.398231607096658
 21
9.8992989470987141
 31
0.0
  0
ARC
  5
B2FC
  8
0
 10
18.435089637603841
 20
9.8065255166948102
 30
0.0
 40
0.0387421580429976
 50
90.005767445201499
 51
152.781041066928
  0
ARC
  5
B2FD
  8
0
 10
16.080259113144599
 20
10.6528669288125
 30
0.0
 40
2.4638937404821539
 50
339.2022019999992
 51
340.34807899999799
  0
ARC
  5
B2FE
  8
0
 10
-18.516945416559349
 20
9.2654448310777298
 30
0.0
 40
0.1729163401230494
210
0.0
220
0.0
230
-1.0
 50
72.122851000000537
 51
101.5174889999993
  0
ARC
  5
B2FF
  8
0
 10
-18.517402439789372
 20
9.2608818762168923
 30
0.0
 40
0.1482108869169128
210
0.0
220
0.0
230
-1.0
 50
77.675272999999422
 51
96.599917000000019
  0
ARC
  5
B300
  8
0
 10
-18.51050633767494
 20
9.2868390490980346
 30
0.0
 40
0.121386243191857
210
0.0
220
0.0
230
-1.0
 50
57.000210000000273
 51
78.239519999999928
  0
ARC
  5
B301
  8
0
 10
-19.448137525209159
 20
9.3795172471006936
 30
0.0
 40
0.064169554669032
210
0.0
220
0.0
230
-1.0
 50
21.700536999999041
 51
42.310230000000203
  0
ARC
  5
B302
  8
0
 10
19.215758678588919
 20
9.3326709105335723
 30
0.0
 40
0.1633377736360938
 50
24.655898999999469
 51
33.453308999999557
  0
LINE
  5
B303
  8
0
 10
19.352036019444959
 20
9.4227117642917602
 30
0.0
 11
19.400684250148501
 21
9.4227117642917602
 31
0.0
  0
ARC
  5
B304
  8
0
 10
19.085192672620401
 20
9.41767140936917
 30
0.0
 40
0.0546404747738644
 50
174.70655800000009
 51
204.8639990000004
  0
LINE
  5
B305
  8
0
 10
18.950478525869642
 20
9.4227117642917602
 30
0.0
 11
19.030786531413529
 21
9.4227117642917602
 31
0.0
  0
ARC
  5
B306
  8
0
 10
18.49180254477529
 20
10.02111491287428
 30
0.0
 40
0.1632461015583798
 50
3.9409786127344719
 51
23.630412125361509
  0
LINE
  5
B307
  8
0
 10
18.429303459235459
 20
10.224342427701931
 30
0.0
 11
18.43571767003203
 21
10.2307566384985
 31
0.0
  0
LINE
  5
B308
  8
0
 10
18.536805746059311
 20
10.10557054454608
 30
0.0
 11
18.579178096071139
 21
10.147942894557911
 31
0.0
  0
LINE
  5
B309
  8
0
 10
18.455535984149002
 20
10.13743786762562
 30
0.0
 11
18.502989896127641
 21
10.184891779604261
 31
0.0
  0
LINE
  5
B30A
  8
0
 10
18.502572763729528
 20
10.12790610471122
 30
0.0
 11
18.542972858108641
 21
10.168306199090329
 31
0.0
  0
LINE
  5
B30B
  8
0
 10
18.40724104397648
 20
10.14571146994802
 30
0.0
 11
18.449919434011989
 21
10.188389859983531
 31
0.0
  0
LINE
  5
B30C
  8
0
 10
18.428461306240742
 20
10.25016074033371
 30
0.0
 11
18.420550098692541
 21
10.258071947881909
 31
0.0
  0
ARC
  5
B30D
  8
0
 10
-18.382387007023929
 20
10.22212981193819
 30
0.0
 40
0.0469685975587384
210
0.0
220
0.0
230
-1.0
 50
143.42696899999839
 51
196.55707099999719
  0
ARC
  5
B30E
  8
0
 10
18.353792489898449
 20
10.21117872027321
 30
0.0
 40
0.084232001175064
 50
351.69432399999738
 51
35.297143000000069
  0
ARC
  5
B30F
  8
0
 10
18.49572952139949
 20
10.245010445788459
 30
0.0
 40
0.0553123603852414
 50
182.67315462523041
 51
254.49653585089101
  0
LINE
  5
B310
  8
0
 10
18.419148267282399
 20
10.20585600067988
 30
0.0
 11
18.417673857944731
 21
10.208745144347629
 31
0.0
  0
LINE
  5
B311
  8
0
 10
18.426482471282981
 20
10.205634766504771
 30
0.0
 11
18.419148267282399
 21
10.20585600067988
 31
0.0
  0
LINE
  5
B312
  8
0
 10
18.427406706159012
 20
10.208745144347629
 30
0.0
 11
18.426482471282981
 21
10.205634766504771
 31
0.0
  0
ARC
  5
B313
  8
0
 10
-18.462587306456271
 20
10.216628067321819
 30
0.0
 40
0.0309494966993808
210
0.0
220
0.0
230
-1.0
 50
233.6197979999985
 51
325.30484599999869
  0
ARC
  5
B314
  8
0
 10
18.426189918196229
 20
10.253766298970501
 30
0.0
 40
0.0070955039695956
 50
120.9637570000009
 51
210.96375700000019
  0
ARC
  5
B315
  8
0
 10
18.140791320837319
 20
10.243774628158221
 30
0.0
 40
0.2996890421519972
 50
359.74307375487308
 51
5.3925213306160691
  0
LINE
  5
B316
  8
0
 10
18.54166979110941
 20
10.102775429985741
 30
0.0
 11
18.526880577604761
 21
10.111274024381361
 31
0.0
  0
LINE
  5
B317
  8
0
 10
18.517198671470251
 20
10.03235164340731
 30
0.0
 11
18.531765195311841
 21
10.02218797074692
 31
0.0
  0
LINE
  5
B318
  8
0
 10
18.421544000520139
 20
10.064954574467709
 30
0.0
 11
18.432810933079871
 21
10.066689516156201
 31
0.0
  0
LINE
  5
B319
  8
0
 10
18.40862654457548
 20
10.075774672213569
 30
0.0
 11
18.420382521101121
 21
10.075313282519559
 31
0.0
  0
LINE
  5
B31A
  8
0
 10
18.50016509547924
 20
10.129553498094751
 30
0.0
 11
18.441373568947171
 21
10.139939860418499
 31
0.0
  0
LINE
  5
B31B
  8
0
 10
18.526880577604761
 20
10.111274024381361
 30
0.0
 11
18.50016509547924
 21
10.129553498094751
 31
0.0
  0
LINE
  5
B31C
  8
0
 10
18.420382521101121
 20
10.075313282519559
 30
0.0
 11
18.421544000520139
 21
10.064954574467709
 31
0.0
  0
LINE
  5
B31D
  8
0
 10
18.50337153552951
 20
10.040746898155691
 30
0.0
 11
18.517198671470251
 21
10.03235164340731
 31
0.0
  0
LINE
  5
B31E
  8
0
 10
18.47879707624282
 20
10.053537726644651
 30
0.0
 11
18.50337153552951
 21
10.040746898155691
 31
0.0
  0
LINE
  5
B31F
  8
0
 10
18.448209996053869
 20
10.065386854402041
 30
0.0
 11
18.47879707624282
 21
10.053537726644651
 31
0.0
  0
LINE
  5
B320
  8
0
 10
18.432810933079871
 20
10.066689516156201
 30
0.0
 11
18.448209996053869
 21
10.065386854402041
 31
0.0
  0
LINE
  5
B321
  8
0
 10
18.561378554032949
 20
10.03529027366676
 30
0.0
 11
18.561132576561999
 21
10.058864812702041
 31
0.0
  0
LINE
  5
B322
  8
0
 10
18.54925579453289
 20
10.022160316475031
 30
0.0
 11
18.561378554032949
 21
10.03529027366676
 31
0.0
  0
LINE
  5
B323
  8
0
 10
18.539349743247339
 20
10.0137475958711
 30
0.0
 11
18.54925579453289
 21
10.022160316475031
 31
0.0
  0
LINE
  5
B324
  8
0
 10
18.531765195311841
 20
10.02218797074692
 30
0.0
 11
18.539349743247339
 21
10.0137475958711
 31
0.0
  0
LINE
  5
B325
  8
0
 10
18.56575811740618
 20
10.08083977043156
 30
0.0
 11
18.54166979110941
 21
10.102775429985741
 31
0.0
  0
LINE
  5
B326
  8
0
 10
18.561132576561999
 20
10.058864812702041
 30
0.0
 11
18.56575811740618
 21
10.08083977043156
 31
0.0
  0
LINE
  5
B327
  8
0
 10
18.330640072088279
 20
10.178276347001381
 30
0.0
 11
18.31566183476891
 21
10.19325458432076
 31
0.0
  0
LINE
  5
B328
  8
0
 10
18.317581404101631
 20
10.17598065412016
 30
0.0
 11
18.31503430011254
 21
10.198901679045539
 31
0.0
  0
LINE
  5
B329
  8
0
 10
18.336814222451199
 20
10.17936175272961
 30
0.0
 11
18.317581404101631
 21
10.17598065412016
 31
0.0
  0
LINE
  5
B32A
  8
0
 10
18.3546701491587
 20
10.165891211347111
 30
0.0
 11
18.336814222451199
 21
10.17936175272961
 31
0.0
  0
LINE
  5
B32B
  8
0
 10
18.35121190968551
 20
10.05054815430548
 30
0.0
 11
18.364107533310261
 21
10.062065430800191
 31
0.0
  0
LINE
  5
B32C
  8
0
 10
18.339636413671109
 20
10.02657335607204
 30
0.0
 11
18.35121190968551
 21
10.05054815430548
 31
0.0
  0
LINE
  5
B32D
  8
0
 10
18.333041597571381
 20
10.009926939887229
 30
0.0
 11
18.339636413671109
 21
10.02657335607204
 31
0.0
  0
LINE
  5
B32E
  8
0
 10
18.390153591876281
 20
10.00924349162096
 30
0.0
 11
18.390009306679271
 21
10.00785080755486
 31
0.0
  0
LINE
  5
B32F
  8
0
 10
18.390381922976669
 20
10.01030292579116
 30
0.0
 11
18.390153591876281
 21
10.00924349162096
 31
0.0
  0
LINE
  5
B330
  8
0
 10
18.39071452046111
 20
10.010962441893289
 30
0.0
 11
18.390381922976669
 21
10.01030292579116
 31
0.0
  0
LINE
  5
B331
  8
0
 10
18.391171604810289
 20
10.011155371754271
 30
0.0
 11
18.39071452046111
 21
10.010962441893289
 31
0.0
  0
LINE
  5
B332
  8
0
 10
18.391767889150529
 20
10.010840759875229
 30
0.0
 11
18.391171604810289
 21
10.011155371754271
 31
0.0
  0
LINE
  5
B333
  8
0
 10
18.392496057190939
 20
10.010080501451499
 30
0.0
 11
18.391767889150529
 21
10.010840759875229
 31
0.0
  0
LINE
  5
B334
  8
0
 10
18.377356840517489
 20
10.062551563790061
 30
0.0
 11
18.389727032976481
 21
10.06941418968062
 31
0.0
  0
LINE
  5
B335
  8
0
 10
18.364107533310261
 20
10.062065430800191
 30
0.0
 11
18.377356840517489
 21
10.062551563790061
 31
0.0
  0
LINE
  5
B336
  8
0
 10
18.39334328528636
 20
10.00896220435242
 30
0.0
 11
18.392496057190939
 21
10.010080501451499
 31
0.0
  0
LINE
  5
B337
  8
0
 10
18.389727032976481
 20
10.06941418968062
 30
0.0
 11
18.396924421105641
 21
10.0769201412645
 31
0.0
  0
LINE
  5
B338
  8
0
 10
18.394505400059991
 20
10.147864992544321
 30
0.0
 11
18.3546701491587
 21
10.165891211347111
 31
0.0
  0
LINE
  5
B339
  8
0
 10
18.325821789732029
 20
10.17742930069342
 30
0.0
 11
18.401746004082352
 21
10.25335351504374
 31
0.0
  0
LINE
  5
B33A
  8
0
 10
18.365810857592461
 20
10.16084982605892
 30
0.0
 11
18.416350933412829
 21
10.21138990187931
 31
0.0
  0
ARC
  5
B33B
  8
0
 10
-18.5816942554499
 20
10.292458991797041
 30
0.0
 40
0.18414834097092
210
0.0
220
0.0
230
-1.0
 50
332.96088100000031
 51
352.04385489126952
  0
LINE
  5
B33C
  8
0
 10
18.396924421105641
 20
10.0769201412645
 30
0.0
 11
18.40862654457548
 21
10.075774672213569
 31
0.0
  0
LINE
  5
B33D
  8
0
 10
18.441373568947171
 20
10.139939860418499
 30
0.0
 11
18.394505400059991
 21
10.147864992544321
 31
0.0
  0
LINE
  5
B33E
  8
0
 10
18.40157033878172
 20
9.9983044437399258
 30
0.0
 11
18.40021378606821
 21
9.9996191928673781
 31
0.0
  0
LINE
  5
B33F
  8
0
 10
18.40300330461492
 20
9.9970870303723061
 30
0.0
 11
18.40157033878172
 21
9.9983044437399258
 31
0.0
  0
LINE
  5
B340
  8
0
 10
18.40452983103571
 20
9.9959318163741955
 30
0.0
 11
18.40300330461492
 21
9.9970870303723061
 31
0.0
  0
LINE
  5
B341
  8
0
 10
18.40616706551203
 20
9.9948036653559011
 30
0.0
 11
18.40452983103571
 21
9.9959318163741955
 31
0.0
  0
LINE
  5
B342
  8
0
 10
18.395343627061369
 20
10.006001925604309
 30
0.0
 11
18.394296749791561
 21
10.007573476446851
 31
0.0
  0
LINE
  5
B343
  8
0
 10
18.396471093450572
 20
10.004335159693481
 30
0.0
 11
18.395343627061369
 21
10.006001925604309
 31
0.0
  0
LINE
  5
B344
  8
0
 10
18.397666325313999
 20
10.002660786583871
 30
0.0
 11
18.396471093450572
 21
10.004335159693481
 31
0.0
  0
LINE
  5
B345
  8
0
 10
18.39891649900644
 20
10.001066414143899
 30
0.0
 11
18.397666325313999
 21
10.002660786583871
 31
0.0
  0
LINE
  5
B346
  8
0
 10
18.314204671956102
 20
10.002141534608651
 30
0.0
 11
18.328037629848819
 21
9.9999786794501162
 31
0.0
  0
LINE
  5
B347
  8
0
 10
18.389817902427421
 20
9.9961455077859682
 30
0.0
 11
18.38979477855144
 21
9.9940864158445422
 31
0.0
  0
LINE
  5
B348
  8
0
 10
18.389846063656389
 20
9.9982114791823662
 30
0.0
 11
18.389817902427421
 21
9.9961455077859682
 31
0.0
  0
LINE
  5
B349
  8
0
 10
18.389868215311878
 20
10.000280935790199
 30
0.0
 11
18.389846063656389
 21
9.9982114791823662
 31
0.0
  0
LINE
  5
B34A
  8
0
 10
18.389878521701959
 20
10.002339937710969
 30
0.0
 11
18.389868215311878
 21
10.000280935790199
 31
0.0
  0
LINE
  5
B34B
  8
0
 10
18.389891992072769
 20
10.00433236242724
 30
0.0
 11
18.389878521701959
 21
10.002339937710969
 31
0.0
  0
LINE
  5
B34C
  8
0
 10
18.38992884690499
 20
10.00619154176615
 30
0.0
 11
18.389891992072769
 21
10.00433236242724
 31
0.0
  0
LINE
  5
B34D
  8
0
 10
18.40021378606821
 20
9.9996191928673781
 30
0.0
 11
18.39891649900644
 21
10.001066414143899
 31
0.0
  0
LINE
  5
B34E
  8
0
 10
18.389922217536601
 20
10.005857116563231
 30
0.0
 11
18.349264530163548
 21
10.04651480393629
 31
0.0
  0
LINE
  5
B34F
  8
0
 10
18.394296749791561
 20
10.007573476446851
 30
0.0
 11
18.39334328528636
 21
10.00896220435242
 31
0.0
  0
LINE
  5
B350
  8
0
 10
18.328037629848819
 20
9.9999786794501162
 30
0.0
 11
18.333041597571381
 21
10.009926939887229
 31
0.0
  0
LINE
  5
B351
  8
0
 10
18.390009306679271
 20
10.00785080755486
 30
0.0
 11
18.38992884690499
 21
10.00619154176615
 31
0.0
  0
LINE
  5
B352
  8
0
 10
18.564988839572891
 20
10.07718509556473
 30
0.0
 11
18.611951573690511
 21
10.12414782968235
 31
0.0
  0
ARC
  5
B353
  8
0
 10
18.386741827101272
 20
9.8481654597485431
 30
0.0
 40
0.3562277754975556
 50
51.07805153336394
 51
74.69865720946278
  0
ARC
  5
B354
  8
0
 10
18.36660857780938
 20
10.26378777154514
 30
0.0
 40
0.032864329862301
 50
5.556756111201695
 51
42.59127294653382
  0
ARC
  5
B355
  8
0
 10
18.336219097260731
 20
10.266433678353669
 30
0.0
 40
0.103082026182291
 50
3.061415527924586
 51
61.359892000001032
  0
LINE
  5
B356
  8
0
 10
18.629637868533891
 20
10.10555272053549
 30
0.0
 11
18.607247884779511
 21
10.127942704289859
 31
0.0
  0
ARC
  5
B357
  8
0
 10
18.537412633640031
 20
10.03554339005427
 30
0.0
 40
0.1157877381489796
 50
26.136799622363959
 51
50.830632613623422
  0
LINE
  5
B358
  8
0
 10
18.65524714894579
 20
10.023374897628671
 30
0.0
 11
18.48931627851784
 21
10.189305768056609
 31
0.0
  0
ARC
  5
B359
  8
0
 10
19.566024775264012
 20
9.4323529167625022
 30
0.0
 40
0.2922779995155818
 50
347.02738699999958
 51
358.1097970000003
  0
ARC
  5
B35A
  8
0
 10
-19.809297949517578
 20
9.3550941585656346
 30
0.0
 40
0.0431450305991226
210
0.0
220
0.0
230
-1.0
 50
117.0812150000009
 51
164.3399709999982
  0
LINE
  5
B35B
  8
0
 10
19.670760235807219
 20
8.7165803086297728
 30
0.0
 11
19.670760235807219
 21
9.3935103086728304
 31
0.0
  0
LINE
  5
B35C
  8
0
 10
19.619656596858199
 20
9.3935103086728304
 30
0.0
 11
19.619656596858199
 21
8.7194199657053542
 31
0.0
  0
CIRCLE
  5
B35D
  8
0
 10
19.813911300356668
 20
8.6968897898796058
 30
0.0
 40
0.03125
  0
TEXT
  5
B35E
  8
0
 10
19.803494300356672
 20
8.6812642898796053
 30
0.0
 40
0.031251
  1
R
 72
     1
 11
19.813911300356668
 21
8.6968897898796058
 31
0.0
 73
     2
  0
ARC
  5
B35F
  8
0
 10
-19.757556806827299
 20
8.7165803086297728
 30
0.0
 40
0.086843146635875
210
0.0
220
0.0
230
-1.0
 50
326.23571499999832
 51
0.0
  0
ARC
  5
B360
  8
0
 10
19.444846666855259
 20
8.7417267746977743
 30
0.0
 40
0.176226119820867
 50
335.38143000000059
 51
352.72777799999682
  0
LINE
  5
B361
  8
0
 10
19.605055141304771
 20
8.6683148712684144
 30
0.0
 11
19.685361691360651
 21
8.6683148712684144
 31
0.0
  0
LINE
  5
B362
  8
0
 10
19.670760235807219
 20
9.3935103086728304
 30
0.0
 11
19.828939759993428
 21
9.3935103086728304
 31
0.0
  0
TEXT
  5
B363
  8
0
 10
18.554741883466608
 20
12.634410483437019
 30
0.0
 40
0.25
  1
021203
 72
     2
 11
19.864265692990429
 21
12.634410483437019
 31
0.0
  0
LINE
  5
B364
  8
0
 10
17.71710946770957
 20
10.622101323895331
 30
0.0
 11
17.673174475825441
 21
10.66603631577947
 31
0.0
  0
LINE
  5
B365
  8
0
 10
17.662820197682471
 20
10.64579855854233
 30
0.0
 11
17.797098473038432
 21
10.78007683389829
 31
0.0
  0
ARC
  5
B366
  8
0
 10
17.829256482775289
 20
10.65041429251005
 30
0.0
 40
0.1510058064112368
 50
97.267335394170019
 51
159.71996028223811
  0
LINE
  5
B367
  8
0
 10
17.875895200680951
 20
10.632599391561129
 30
0.0
 11
17.949405524058019
 21
10.70610971493819
 31
0.0
  0
LINE
  5
B368
  8
0
 10
17.876147562265121
 20
10.63276885682455
 30
0.0
 11
17.850874999455129
 21
10.65804141963455
 31
0.0
  0
LINE
  5
B369
  8
0
 10
17.849169239798719
 20
10.66244197317382
 30
0.0
 11
17.92807390592899
 21
10.741346639304091
 31
0.0
  0
LINE
  5
B36A
  8
0
 10
17.834299722116459
 20
10.674616696973221
 30
0.0
 11
17.824290532703468
 21
10.68462588638622
 31
0.0
  0
LINE
  5
B36B
  8
0
 10
17.901373872492051
 20
10.6015095208773
 30
0.0
 11
17.964826580343949
 21
10.664962228729189
 31
0.0
  0
LINE
  5
B36C
  8
0
 10
17.816102714492072
 20
10.62937544786717
 30
0.0
 11
17.835910783031348
 21
10.649183516406451
 31
0.0
  0
LINE
  5
B36D
  8
0
 10
17.824051256940589
 20
10.693892532810599
 30
0.0
 11
17.883493708333219
 21
10.75333498420323
 31
0.0
  0
LINE
  5
B36E
  8
0
 10
17.967328555519401
 20
10.65472494856013
 30
0.0
 11
17.8545324013513
 21
10.76752110272821
 31
0.0
  0
ARC
  5
B36F
  8
0
 10
-17.896895887312262
 20
10.74899172238451
 30
0.0
 40
0.0054420696086806
210
0.0
220
0.0
230
-1.0
 50
243.4349489999997
 51
333.43494899999757
  0
ARC
  5
B370
  8
0
 10
17.95164989014965
 20
10.72100559924047
 30
0.0
 40
0.0572006781548938
 50
141.91122700000059
 51
156.1612599999996
  0
ARC
  5
B371
  8
0
 10
17.911497342865701
 20
10.753858874235659
 30
0.0
 40
0.0054420696086806
 50
63.434948999999889
 51
153.4349489999976
  0
ARC
  5
B372
  8
0
 10
17.842140428986909
 20
10.691802688133739
 30
0.0
 40
0.019238640301562
 50
198.43494899999851
 51
235.30484599999841
  0
LINE
  5
B373
  8
0
 10
17.885815257215761
 20
10.628788790931591
 30
0.0
 11
17.882198369551251
 21
10.6313286174809
 31
0.0
  0
LINE
  5
B374
  8
0
 10
17.887804909303231
 20
10.62781506946385
 30
0.0
 11
17.885815257215761
 21
10.628788790931591
 31
0.0
  0
LINE
  5
B375
  8
0
 10
17.89038403402817
 20
10.62519955753918
 30
0.0
 11
17.887804909303231
 21
10.62781506946385
 31
0.0
  0
LINE
  5
B376
  8
0
 10
17.891691062246569
 20
10.62431316535071
 30
0.0
 11
17.89038403402817
 21
10.62519955753918
 31
0.0
  0
LINE
  5
B377
  8
0
 10
17.893832085085389
 20
10.621058694197011
 30
0.0
 11
17.891691062246569
 21
10.62431316535071
 31
0.0
  0
LINE
  5
B378
  8
0
 10
17.895600502997819
 20
10.619319386044021
 30
0.0
 11
17.893832085085389
 21
10.621058694197011
 31
0.0
  0
LINE
  5
B379
  8
0
 10
17.897411130062061
 20
10.61471131105576
 30
0.0
 11
17.895600502997819
 21
10.619319386044021
 31
0.0
  0
LINE
  5
B37A
  8
0
 10
17.898670127176668
 20
10.612411640025799
 30
0.0
 11
17.897411130062061
 21
10.61471131105576
 31
0.0
  0
LINE
  5
B37B
  8
0
 10
17.8993643949497
 20
10.60953705123824
 30
0.0
 11
17.898670127176668
 21
10.612411640025799
 31
0.0
  0
LINE
  5
B37C
  8
0
 10
17.899454635205309
 20
10.609167357287779
 30
0.0
 11
17.8993643949497
 21
10.60953705123824
 31
0.0
  0
ARC
  5
B37D
  8
0
 10
17.960976085967101
 20
10.627713354021569
 30
0.0
 40
0.0089352421494932
 50
357.43450161877962
 51
129.43210283820571
  0
ARC
  5
B37E
  8
0
 10
-17.910059320727871
 20
10.663042245376801
 30
0.0
 40
0.0696974980693446
210
0.0
220
0.0
230
-1.0
 50
200.56829398561311
 51
210.83899700000109
  0
ARC
  5
B37F
  8
0
 10
17.86890976416819
 20
10.49711952506413
 30
0.0
 40
0.1556033104372362
 50
96.736010999999706
 51
105.8838539999997
  0
ARC
  5
B380
  8
0
 10
17.843357216949691
 20
10.62488080566845
 30
0.0
 40
0.0277459676251078
 50
127.8749840000016
 51
164.74488099999951
  0
LINE
  5
B381
  8
0
 10
17.8587548244357
 20
10.618042923073499
 30
0.0
 11
17.8603675051328
 21
10.61540121236521
 31
0.0
  0
LINE
  5
B382
  8
0
 10
17.86153771747977
 20
10.62225656081568
 30
0.0
 11
17.8587548244357
 21
10.618042923073499
 31
0.0
  0
LINE
  5
B383
  8
0
 10
17.862376078564189
 20
10.624947758116139
 30
0.0
 11
17.86153771747977
 21
10.62225656081568
 31
0.0
  0
LINE
  5
B384
  8
0
 10
17.863972748893339
 20
10.62876986958803
 30
0.0
 11
17.862376078564189
 21
10.624947758116139
 31
0.0
  0
LINE
  5
B385
  8
0
 10
17.863994581213259
 20
10.630819196682969
 30
0.0
 11
17.863972748893339
 21
10.62876986958803
 31
0.0
  0
LINE
  5
B386
  8
0
 10
17.86803501588394
 20
10.631864237062461
 30
0.0
 11
17.863994581213259
 21
10.630819196682969
 31
0.0
  0
LINE
  5
B387
  8
0
 10
17.870884861375728
 20
10.631765263878821
 30
0.0
 11
17.86803501588394
 21
10.631864237062461
 31
0.0
  0
LINE
  5
B388
  8
0
 10
17.875043190573901
 20
10.632027251717769
 30
0.0
 11
17.870884861375728
 21
10.631765263878821
 31
0.0
  0
LINE
  5
B389
  8
0
 10
17.8764433700239
 20
10.63296749696201
 30
0.0
 11
17.875043190573901
 21
10.632027251717769
 31
0.0
  0
LINE
  5
B38A
  8
0
 10
17.87987249973721
 20
10.631781274247031
 30
0.0
 11
17.8764433700239
 21
10.63296749696201
 31
0.0
  0
ARC
  5
B38B
  8
0
 10
-17.837274732623751
 20
10.65530050473807
 30
0.0
 40
0.0138737115565508
210
0.0
220
0.0
230
-1.0
 50
142.1250160000013
 51
195.25511900000041
  0
LINE
  5
B38C
  8
0
 10
17.882198369551251
 20
10.6313286174809
 30
0.0
 11
17.87987249973721
 21
10.631781274247031
 31
0.0
  0
ARC
  5
B38D
  8
0
 10
17.743254574690631
 20
10.605385999479941
 30
0.0
 40
0.229441671848837
 50
12.25384300000144
 51
41.937262000001851
  0
ARC
  5
B38E
  8
0
 10
-17.815372549293599
 20
10.635831897333439
 30
0.0
 40
0.0431566745030726
210
0.0
220
0.0
230
-1.0
 50
111.5014340000002
 51
139.5739210000001
  0
LINE
  5
B38F
  8
0
 10
17.772318954440099
 20
10.73659746464957
 30
0.0
 11
17.738108089951659
 21
10.770808329138021
 31
0.0
  0
LINE
  5
B390
  8
0
 10
17.747611044246671
 20
10.704736832348081
 30
0.0
 11
17.709695356439269
 21
10.742652520155479
 31
0.0
  0
LINE
  5
B391
  8
0
 10
17.729157714380449
 20
10.6666216197194
 30
0.0
 11
17.68911741562124
 21
10.7066619184786
 31
0.0
  0
ARC
  5
B392
  8
0
 10
17.817806125219171
 20
10.769675662264261
 30
0.0
 40
0.043019858631659
 50
225.5154962313826
 51
261.86989799999952
  0
ARC
  5
B393
  8
0
 10
-17.783736062261159
 20
10.71370487146396
 30
0.0
 40
0.025581656978382
210
0.0
220
0.0
230
-1.0
 50
25.34617599999936
 51
98.826550009906882
  0
LINE
  5
B394
  8
0
 10
17.751433962095369
 20
10.711020206671259
 30
0.0
 11
17.751433962095369
 21
10.711020206671259
 31
0.0
  0
LINE
  5
B395
  8
0
 10
17.796430828542771
 20
10.782633871872569
 30
0.0
 11
17.797120729851809
 21
10.78306032985483
 31
0.0
  0
LINE
  5
B396
  8
0
 10
17.79717603839557
 20
10.781436005253671
 30
0.0
 11
17.796430828542771
 21
10.782633871872569
 31
0.0
  0
LINE
  5
B397
  8
0
 10
17.797120729851809
 20
10.78062675392902
 30
0.0
 11
17.79717603839557
 21
10.781436005253671
 31
0.0
  0
ARC
  5
B398
  8
0
 10
17.781302486335591
 20
10.80861287707307
 30
0.0
 40
0.0300514606072288
 50
301.75948000000051
 51
343.75679324223017
  0
ARC
  5
B399
  8
0
 10
-17.807202895184609
 20
10.779932486155969
 30
0.0
 40
0.0101054531406978
210
0.0
220
0.0
230
-1.0
 50
243.4349489999997
 51
3.945186000002348
  0
LINE
  5
B39A
  8
0
 10
17.723855456578129
 20
10.64941327198493
 30
0.0
 11
17.723855456578129
 21
10.64941327198493
 31
0.0
  0
ARC
  5
B39B
  8
0
 10
-17.970993325586772
 20
10.573062522114689
 30
0.0
 40
0.2593024635288828
210
0.0
220
0.0
230
-1.0
 50
15.95685699999988
 51
35.77585599999761
  0
LINE
  5
B39C
  8
0
 10
17.946195643281222
 20
10.61928931830337
 30
0.0
 11
17.774386491992122
 21
10.79109846959248
 31
0.0
  0
LINE
  5
B39D
  8
0
 10
17.802908013234411
 20
10.72931783159934
 30
0.0
 11
17.843738819912399
 21
10.770148638277339
 31
0.0
  0
ARC
  5
B39E
  8
0
 10
-17.76529794035617
 20
10.69095996058536
 30
0.0
 40
0.0588264582439272
210
0.0
220
0.0
230
-1.0
 50
142.10902499999841
 51
185.1118939999991
  0
ARC
  5
B39F
  8
0
 10
17.81837855845918
 20
10.670229047774439
 30
0.0
 40
0.1302379061430622
 50
42.804549694953323
 51
93.620483886717864
  0
ARC
  5
B3A0
  8
0
 10
17.825428515842511
 20
10.671449144028649
 30
0.0
 40
0.1003835514418542
 50
48.43557500000211
 51
97.847627999999531
  0
TEXT
  5
B3A1
  8
0
 10
16.733313312038039
 20
13.134410483437019
 30
0.0
 40
0.25
  1
RALEIGH TAVERN
 72
     2
 11
19.864265692990429
 21
13.134410483437019
 31
0.0
  0
LINE
  5
B3A2
  8
0
 10
20.0
 20
13.5
 30
0.0
 11
16.53504024189218
 21
13.499999999999771
 31
0.0
  0
TEXT
  5
B3A3
  8
0
 10
18.792837121561849
 20
13.634410483437019
 30
0.0
 40
0.25
  1
16330
 72
     2
 11
19.864265692990429
 21
13.634410483437019
 31
0.0
  0
LINE
  5
B45F
  8
0
 10
4.6297038338926688
 20
4.7495425768071584
 30
0.0
 11
4.6297038338926688
 21
11.52956135873503
 31
0.0
  0
LINE
  5
B460
  8
0
 10
11.62970383389267
 20
11.183078710103869
 30
0.0
 11
11.62970383389267
 21
11.52956135873503
 31
0.0
  0
LINE
  5
B461
  8
0
 10
4.8797038338926688
 20
11.46706135873503
 30
0.0
 11
11.379703833892661
 21
11.46706135873503
 31
0.0
  0
SOLID
  5
B462
  8
0
 10
4.8797038338926688
 20
11.5087280254017
 30
0.0
 11
4.8797038338926688
 21
11.425394692068361
 31
0.0
 12
4.6297038338926688
 22
11.46706135873503
 32
0.0
 13
4.6297038338926688
 23
11.46706135873503
 33
0.0
  0
SOLID
  5
B463
  8
0
 10
11.379703833892661
 20
11.5087280254017
 30
0.0
 11
11.379703833892661
 21
11.425394692068361
 31
0.0
 12
11.62970383389267
 22
11.46706135873503
 32
0.0
 13
11.62970383389267
 23
11.46706135873503
 33
0.0
  0
LINE
  5
B465
  8
0
 10
9.1310598793857842
 20
8.1773339903544944
 30
0.0
 11
8.6821722159415557
 21
8.1782137875308862
 31
0.0
  0
LINE
  5
B466
  8
0
 10
8.6821722159415557
 20
8.1782137875308862
 30
0.0
 11
8.3551020029931102
 21
8.1784920945205322
 31
0.0
  0
LINE
  5
B467
  8
0
 10
8.3551020029931102
 20
8.1784920945205322
 30
0.0
 11
7.9253173172799896
 21
8.1785842237308941
 31
0.0
  0
LINE
  5
B468
  8
0
 10
7.9253173172799896
 20
8.1785842237308941
 30
0.0
 11
7.9253173172799896
 21
7.793478366327899
 31
0.0
  0
LINE
  5
B469
  8
0
 10
7.9253173172799896
 20
7.793478366327899
 30
0.0
 11
7.6892101576606029
 21
7.7934783663278964
 31
0.0
  0
ARC
  5
B46A
  8
0
 10
6.7142282109221352
 20
7.8493491473502308
 30
0.0
 40
0.9765814562226644
 50
276.64987092677882
 51
356.72028506549088
  0
LINE
  5
B46B
  8
0
 10
6.8273180528577093
 20
6.8793377926285606
 30
0.0
 11
6.8273180528577093
 21
6.6498304940985156
 31
0.0
  0
LINE
  5
B46C
  8
0
 10
6.8273180528577093
 20
6.6498304940985156
 30
0.0
 11
5.8846805695879212
 21
6.6498304940985156
 31
0.0
  0
LINE
  5
B46D
  8
0
 10
5.8846805695879212
 20
6.6498304940985156
 30
0.0
 11
5.8621453808608344
 21
6.6507594636363692
 31
0.0
  0
LINE
  5
B46E
  8
0
 10
5.8621453808608344
 20
6.6507594636363692
 30
0.0
 11
5.8437694421100366
 21
6.6506980441627936
 31
0.0
  0
LINE
  5
B46F
  8
0
 10
5.8437694421100366
 20
6.6506980441627936
 30
0.0
 11
5.828975026412194
 21
6.6497460423223478
 31
0.0
  0
LINE
  5
B470
  8
0
 10
5.828975026412194
 20
6.6497460423223478
 30
0.0
 11
5.8171805681268749
 21
6.6480071034766999
 31
0.0
  0
LINE
  5
B471
  8
0
 10
5.8171805681268749
 20
6.6480071034766999
 30
0.0
 11
5.8078025822550989
 21
6.6455867923460623
 31
0.0
  0
LINE
  5
B472
  8
0
 10
5.8078025822550989
 20
6.6455867923460623
 30
0.0
 11
5.8002595031564317
 21
6.6425829962164391
 31
0.0
  0
LINE
  5
B473
  8
0
 10
5.8002595031564317
 20
6.6425829962164391
 30
0.0
 11
5.7939716845489917
 21
6.639101279808048
 31
0.0
  0
LINE
  5
B474
  8
0
 10
5.7939716845489917
 20
6.639101279808048
 30
0.0
 11
5.7883556414338031
 21
6.635243369123998
 31
0.0
  0
LINE
  5
B475
  8
0
 10
5.7883556414338031
 20
6.635243369123998
 30
0.0
 11
5.7829372922491871
 21
6.6310207803155841
 31
0.0
  0
LINE
  5
B476
  8
0
 10
5.7829372922491871
 20
6.6310207803155841
 30
0.0
 11
5.7776686530314194
 21
6.6260803514097359
 31
0.0
  0
LINE
  5
B477
  8
0
 10
5.7776686530314194
 20
6.6260803514097359
 30
0.0
 11
5.7726034658198691
 21
6.6199787105815799
 31
0.0
  0
LINE
  5
B478
  8
0
 10
5.7726034658198691
 20
6.6199787105815799
 30
0.0
 11
5.7678012307295736
 21
6.6122686472891274
 31
0.0
  0
LINE
  5
B479
  8
0
 10
5.7678012307295736
 20
6.6122686472891274
 30
0.0
 11
5.7633176091584586
 21
6.6025087090660426
 31
0.0
  0
LINE
  5
B47A
  8
0
 10
5.7633176091584586
 20
6.6025087090660426
 30
0.0
 11
5.75921210122155
 21
6.5902516853703466
 31
0.0
  0
LINE
  5
B47B
  8
0
 10
5.75921210122155
 20
6.5902516853703466
 30
0.0
 11
5.7555384489582258
 21
6.5750542043771558
 31
0.0
  0
LINE
  5
B47C
  8
0
 10
5.7555384489582258
 20
6.5750542043771558
 30
0.0
 11
5.7523561524835207
 21
6.5564728942615877
 31
0.0
  0
LINE
  5
B47D
  8
0
 10
5.7523561524835207
 20
6.5564728942615877
 30
0.0
 11
5.7523561524835189
 21
5.2533378427384099
 31
0.0
  0
ARC
  5
B47E
  8
0
 10
5.8919010158756731
 20
4.256401980378377
 30
0.0
 40
1.006654798110393
 50
97.968135976065284
 51
177.05742182206441
  0
LINE
  5
B47F
  8
0
 10
4.8865735079012387
 20
4.308078708879612
 30
0.0
 11
4.6297038338926688
 21
4.308078708879612
 31
0.0
  0
LINE
  5
B480
  8
0
 10
4.6297038338926688
 20
4.308078708879612
 30
0.0
 11
4.649164210223808
 21
4.868231985335413
 31
0.0
  0
LINE
  5
B481
  8
0
 10
4.649164210223808
 20
4.868231985335413
 30
0.0
 11
4.6523522647741649
 21
4.9066786564360214
 31
0.0
  0
LINE
  5
B482
  8
0
 10
4.6523522647741649
 20
4.9066786564360214
 30
0.0
 11
4.65606622356702
 21
4.9380390557726912
 31
0.0
  0
LINE
  5
B483
  8
0
 10
4.65606622356702
 20
4.9380390557726912
 30
0.0
 11
4.6602811349412363
 21
4.9632421528832751
 31
0.0
  0
LINE
  5
B484
  8
0
 10
4.6602811349412363
 20
4.9632421528832751
 30
0.0
 11
4.6649758859527699
 21
4.9832284334569152
 31
0.0
  0
LINE
  5
B485
  8
0
 10
4.6649758859527699
 20
4.9832284334569152
 30
0.0
 11
4.670125524940488
 21
4.9989287863900174
 31
0.0
  0
LINE
  5
B486
  8
0
 10
4.670125524940488
 20
4.9989287863900174
 30
0.0
 11
4.6757089389603399
 21
5.011277939296078
 31
0.0
  0
LINE
  5
B487
  8
0
 10
4.6757089389603399
 20
5.011277939296078
 30
0.0
 11
4.681703095709735
 21
5.0212125391471503
 31
0.0
  0
LINE
  5
B488
  8
0
 10
4.681703095709735
 20
5.0212125391471503
 30
0.0
 11
4.688083043527544
 21
5.029665394198175
 31
0.0
  0
LINE
  5
B489
  8
0
 10
4.688083043527544
 20
5.029665394198175
 30
0.0
 11
4.6948679759992444
 21
5.0374330382471051
 31
0.0
  0
LINE
  5
B48A
  8
0
 10
4.6948679759992444
 20
5.0374330382471051
 30
0.0
 11
4.7022229579600809
 21
5.0447688266224509
 31
0.0
  0
LINE
  5
B48B
  8
0
 10
4.7022229579600809
 20
5.0447688266224509
 30
0.0
 11
4.7103514414162779
 21
5.051786001478618
 31
0.0
  0
LINE
  5
B48C
  8
0
 10
4.7103514414162779
 20
5.051786001478618
 30
0.0
 11
4.7194626364497054
 21
5.0585958856114601
 31
0.0
  0
LINE
  5
B48D
  8
0
 10
4.7194626364497054
 20
5.0585958856114601
 30
0.0
 11
4.7297580757080411
 21
5.0653155598924817
 31
0.0
  0
LINE
  5
B48E
  8
0
 10
4.7297580757080411
 20
5.0653155598924817
 30
0.0
 11
4.7414450499145993
 21
5.0720601858346512
 31
0.0
  0
LINE
  5
B48F
  8
0
 10
4.7414450499145993
 20
5.0720601858346512
 30
0.0
 11
4.7698150886314918
 21
5.0860695838858412
 31
0.0
  0
ARC
  5
B490
  8
0
 10
5.4705447972360686
 20
5.0153090284921609
 30
0.0
 40
0.7042933910812148
 50
118.88868637080191
 51
174.23374797779559
  0
LINE
  5
B491
  8
0
 10
5.1302939660207256
 20
5.6319601069619436
 30
0.0
 11
5.1378581580634366
 21
5.6376759567216999
 31
0.0
  0
LINE
  5
B492
  8
0
 10
5.1378581580634366
 20
5.6376759567216999
 30
0.0
 11
5.14543578561599
 21
5.6431634028140891
 31
0.0
  0
LINE
  5
B493
  8
0
 10
5.14543578561599
 20
5.6431634028140891
 30
0.0
 11
5.1529846227903056
 21
5.6484378001075051
 31
0.0
  0
LINE
  5
B494
  8
0
 10
5.1529846227903056
 20
5.6484378001075051
 30
0.0
 11
5.1604566856226484
 21
5.6535164228288997
 31
0.0
  0
LINE
  5
B495
  8
0
 10
5.1604566856226484
 20
5.6535164228288997
 30
0.0
 11
5.167807828866386
 21
5.6584127064881073
 31
0.0
  0
LINE
  5
B496
  8
0
 10
5.167807828866386
 20
5.6584127064881073
 30
0.0
 11
5.174990068557789
 21
5.6631400865949848
 31
0.0
  0
LINE
  5
B497
  8
0
 10
5.174990068557789
 20
5.6631400865949848
 30
0.0
 11
5.1819611788087734
 21
5.6677158373764618
 31
0.0
  0
LINE
  5
B498
  8
0
 10
5.1819611788087734
 20
5.6677158373764618
 30
0.0
 11
5.1886731756556008
 21
5.6721553137009471
 31
0.0
  0
LINE
  5
B499
  8
0
 10
5.1886731756556008
 20
5.6721553137009471
 30
0.0
 11
5.1950934300029408
 21
5.6764777091539207
 31
0.0
  0
LINE
  5
B49A
  8
0
 10
5.1950934300029408
 20
5.6764777091539207
 30
0.0
 11
5.2012449741533748
 21
5.6807098947550818
 31
0.0
  0
LINE
  5
B49B
  8
0
 10
5.2012449741533748
 20
5.6807098947550818
 30
0.0
 11
5.2071623565608043
 21
5.6848921770339622
 31
0.0
  0
LINE
  5
B49C
  8
0
 10
5.2071623565608043
 20
5.6848921770339622
 30
0.0
 11
5.2128762869620111
 21
5.6890533463688007
 31
0.0
  0
LINE
  5
B49D
  8
0
 10
5.2128762869620111
 20
5.6890533463688007
 30
0.0
 11
5.2184232331694282
 21
5.6932298705720292
 31
0.0
  0
LINE
  5
B49E
  8
0
 10
5.2184232331694282
 20
5.6932298705720292
 30
0.0
 11
5.223837743636941
 21
5.6974562980975421
 31
0.0
  0
LINE
  5
B49F
  8
0
 10
5.223837743636941
 20
5.6974562980975421
 30
0.0
 11
5.2291524474598949
 21
5.7017652580406732
 31
0.0
  0
LINE
  5
B4A0
  8
0
 10
5.2291524474598949
 20
5.7017652580406732
 30
0.0
 11
5.2344038124507222
 21
5.7061932182138611
 31
0.0
  0
LINE
  5
B4A1
  8
0
 10
5.2344038124507222
 20
5.7061932182138611
 30
0.0
 11
5.2396148709120141
 21
5.7108361465445681
 31
0.0
  0
LINE
  5
B4A2
  8
0
 10
5.2396148709120141
 20
5.7108361465445681
 30
0.0
 11
5.244776026051027
 21
5.7160452856473114
 31
0.0
  0
LINE
  5
B4A3
  8
0
 10
5.244776026051027
 20
5.7160452856473114
 30
0.0
 11
5.2498700036408152
 21
5.7222332976101882
 31
0.0
  0
LINE
  5
B4A4
  8
0
 10
5.2498700036408152
 20
5.7222332976101882
 30
0.0
 11
5.2548756907373324
 21
5.729816683238389
 31
0.0
  0
LINE
  5
B4A5
  8
0
 10
5.2548756907373324
 20
5.729816683238389
 30
0.0
 11
5.2597758131136452
 21
5.739208104620011
 31
0.0
  0
LINE
  5
B4A6
  8
0
 10
5.2597758131136452
 20
5.739208104620011
 30
0.0
 11
5.2645511771842521
 21
5.7508202238431494
 31
0.0
  0
LINE
  5
B4A7
  8
0
 10
5.2645511771842521
 20
5.7508202238431494
 30
0.0
 11
5.2691806700051131
 21
5.7650714610715417
 31
0.0
  0
LINE
  5
B4A8
  8
0
 10
5.2691806700051131
 20
5.7650714610715417
 30
0.0
 11
5.2736470173492833
 21
5.7823706396761976
 31
0.0
  0
LINE
  5
B4A9
  8
0
 10
5.2736470173492833
 20
5.7823706396761976
 30
0.0
 11
5.2727967415119528
 21
6.073259024612188
 31
0.0
  0
LINE
  5
B4AA
  8
0
 10
5.2727967415119528
 20
6.073259024612188
 30
0.0
 11
5.273053935557555
 21
6.2959007776114566
 31
0.0
  0
LINE
  5
B4AB
  8
0
 10
5.273053935557555
 20
6.2959007776114566
 30
0.0
 11
5.2742458572166546
 21
6.4599138043644544
 31
0.0
  0
LINE
  5
B4AC
  8
0
 10
5.2742458572166546
 20
6.4599138043644544
 30
0.0
 11
5.2762016835783783
 21
6.5749083331274072
 31
0.0
  0
LINE
  5
B4AD
  8
0
 10
5.2762016835783783
 20
6.5749083331274072
 30
0.0
 11
5.2787486723732684
 21
6.6505041889493119
 31
0.0
  0
LINE
  5
B4AE
  8
0
 10
5.2787486723732684
 20
6.6505041889493119
 30
0.0
 11
5.2817198394075504
 21
6.6963135194449563
 31
0.0
  0
LINE
  5
B4AF
  8
0
 10
5.2817198394075504
 20
6.6963135194449563
 30
0.0
 11
5.2849405230532396
 21
6.7219503915876793
 31
0.0
  0
LINE
  5
B4B0
  8
0
 10
5.2849405230532396
 20
6.7219503915876793
 30
0.0
 11
5.2882418197579986
 21
6.7370307917093646
 31
0.0
  0
LINE
  5
B4B1
  8
0
 10
5.2882418197579986
 20
6.7370307917093646
 30
0.0
 11
5.2914874550648321
 21
6.7495833966216479
 31
0.0
  0
LINE
  5
B4B2
  8
0
 10
5.2914874550648321
 20
6.7495833966216479
 30
0.0
 11
5.2946831870493787
 21
6.761297241847898
 31
0.0
  0
LINE
  5
B4B3
  8
0
 10
5.2946831870493787
 20
6.761297241847898
 30
0.0
 11
5.2978712415997364
 21
6.7722740533912278
 31
0.0
  0
LINE
  5
B4B4
  8
0
 10
5.2978712415997364
 20
6.7722740533912278
 30
0.0
 11
5.301093844603975
 21
6.7826174766132921
 31
0.0
  0
LINE
  5
B4B5
  8
0
 10
5.301093844603975
 20
6.7826174766132921
 30
0.0
 11
5.304391302591636
 21
6.7924273181586576
 31
0.0
  0
LINE
  5
B4B6
  8
0
 10
5.304391302591636
 20
6.7924273181586576
 30
0.0
 11
5.3078077608093528
 21
6.801807223388983
 31
0.0
  0
LINE
  5
B4B7
  8
0
 10
5.3078077608093528
 20
6.801807223388983
 30
0.0
 11
5.3113835257866588
 21
6.8108627570244797
 31
0.0
  0
LINE
  5
B4B8
  8
0
 10
5.3113835257866588
 20
6.8108627570244797
 30
0.0
 11
5.3151608234116381
 21
6.819691806351166
 31
0.0
  0
LINE
  5
B4B9
  8
0
 10
5.3151608234116381
 20
6.819691806351166
 30
0.0
 11
5.3191703634210832
 21
6.8283884199379514
 31
0.0
  0
LINE
  5
B4BA
  8
0
 10
5.3191703634210832
 20
6.8283884199379514
 30
0.0
 11
5.323400629663694
 21
6.8369852268801701
 31
0.0
  0
LINE
  5
B4BB
  8
0
 10
5.323400629663694
 20
6.8369852268801701
 30
0.0
 11
5.3278285898368827
 21
6.8455052594804178
 31
0.0
  0
LINE
  5
B4BC
  8
0
 10
5.3278285898368827
 20
6.8455052594804178
 30
0.0
 11
5.3324312116380517
 21
6.8539734693998389
 31
0.0
  0
LINE
  5
B4BD
  8
0
 10
5.3324312116380517
 20
6.8539734693998389
 30
0.0
 11
5.3371854627646149
 21
6.8624109695824691
 31
0.0
  0
LINE
  5
B4BE
  8
0
 10
5.3371854627646149
 20
6.8624109695824691
 30
0.0
 11
5.3420702302725331
 21
6.8708388729723531
 31
0.0
  0
LINE
  5
B4BF
  8
0
 10
5.3420702302725331
 20
6.8708388729723531
 30
0.0
 11
5.3470605625006611
 21
6.8792840505891837
 31
0.0
  0
LINE
  5
B4C0
  8
0
 10
5.3470605625006611
 20
6.8792840505891837
 30
0.0
 11
5.3521334271464021
 21
6.887767615376994
 31
0.0
  0
LINE
  5
B4C1
  8
0
 10
5.3521334271464021
 20
6.887767615376994
 30
0.0
 11
5.3572792274170196
 21
6.8963068415627404
 31
0.0
  0
LINE
  5
B4C2
  8
0
 10
5.3572792274170196
 20
6.8963068415627404
 30
0.0
 11
5.3625229149736517
 21
6.904907487222057
 31
0.0
  0
LINE
  5
B4C3
  8
0
 10
5.3625229149736517
 20
6.904907487222057
 30
0.0
 11
5.3679028769872801
 21
6.9135676329964042
 31
0.0
  0
LINE
  5
B4C4
  8
0
 10
5.3679028769872801
 20
6.9135676329964042
 30
0.0
 11
5.3734594199874444
 21
6.9222911176028736
 31
0.0
  0
LINE
  5
B4C5
  8
0
 10
5.3734594199874444
 20
6.9222911176028736
 30
0.0
 11
5.3792270924280281
 21
6.9310721829658268
 31
0.0
  0
LINE
  5
B4C6
  8
0
 10
5.3792270924280281
 20
6.9310721829658268
 30
0.0
 11
5.3852462008385649
 21
6.9399165871609076
 31
0.0
  0
LINE
  5
B4C7
  8
0
 10
5.3852462008385649
 20
6.9399165871609076
 30
0.0
 11
5.3915532130314956
 21
6.9488204914710101
 31
0.0
  0
LINE
  5
B4C8
  8
0
 10
5.3915532130314956
 20
6.9488204914710101
 30
0.0
 11
5.3981884355363539
 21
6.9577858152546952
 31
0.0
  0
LINE
  5
B4C9
  8
0
 10
5.3981884355363539
 20
6.9577858152546952
 30
0.0
 11
5.4051787393728246
 21
6.966804881077759
 31
0.0
  0
LINE
  5
B4CA
  8
0
 10
5.4051787393728246
 20
6.966804881077759
 30
0.0
 11
5.4125202858238204
 21
6.9758373824106661
 31
0.0
  0
LINE
  5
B4CB
  8
0
 10
5.4125202858238204
 20
6.9758373824106661
 30
0.0
 11
5.4201958006623867
 21
6.9848410933653318
 31
0.0
  0
LINE
  5
B4CC
  8
0
 10
5.4201958006623867
 20
6.9848410933653318
 30
0.0
 11
5.4281899290201352
 21
6.9937680299780283
 31
0.0
  0
LINE
  5
B4CD
  8
0
 10
5.4281899290201352
 20
6.9937680299780283
 30
0.0
 11
5.4364873160286669
 21
7.0025740470021267
 31
0.0
  0
LINE
  5
B4CE
  8
0
 10
5.4364873160286669
 20
7.0025740470021267
 30
0.0
 11
5.4450745261781393
 21
7.0112130798324301
 31
0.0
  0
LINE
  5
B4CF
  8
0
 10
5.4450745261781393
 20
7.0112130798324301
 30
0.0
 11
5.4539362046001614
 21
7.0196371445052144
 31
0.0
  0
LINE
  5
B4D0
  8
0
 10
5.4539362046001614
 20
7.0196371445052144
 30
0.0
 11
5.4630550770677893
 21
7.0278059344909449
 31
0.0
  0
LINE
  5
B4D1
  8
0
 10
5.4630550770677893
 20
7.0278059344909449
 30
0.0
 11
5.4724177080711689
 21
7.03567914326009
 31
0.0
  0
LINE
  5
B4D2
  8
0
 10
5.4724177080711689
 20
7.03567914326009
 30
0.0
 11
5.4820068233833723
 21
7.0432644482468367
 31
0.0
  0
LINE
  5
B4D3
  8
0
 10
5.4820068233833723
 20
7.0432644482468367
 30
0.0
 11
5.4918109068530887
 21
7.0505752849610408
 31
0.0
  0
LINE
  5
B4D4
  8
0
 10
5.4918109068530887
 20
7.0505752849610408
 30
0.0
 11
5.501812684253383
 21
7.0576289276296427
 31
0.0
  0
LINE
  5
B4D5
  8
0
 10
5.501812684253383
 20
7.0576289276296427
 30
0.0
 11
5.5119948813573103
 21
7.0644388117624848
 31
0.0
  0
LINE
  5
B4D6
  8
0
 10
5.5119948813573103
 20
7.0644388117624848
 30
0.0
 11
5.5223459820135723
 21
7.071020292227959
 31
0.0
  0
LINE
  5
B4D7
  8
0
 10
5.5223459820135723
 20
7.071020292227959
 30
0.0
 11
5.5328487119952241
 21
7.0773887238944724
 31
0.0
  0
LINE
  5
B4D8
  8
0
 10
5.5328487119952241
 20
7.0773887238944724
 30
0.0
 11
5.5434877164338756
 21
7.0835613809889528
 31
0.0
  0
LINE
  5
B4D9
  8
0
 10
5.5434877164338756
 20
7.0835613809889528
 30
0.0
 11
5.5542706727637281
 21
7.089553618379802
 31
0.0
  0
LINE
  5
B4DA
  8
0
 10
5.5542706727637281
 20
7.089553618379802
 30
0.0
 11
5.565293548912237
 21
7.095394226445257
 31
0.0
  0
LINE
  5
B4DB
  8
0
 10
5.565293548912237
 20
7.095394226445257
 30
0.0
 11
5.5766734257509114
 21
7.1011119955635591
 31
0.0
  0
LINE
  5
B4DC
  8
0
 10
5.5766734257509114
 20
7.1011119955635591
 30
0.0
 11
5.5885293035098078
 21
7.106739554830046
 31
0.0
  0
LINE
  5
B4DD
  8
0
 10
5.5885293035098078
 20
7.106739554830046
 30
0.0
 11
5.6009763437018867
 21
7.112305694622953
 31
0.0
  0
LINE
  5
B4DE
  8
0
 10
5.6009763437018867
 20
7.112305694622953
 30
0.0
 11
5.6141354659157443
 21
7.1178411246790736
 31
0.0
  0
LINE
  5
B4DF
  8
0
 10
5.6141354659157443
 20
7.1178411246790736
 30
0.0
 11
5.6281237510228861
 21
7.123378474093748
 31
0.0
  0
LINE
  5
B4E0
  8
0
 10
5.6281237510228861
 20
7.123378474093748
 30
0.0
 11
5.6430563605362769
 21
7.1289446138866523
 31
0.0
  0
LINE
  5
B4E1
  8
0
 10
5.6430563605362769
 20
7.1289446138866523
 30
0.0
 11
5.6591386658206906
 21
7.1345491408505524
 31
0.0
  0
LINE
  5
B4E2
  8
0
 10
5.6591386658206906
 20
7.1345491408505524
 30
0.0
 11
5.6769042485528161
 21
7.1401172000020061
 31
0.0
  0
LINE
  5
B4E3
  8
0
 10
5.6769042485528161
 20
7.1401172000020061
 30
0.0
 11
5.6969711421855278
 21
7.1455489846964682
 31
0.0
  0
LINE
  5
B4E4
  8
0
 10
5.6969711421855278
 20
7.1455489846964682
 30
0.0
 11
5.7199631382473441
 21
7.1507446882893682
 31
0.0
  0
LINE
  5
B4E5
  8
0
 10
5.7199631382473441
 20
7.1507446882893682
 30
0.0
 11
5.746496350832575
 21
7.155604504136142
 31
0.0
  0
LINE
  5
B4E6
  8
0
 10
5.746496350832575
 20
7.155604504136142
 30
0.0
 11
5.7771907327526471
 21
7.1600324643093307
 31
0.0
  0
LINE
  5
B4E7
  8
0
 10
5.7771907327526471
 20
7.1600324643093307
 30
0.0
 11
5.8126681561775193
 21
7.1639287621643666
 31
0.0
  0
LINE
  5
B4E8
  8
0
 10
5.8126681561775193
 20
7.1639287621643666
 30
0.0
 11
5.853544735201516
 21
7.1671955104152332
 31
0.0
  0
LINE
  5
B4E9
  8
0
 10
5.853544735201516
 20
7.1671955104152332
 30
0.0
 11
6.1868224632303699
 21
7.1662223956307542
 31
0.0
  0
ARC
  5
B4EA
  8
0
 10
6.0948116159638062
 20
8.3685176521229963
 30
0.0
 40
1.2058108806104111
 50
274.37627719962012
 51
322.7926079547446
  0
LINE
  5
B4EB
  8
0
 10
7.0551819933827096
 20
7.6393615522549849
 30
0.0
 11
7.0720704292578196
 21
7.6705242576610821
 31
0.0
  0
LINE
  5
B4EC
  8
0
 10
7.0720704292578196
 20
7.6705242576610821
 30
0.0
 11
7.086118214479991
 21
7.6970440347364706
 31
0.0
  0
LINE
  5
B4ED
  8
0
 10
7.086118214479991
 20
7.6970440347364706
 30
0.0
 11
7.0977226562689308
 21
7.7196099332003447
 31
0.0
  0
LINE
  5
B4EE
  8
0
 10
7.0977226562689308
 20
7.7196099332003447
 30
0.0
 11
7.1072925779956391
 21
7.7389071640547931
 31
0.0
  0
LINE
  5
B4EF
  8
0
 10
7.1072925779956391
 20
7.7389071640547931
 30
0.0
 11
7.1152272062383579
 21
7.755626696377564
 31
0.0
  0
LINE
  5
B4F0
  8
0
 10
7.1152272062383579
 20
7.755626696377564
 30
0.0
 11
7.1219296062924426
 21
7.7704537411707468
 31
0.0
  0
LINE
  5
B4F1
  8
0
 10
7.1219296062924426
 20
7.7704537411707468
 30
0.0
 11
7.1278047628117811
 21
7.7840773481535273
 31
0.0
  0
LINE
  5
B4F2
  8
0
 10
7.1278047628117811
 20
7.7840773481535273
 30
0.0
 11
7.1331962409767078
 21
7.7970944378347404
 31
0.0
  0
LINE
  5
B4F3
  8
0
 10
7.1331962409767078
 20
7.7970944378347404
 30
0.0
 11
7.1382134442245224
 21
7.8097430106744881
 31
0.0
  0
LINE
  5
B4F4
  8
0
 10
7.1382134442245224
 20
7.8097430106744881
 30
0.0
 11
7.1429120339531549
 21
7.8221689379225188
 31
0.0
  0
LINE
  5
B4F5
  8
0
 10
7.1429120339531549
 20
7.8221689379225188
 30
0.0
 11
7.1473457522019919
 21
7.834525768262778
 31
0.0
  0
LINE
  5
B4F6
  8
0
 10
7.1473457522019919
 20
7.834525768262778
 30
0.0
 11
7.1515664216518573
 21
7.8469574535864623
 31
0.0
  0
LINE
  5
B4F7
  8
0
 10
7.1515664216518573
 20
7.8469574535864623
 30
0.0
 11
7.1556258649835831
 21
7.8596117845018583
 31
0.0
  0
LINE
  5
B4F8
  8
0
 10
7.1556258649835831
 20
7.8596117845018583
 30
0.0
 11
7.1595797435950992
 21
7.87264039033436
 31
0.0
  0
LINE
  5
B4F9
  8
0
 10
7.1595797435950992
 20
7.87264039033436
 30
0.0
 11
7.1634817995257833
 21
7.886189142333726
 31
0.0
  0
LINE
  5
B4FA
  8
0
 10
7.1634817995257833
 20
7.886189142333726
 30
0.0
 11
7.1673665812295262
 21
7.9003540084274064
 31
0.0
  0
LINE
  5
B4FB
  8
0
 10
7.1673665812295262
 20
7.9003540084274064
 30
0.0
 11
7.1712148951208334
 21
7.9150198271024443
 31
0.0
  0
LINE
  5
B4FC
  8
0
 10
7.1712148951208334
 20
7.9150198271024443
 30
0.0
 11
7.1749864346701626
 21
7.9300196141650607
 31
0.0
  0
LINE
  5
B4FD
  8
0
 10
7.1749864346701626
 20
7.9300196141650607
 30
0.0
 11
7.1786428127065376
 21
7.945186385421465
 31
0.0
  0
LINE
  5
B4FE
  8
0
 10
7.1786428127065376
 20
7.945186385421465
 30
0.0
 11
7.1821494807760677
 21
7.9603531566778676
 31
0.0
  0
LINE
  5
B4FF
  8
0
 10
7.1821494807760677
 20
7.9603531566778676
 30
0.0
 11
7.1854642129906772
 21
7.9753548630990307
 31
0.0
  0
LINE
  5
B500
  8
0
 10
7.1854642129906772
 20
7.9753548630990307
 30
0.0
 11
7.1885524608964673
 21
7.9900206817740758
 31
0.0
  0
LINE
  5
B501
  8
0
 10
7.1885524608964673
 20
7.9900206817740758
 30
0.0
 11
7.191373917963908
 21
8.0041836285092032
 31
0.0
  0
LINE
  5
B502
  8
0
 10
7.191373917963908
 20
8.0041836285092032
 30
0.0
 11
7.1939055518904063
 21
8.0177342998671151
 31
0.0
  0
LINE
  5
B503
  8
0
 10
7.1939055518904063
 20
8.0177342998671151
 30
0.0
 11
7.1961876692054956
 21
8.0307763412094673
 31
0.0
  0
LINE
  5
B504
  8
0
 10
7.1961876692054956
 20
8.0307763412094673
 30
0.0
 11
7.1982720925900159
 21
8.0434671399372988
 31
0.0
  0
LINE
  5
B505
  8
0
 10
7.1982720925900159
 20
8.0434671399372988
 30
0.0
 11
7.2002106447247867
 21
8.0559698415273004
 31
0.0
  0
LINE
  5
B506
  8
0
 10
7.2002106447247867
 20
8.0559698415273004
 30
0.0
 11
7.2020589870077449
 21
8.0684399140219671
 31
0.0
  0
LINE
  5
B507
  8
0
 10
7.2020589870077449
 20
8.0684399140219671
 30
0.0
 11
7.2038708614782641
 21
8.0810405028979844
 31
0.0
  0
LINE
  5
B508
  8
0
 10
7.2038708614782641
 20
8.0810405028979844
 30
0.0
 11
7.2056961714586256
 21
8.0939309149149423
 31
0.0
  0
LINE
  5
B509
  8
0
 10
7.2056961714586256
 20
8.0939309149149423
 30
0.0
 11
7.2075886589882137
 21
8.1072685374738853
 31
0.0
  0
LINE
  5
B50A
  8
0
 10
7.2075886589882137
 20
8.1072685374738853
 30
0.0
 11
7.2095982273893071
 21
8.1211608546535672
 31
0.0
  0
LINE
  5
B50B
  8
0
 10
7.2095982273893071
 20
8.1211608546535672
 30
0.0
 11
7.211734473454654
 21
8.1355099791679777
 31
0.0
  0
LINE
  5
B50C
  8
0
 10
7.211734473454654
 20
8.1355099791679777
 30
0.0
 11
7.2140089133355536
 21
8.1501642816917226
 31
0.0
  0
LINE
  5
B50D
  8
0
 10
7.2140089133355536
 20
8.1501642816917226
 30
0.0
 11
7.2164273051076471
 21
8.1649682941823087
 31
0.0
  0
LINE
  5
B50E
  8
0
 10
7.2164273051076471
 20
8.1649682941823087
 30
0.0
 11
7.2189973262051259
 21
8.1797742260314479
 31
0.0
  0
LINE
  5
B50F
  8
0
 10
7.2189973262051259
 20
8.1797742260314479
 30
0.0
 11
7.2217285734207577
 21
8.1944266091966451
 31
0.0
  0
LINE
  5
B510
  8
0
 10
7.2217285734207577
 20
8.1944266091966451
 30
0.0
 11
7.2246248854716164
 21
8.2087757337110574
 31
0.0
  0
LINE
  5
B511
  8
0
 10
7.2246248854716164
 20
8.2087757337110574
 30
0.0
 11
7.2276977785090137
 21
8.2226699702492851
 31
0.0
  0
LINE
  5
B512
  8
0
 10
7.2276977785090137
 20
8.2226699702492851
 30
0.0
 11
7.2309491718914947
 21
8.2359864798641862
 31
0.0
  0
LINE
  5
B513
  8
0
 10
7.2309491718914947
 20
8.2359864798641862
 30
0.0
 11
7.2343675494677546
 21
8.2487348593484988
 31
0.0
  0
LINE
  5
B514
  8
0
 10
7.2343675494677546
 20
8.2487348593484988
 30
0.0
 11
7.2379375563694159
 21
8.2609496571561092
 31
0.0
  0
LINE
  5
B515
  8
0
 10
7.2379375563694159
 20
8.2609496571561092
 30
0.0
 11
7.241643837728069
 21
8.2726730991751083
 31
0.0
  0
LINE
  5
B516
  8
0
 10
7.241643837728069
 20
8.2726730991751083
 30
0.0
 11
7.2454729580338864
 21
8.283937814500824
 31
0.0
  0
LINE
  5
B517
  8
0
 10
7.2454729580338864
 20
8.283937814500824
 30
0.0
 11
7.2494076430599099
 21
8.2947860290213491
 31
0.0
  0
LINE
  5
B518
  8
0
 10
7.2494076430599099
 20
8.2947860290213491
 30
0.0
 11
7.2534344572962972
 21
8.3052542105491156
 31
0.0
  0
LINE
  5
B519
  8
0
 10
7.2534344572962972
 20
8.3052542105491156
 30
0.0
 11
7.2575361265161069
 21
8.3153807462551157
 31
0.0
  0
LINE
  5
B51A
  8
0
 10
7.2575361265161069
 20
8.3153807462551157
 30
0.0
 11
7.2617068926436872
 21
8.3252059426688731
 31
0.0
  0
LINE
  5
B51B
  8
0
 10
7.2617068926436872
 20
8.3252059426688731
 30
0.0
 11
7.2659678686230862
 21
8.3347797031126802
 31
0.0
  0
LINE
  5
B51C
  8
0
 10
7.2659678686230862
 20
8.3347797031126802
 30
0.0
 11
7.270351683549638
 21
8.3441557696259068
 31
0.0
  0
LINE
  5
B51D
  8
0
 10
7.270351683549638
 20
8.3441557696259068
 30
0.0
 11
7.2748871278015841
 21
8.3533878842479368
 31
0.0
  0
LINE
  5
B51E
  8
0
 10
7.2748871278015841
 20
8.3533878842479368
 30
0.0
 11
7.2796049111157179
 21
8.3625297890181542
 31
0.0
  0
LINE
  5
B51F
  8
0
 10
7.2796049111157179
 20
8.3625297890181542
 30
0.0
 11
7.2845357432288154
 21
8.3716333066173831
 31
0.0
  0
LINE
  5
B520
  8
0
 10
7.2845357432288154
 20
8.3716333066173831
 30
0.0
 11
7.2897103338776637
 21
8.3807521790850075
 31
0.0
  0
LINE
  5
B521
  8
0
 10
7.2897103338776637
 20
8.3807521790850075
 30
0.0
 11
7.295157473440522
 21
8.3899382291018583
 31
0.0
  0
LINE
  5
B522
  8
0
 10
7.295157473440522
 20
8.3899382291018583
 30
0.0
 11
7.30089827486142
 21
8.3992279244803711
 31
0.0
  0
LINE
  5
B523
  8
0
 10
7.30089827486142
 20
8.3992279244803711
 30
0.0
 11
7.306905867120661
 21
8.4085867167666528
 31
0.0
  0
LINE
  5
B524
  8
0
 10
7.306905867120661
 20
8.4085867167666528
 30
0.0
 11
7.313139943688717
 21
8.4179608639213335
 31
0.0
  0
LINE
  5
B525
  8
0
 10
7.313139943688717
 20
8.4179608639213335
 30
0.0
 11
7.3195640367531558
 21
8.4272985432635732
 31
0.0
  0
LINE
  5
B526
  8
0
 10
7.3195640367531558
 20
8.4272985432635732
 30
0.0
 11
7.3261397591429862
 21
8.4365421740369015
 31
0.0
  0
LINE
  5
B527
  8
0
 10
7.3261397591429862
 20
8.4365421740369015
 30
0.0
 11
7.3328306430457699
 21
8.4456437722775846
 31
0.0
  0
LINE
  5
B528
  8
0
 10
7.3328306430457699
 20
8.4456437722775846
 30
0.0
 11
7.3395983012905317
 21
8.4545457572291411
 31
0.0
  0
LINE
  5
B529
  8
0
 10
7.3395983012905317
 20
8.4545457572291411
 30
0.0
 11
7.346402427347722
 21
8.4631982255692932
 31
0.0
  0
LINE
  5
B52A
  8
0
 10
7.346402427347722
 20
8.4631982255692932
 30
0.0
 11
7.3532257469904101
 21
8.4715647094855981
 31
0.0
  0
LINE
  5
B52B
  8
0
 10
7.3532257469904101
 20
8.4715647094855981
 30
0.0
 11
7.3601258409750692
 21
8.4796701606392055
 31
0.0
  0
LINE
  5
B52C
  8
0
 10
7.3601258409750692
 20
8.4796701606392055
 30
0.0
 11
7.3671775642851207
 21
8.4875644823523881
 31
0.0
  0
LINE
  5
B52D
  8
0
 10
7.3671775642851207
 20
8.4875644823523881
 30
0.0
 11
7.374455771903988
 21
8.4952918198717882
 31
0.0
  0
LINE
  5
B52E
  8
0
 10
7.374455771903988
 20
8.4952918198717882
 30
0.0
 11
7.3820410768907401
 21
8.50289631844403
 31
0.0
  0
LINE
  5
B52F
  8
0
 10
7.3820410768907401
 20
8.50289631844403
 30
0.0
 11
7.3900044955116959
 21
8.5104259620328548
 31
0.0
  0
LINE
  5
B530
  8
0
 10
7.3900044955116959
 20
8.5104259620328548
 30
0.0
 11
7.3984247214673893
 21
8.5179248958848852
 31
0.0
  0
LINE
  5
B531
  8
0
 10
7.3984247214673893
 20
8.5179248958848852
 30
0.0
 11
7.4073766097412204
 21
8.525439184605311
 31
0.0
  0
LINE
  5
B532
  8
0
 10
7.4073766097412204
 20
8.525439184605311
 30
0.0
 11
7.416913902372591
 21
8.5330033766480202
 31
0.0
  0
LINE
  5
B533
  8
0
 10
7.416913902372591
 20
8.5330033766480202
 30
0.0
 11
7.4269982121905
 21
8.5406136332959122
 31
0.0
  0
LINE
  5
B534
  8
0
 10
7.4269982121905
 20
8.5406136332959122
 30
0.0
 11
7.4375681197213828
 21
8.5482545996805932
 31
0.0
  0
LINE
  5
B535
  8
0
 10
7.4375681197213828
 20
8.5482545996805932
 30
0.0
 11
7.4485660442087527
 21
8.5559090015751167
 31
0.0
  0
LINE
  5
B536
  8
0
 10
7.4485660442087527
 20
8.5559090015751167
 30
0.0
 11
7.4599267274619327
 21
8.5635653228281896
 31
0.0
  0
LINE
  5
B537
  8
0
 10
7.4599267274619327
 20
8.5635653228281896
 30
0.0
 11
7.4715925887244508
 21
8.5712062892128706
 31
0.0
  0
LINE
  5
B538
  8
0
 10
7.4715925887244508
 20
8.5712062892128706
 30
0.0
 11
7.4835022085227294
 21
8.5788165458607644
 31
0.0
  0
LINE
  5
B539
  8
0
 10
7.4835022085227294
 20
8.5788165458607644
 30
0.0
 11
7.4955922480246349
 21
8.5863807379034753
 31
0.0
  0
LINE
  5
B53A
  8
0
 10
7.4955922480246349
 20
8.5863807379034753
 30
0.0
 11
7.5078166426249977
 21
8.5938815911140516
 31
0.0
  0
LINE
  5
B53B
  8
0
 10
7.5078166426249977
 20
8.5938815911140516
 30
0.0
 11
7.5201600374554083
 21
8.6012922344728224
 31
0.0
  0
LINE
  5
B53C
  8
0
 10
7.5201600374554083
 20
8.6012922344728224
 30
0.0
 11
7.532626271232977
 21
8.6085800388844333
 31
0.0
  0
LINE
  5
B53D
  8
0
 10
7.532626271232977
 20
8.6085800388844333
 30
0.0
 11
7.5452153439576959
 21
8.6157181333292012
 31
0.0
  0
LINE
  5
B53E
  8
0
 10
7.5452153439576959
 20
8.6157181333292012
 30
0.0
 11
7.5579253362710261
 21
8.6226719693532416
 31
0.0
  0
LINE
  5
B53F
  8
0
 10
7.5579253362710261
 20
8.6226719693532416
 30
0.0
 11
7.5707562481729509
 21
8.6294127565783114
 31
0.0
  0
LINE
  5
B540
  8
0
 10
7.5707562481729509
 20
8.6294127565783114
 30
0.0
 11
7.5837080796634906
 21
8.6359117046261673
 31
0.0
  0
LINE
  5
B541
  8
0
 10
7.5837080796634906
 20
8.6359117046261673
 30
0.0
 11
7.596782750101176
 21
8.6421361844014797
 31
0.0
  0
LINE
  5
B542
  8
0
 10
7.596782750101176
 20
8.6421361844014797
 30
0.0
 11
7.6103602924787772
 21
8.6480574055260071
 31
0.0
  0
LINE
  5
B543
  8
0
 10
7.6103602924787772
 20
8.6480574055260071
 30
0.0
 11
7.6263485491942751
 21
8.6536446582629551
 31
0.0
  0
LINE
  5
B544
  8
0
 10
7.6263485491942751
 20
8.6536446582629551
 30
0.0
 11
7.6470334762798551
 21
8.6588672328755436
 31
0.0
  0
LINE
  5
B545
  8
0
 10
7.6470334762798551
 20
8.6588672328755436
 30
0.0
 11
7.6747029491262557
 21
8.6636944196269816
 31
0.0
  0
LINE
  5
B546
  8
0
 10
7.6747029491262557
 20
8.6636944196269816
 30
0.0
 11
7.7116467624827791
 21
8.6680955087804783
 31
0.0
  0
LINE
  5
B547
  8
0
 10
7.7116467624827791
 20
8.6680955087804783
 30
0.0
 11
9.2608384081981541
 21
8.6996084019121902
 31
0.0
  0
LINE
  5
B548
  8
0
 10
9.2608384081981541
 20
8.6996084019121902
 30
0.0
 11
9.3058911183644213
 21
8.7059126302769236
 31
0.0
  0
LINE
  5
B549
  8
0
 10
9.3058911183644213
 20
8.7059126302769236
 30
0.0
 11
9.3196932256922835
 21
8.7090872493174292
 31
0.0
  0
LINE
  5
B54A
  8
0
 10
9.3196932256922835
 20
8.7090872493174292
 30
0.0
 11
9.3331613646325735
 21
8.7126419013506968
 31
0.0
  0
LINE
  5
B54B
  8
0
 10
9.3331613646325735
 20
8.7126419013506968
 30
0.0
 11
9.3461880511065338
 21
8.7166130541891533
 31
0.0
  0
LINE
  5
B54C
  8
0
 10
9.3461880511065338
 20
8.7166130541891533
 30
0.0
 11
9.3586658010353965
 21
8.721041014362342
 31
0.0
  0
LINE
  5
B54D
  8
0
 10
9.3586658010353965
 20
8.721041014362342
 30
0.0
 11
9.3704909690574993
 21
8.7259641690412444
 31
0.0
  0
LINE
  5
B54E
  8
0
 10
9.3704909690574993
 20
8.7259641690412444
 30
0.0
 11
9.3815560710940922
 21
8.7314170666797466
 31
0.0
  0
LINE
  5
B54F
  8
0
 10
9.3815560710940922
 20
8.7314170666797466
 30
0.0
 11
9.391755542424967
 21
8.7374400138073831
 31
0.0
  0
LINE
  5
B550
  8
0
 10
9.391755542424967
 20
8.7374400138073831
 30
0.0
 11
9.401014528066689
 21
8.7440579620853001
 31
0.0
  0
LINE
  5
B551
  8
0
 10
9.401014528066689
 20
8.7440579620853001
 30
0.0
 11
9.4094002055684882
 21
8.7512286856254065
 31
0.0
  0
LINE
  5
B552
  8
0
 10
9.4094002055684882
 20
8.7512286856254065
 30
0.0
 11
9.4170104622163784
 21
8.7589003617468748
 31
0.0
  0
LINE
  5
B553
  8
0
 10
9.4170104622163784
 20
8.7589003617468748
 30
0.0
 11
9.4239451046549192
 21
8.7670211677688741
 31
0.0
  0
LINE
  5
B554
  8
0
 10
9.4239451046549192
 20
8.7670211677688741
 30
0.0
 11
9.4303001008115892
 21
8.7755354422934744
 31
0.0
  0
LINE
  5
B555
  8
0
 10
9.4303001008115892
 20
8.7755354422934744
 30
0.0
 11
9.4361771766894762
 21
8.7843932819983941
 31
0.0
  0
LINE
  5
B556
  8
0
 10
9.4361771766894762
 20
8.7843932819983941
 30
0.0
 11
9.4416761389331612
 21
8.7935409448442599
 31
0.0
  0
LINE
  5
B557
  8
0
 10
9.4416761389331612
 20
8.7935409448442599
 30
0.0
 11
9.4468910361115501
 21
8.8029208500745852
 31
0.0
  0
LINE
  5
B558
  8
0
 10
9.4468910361115501
 20
8.8029208500745852
 30
0.0
 11
9.451912078076468
 21
8.8125349170479268
 31
0.0
  0
LINE
  5
B559
  8
0
 10
9.451912078076468
 20
8.8125349170479268
 30
0.0
 11
9.4567738132817958
 21
8.8225693235435614
 31
0.0
  0
LINE
  5
B55A
  8
0
 10
9.4567738132817958
 20
8.8225693235435614
 30
0.0
 11
9.4614973546715682
 21
8.8332639893801428
 31
0.0
  0
LINE
  5
B55B
  8
0
 10
9.4614973546715682
 20
8.8332639893801428
 30
0.0
 11
9.4661076539069384
 21
8.8448607537348831
 31
0.0
  0
LINE
  5
B55C
  8
0
 10
9.4661076539069384
 20
8.8448607537348831
 30
0.0
 11
9.4706258239319432
 21
8.8575956977093497
 31
0.0
  0
LINE
  5
B55D
  8
0
 10
9.4706258239319432
 20
8.8575956977093497
 30
0.0
 11
9.4750768164077215
 21
8.8717106604807476
 31
0.0
  0
LINE
  5
B55E
  8
0
 10
9.4750768164077215
 20
8.8717106604807476
 30
0.0
 11
9.479481744278317
 21
8.8874436425091901
 31
0.0
  0
LINE
  5
B55F
  8
0
 10
9.479481744278317
 20
8.8874436425091901
 30
0.0
 11
9.4838636398463123
 21
8.9050326442547831
 31
0.0
  0
LINE
  5
B560
  8
0
 10
9.4838636398463123
 20
8.9050326442547831
 30
0.0
 11
9.4882512934899736
 21
8.9247022306677941
 31
0.0
  0
LINE
  5
B561
  8
0
 10
9.4882512934899736
 20
8.9247022306677941
 30
0.0
 11
9.4926830923802541
 21
8.9465925149223224
 31
0.0
  0
LINE
  5
B562
  8
0
 10
9.4926830923802541
 20
8.9465925149223224
 30
0.0
 11
9.4972051011223577
 21
8.970830174682618
 31
0.0
  0
LINE
  5
B563
  8
0
 10
9.4972051011223577
 20
8.970830174682618
 30
0.0
 11
9.5018653036800025
 21
8.9975418876129361
 31
0.0
  0
LINE
  5
B564
  8
0
 10
9.5018653036800025
 20
8.9975418876129361
 30
0.0
 11
9.50670592594129
 21
9.0268504926604223
 31
0.0
  0
LINE
  5
B565
  8
0
 10
9.50670592594129
 20
9.0268504926604223
 30
0.0
 11
9.5117768712284807
 21
9.0588845868478955
 31
0.0
  0
LINE
  5
B566
  8
0
 10
9.5117768712284807
 20
9.0588845868478955
 30
0.0
 11
9.5171203654296761
 21
9.0937670091224891
 31
0.0
  0
LINE
  5
B567
  8
0
 10
9.5171203654296761
 20
9.0937670091224891
 30
0.0
 11
9.5227843925086013
 21
9.1316225177899213
 31
0.0
  0
LINE
  5
B568
  8
0
 10
9.5227843925086013
 20
9.1316225177899213
 30
0.0
 11
9.5348053351027318
 21
9.1943106873679241
 31
0.0
  0
LINE
  5
B569
  8
0
 10
9.5348053351027318
 20
9.1943106873679241
 30
0.0
 11
9.5474423917911864
 21
9.2487475345425771
 31
0.0
  0
LINE
  5
B56A
  8
0
 10
9.5474423917911864
 20
9.2487475345425771
 30
0.0
 11
9.5605823204195488
 21
9.2957986900196055
 31
0.0
  0
LINE
  5
B56B
  8
0
 10
9.5605823204195488
 20
9.2957986900196055
 30
0.0
 11
9.5741080401163217
 21
9.33633170386328
 31
0.0
  0
LINE
  5
B56C
  8
0
 10
9.5741080401163217
 20
9.33633170386328
 30
0.0
 11
9.5879101474441875
 21
9.3712122067793295
 31
0.0
  0
LINE
  5
B56D
  8
0
 10
9.5879101474441875
 20
9.3712122067793295
 30
0.0
 11
9.6018696421730922
 21
9.4013058294734755
 31
0.0
  0
LINE
  5
B56E
  8
0
 10
9.6018696421730922
 20
9.4013058294734755
 30
0.0
 11
9.6158752015071833
 21
9.4274801220099924
 31
0.0
  0
LINE
  5
B56F
  8
0
 10
9.6158752015071833
 20
9.4274801220099924
 30
0.0
 11
9.6298116639334985
 21
9.4505987957360595
 31
0.0
  0
LINE
  5
B570
  8
0
 10
9.6298116639334985
 20
9.4505987957360595
 30
0.0
 11
9.6435907389587712
 21
9.4714276747128352
 31
0.0
  0
LINE
  5
B571
  8
0
 10
9.6435907389587712
 20
9.4714276747128352
 30
0.0
 11
9.6572085878659095
 21
9.490319920913393
 31
0.0
  0
LINE
  5
B572
  8
0
 10
9.6572085878659095
 20
9.490319920913393
 30
0.0
 11
9.6706882429574872
 21
9.5075250509491305
 31
0.0
  0
LINE
  5
B573
  8
0
 10
9.6706882429574872
 20
9.5075250509491305
 30
0.0
 11
9.6840565752532193
 21
9.5232925814314555
 31
0.0
  0
LINE
  5
B574
  8
0
 10
9.6840565752532193
 20
9.5232925814314555
 30
0.0
 11
9.6973327783385876
 21
9.5378758676888751
 31
0.0
  0
LINE
  5
B575
  8
0
 10
9.6973327783385876
 20
9.5378758676888751
 30
0.0
 11
9.7105398845161766
 21
9.5515263456913502
 31
0.0
  0
LINE
  5
B576
  8
0
 10
9.7105398845161766
 20
9.5515263456913502
 30
0.0
 11
9.7237009260885827
 21
9.5644916126917323
 31
0.0
  0
LINE
  5
B577
  8
0
 10
9.7237009260885827
 20
9.5644916126917323
 30
0.0
 11
9.7368408547169487
 21
9.5770231046599719
 31
0.0
  0
LINE
  5
B578
  8
0
 10
9.7368408547169487
 20
9.5770231046599719
 30
0.0
 11
9.7499827027038606
 21
9.5893223542437553
 31
0.0
  0
LINE
  5
B579
  8
0
 10
9.7499827027038606
 20
9.5893223542437553
 30
0.0
 11
9.7631610185032116
 21
9.6013855227259732
 31
0.0
  0
LINE
  5
B57A
  8
0
 10
9.7631610185032116
 20
9.6013855227259732
 30
0.0
 11
9.7764180280030821
 21
9.613160787425798
 31
0.0
  0
LINE
  5
B57B
  8
0
 10
9.7764180280030821
 20
9.613160787425798
 30
0.0
 11
9.7897863602988053
 21
9.6245944063038564
 31
0.0
  0
LINE
  5
B57C
  8
0
 10
9.7897863602988053
 20
9.6245944063038564
 30
0.0
 11
9.8033082412784829
 21
9.6356326373207608
 31
0.0
  0
LINE
  5
B57D
  8
0
 10
9.8033082412784829
 20
9.6356326373207608
 30
0.0
 11
9.8170201387545326
 21
9.6462217384371307
 31
0.0
  0
LINE
  5
B57E
  8
0
 10
9.8170201387545326
 20
9.6462217384371307
 30
0.0
 11
9.8309604398979396
 21
9.6563098869721422
 31
0.0
  0
LINE
  5
B57F
  8
0
 10
9.8309604398979396
 20
9.6563098869721422
 30
0.0
 11
9.8451656125211571
 21
9.6658433408864077
 31
0.0
  0
ARC
  5
B580
  8
0
 10
10.40281992288573
 20
8.6163432159660687
 30
0.0
 40
1.1884564956598089
 50
102.452647179168
 51
117.98404564792131
  0
ARC
  5
B581
  8
0
 10
9.9649446282058136
 20
10.36461696711317
 30
0.0
 40
0.6151921313314542
 50
287.1695825500193
 51
344.5213178573153
  0
ARC
  5
B582
  8
0
 10
11.48291836875107
 20
9.9434399801999032
 30
0.0
 40
0.9601283837967439
 50
114.6644997104198
 51
164.47451717064959
  0
LINE
  5
B583
  8
0
 10
11.082252872315991
 20
10.815972886936709
 30
0.0
 11
11.0812951123999
 21
10.83183830470505
 31
0.0
  0
LINE
  5
B584
  8
0
 10
11.0812951123999
 20
10.83183830470505
 30
0.0
 11
11.08407818229635
 21
10.847342883066119
 31
0.0
  0
LINE
  5
B585
  8
0
 10
11.08407818229635
 20
10.847342883066119
 30
0.0
 11
11.090327613732811
 21
10.862492380095579
 31
0.0
  0
LINE
  5
B586
  8
0
 10
11.090327613732811
 20
10.862492380095579
 30
0.0
 11
11.099772777153809
 21
10.87729063451053
 31
0.0
  0
LINE
  5
B587
  8
0
 10
11.099772777153809
 20
10.87729063451053
 30
0.0
 11
11.11213728492827
 21
10.891745323745139
 31
0.0
  0
LINE
  5
B588
  8
0
 10
11.11213728492827
 20
10.891745323745139
 30
0.0
 11
11.12715050750073
 21
10.90585836715799
 31
0.0
  0
LINE
  5
B589
  8
0
 10
11.12715050750073
 20
10.90585836715799
 30
0.0
 11
11.144539895957189
 21
10.919633603466171
 31
0.0
  0
LINE
  5
B58A
  8
0
 10
11.144539895957189
 20
10.919633603466171
 30
0.0
 11
11.16402906266657
 21
10.933078710103869
 31
0.0
  0
LINE
  5
B58B
  8
0
 10
11.16402906266657
 20
10.933078710103869
 30
0.0
 11
11.62970383389267
 21
10.933078710103869
 31
0.0
  0
LINE
  5
B58C
  8
0
 10
11.62970383389267
 20
10.933078710103869
 30
0.0
 11
11.62970383389267
 21
10.4809392553673
 31
0.0
  0
ARC
  5
B58D
  8
0
 10
11.695483225790211
 20
9.7724414222624247
 30
0.0
 40
0.7115448741384622
 50
95.304332471083981
 51
157.9593270069519
  0
LINE
  5
B58E
  8
0
 10
11.035939690363159
 20
10.039459086077191
 30
0.0
 11
10.89381598994861
 21
9.6884082735571102
 31
0.0
  0
ARC
  5
B58F
  8
0
 10
10.313642595778729
 20
9.9232927595651717
 30
0.0
 40
0.6259168387812175
 50
269.52405558791889
 51
337.95932700695221
  0
LINE
  5
B590
  8
0
 10
10.308443291425469
 20
9.2973975156911557
 30
0.0
 11
10.308443291425469
 21
9.0923946677597556
 31
0.0
  0
ARC
  5
B591
  8
0
 10
10.3011489602272
 20
8.7665508296943582
 30
0.0
 40
0.325925473187994
 50
88.717592445214379
 51
145.867621504862
  0
LINE
  5
B592
  8
0
 10
10.031366307761081
 20
8.9494298457163275
 30
0.0
 11
10.031366307761081
 21
7.9367162561434981
 31
0.0
  0
LINE
  5
B593
  8
0
 10
10.031366307761081
 20
7.9367162561434981
 30
0.0
 11
9.7893314723226297
 21
7.9367162561434981
 31
0.0
  0
LINE
  5
B594
  8
0
 10
9.7893314723226297
 20
7.9367162561434981
 30
0.0
 11
9.7807135524363673
 21
7.9550250173450721
 31
0.0
  0
LINE
  5
B595
  8
0
 10
9.7807135524363673
 20
7.9550250173450721
 30
0.0
 11
9.7709958401013672
 21
7.9716197913621372
 31
0.0
  0
LINE
  5
B596
  8
0
 10
9.7709958401013672
 20
7.9716197913621372
 30
0.0
 11
9.760362593738364
 21
7.9866752398226799
 31
0.0
  0
LINE
  5
B597
  8
0
 10
9.760362593738364
 20
7.9866752398226799
 30
0.0
 11
9.7489961524095232
 21
8.0003698630717892
 31
0.0
  0
LINE
  5
B598
  8
0
 10
9.7489961524095232
 20
8.0003698630717892
 30
0.0
 11
9.7370807745356061
 21
8.0128783227374392
 31
0.0
  0
LINE
  5
B599
  8
0
 10
9.7370807745356061
 20
8.0128783227374392
 30
0.0
 11
9.7247987991787674
 21
8.0243733610890686
 31
0.0
  0
LINE
  5
B59A
  8
0
 10
9.7247987991787674
 20
8.0243733610890686
 30
0.0
 11
9.7123325654012032
 21
8.0350315591132162
 31
0.0
  0
LINE
  5
B59B
  8
0
 10
9.7123325654012032
 20
8.0350315591132162
 30
0.0
 11
9.6998663316236318
 21
8.0450294977964134
 31
0.0
  0
LINE
  5
B59C
  8
0
 10
9.6998663316236318
 20
8.0450294977964134
 30
0.0
 11
9.6875498078129141
 21
8.0545149677469468
 31
0.0
  0
LINE
  5
B59D
  8
0
 10
9.6875498078129141
 20
8.0545149677469468
 30
0.0
 11
9.6754002681959719
 21
8.0635359529285608
 31
0.0
  0
LINE
  5
B59E
  8
0
 10
9.6754002681959719
 20
8.0635359529285608
 30
0.0
 11
9.663402357904431
 21
8.0721174050023876
 31
0.0
  0
LINE
  5
B59F
  8
0
 10
9.663402357904431
 20
8.0721174050023876
 30
0.0
 11
9.6515426414284384
 21
8.0802823562710202
 31
0.0
  0
LINE
  5
B5A0
  8
0
 10
9.6515426414284384
 20
8.0802823562710202
 30
0.0
 11
9.6398038445410421
 21
8.0880500003199511
 31
0.0
  0
LINE
  5
B5A1
  8
0
 10
9.6398038445410421
 20
8.0880500003199511
 30
0.0
 11
9.6281706123738644
 21
8.0954452888103248
 31
0.0
  0
LINE
  5
B5A2
  8
0
 10
9.6281706123738644
 20
8.0954452888103248
 30
0.0
 11
9.6166295094170486
 21
8.1024931734032783
 31
0.0
  0
LINE
  5
B5A3
  8
0
 10
9.6166295094170486
 20
8.1024931734032783
 30
0.0
 11
9.6051632614436482
 21
8.1092128476843044
 31
0.0
  0
LINE
  5
B5A4
  8
0
 10
9.6051632614436482
 20
8.1092128476843044
 30
0.0
 11
9.5937565135852871
 21
8.1156235052388936
 31
0.0
  0
LINE
  5
B5A5
  8
0
 10
9.5937565135852871
 20
8.1156235052388936
 30
0.0
 11
9.5823900722564588
 21
8.1217232267085038
 31
0.0
  0
LINE
  5
B5A6
  8
0
 10
9.5823900722564588
 20
8.1217232267085038
 30
0.0
 11
9.5710370664374729
 21
8.1275043346589335
 31
0.0
  0
LINE
  5
B5A7
  8
0
 10
9.5710370664374729
 20
8.1275043346589335
 30
0.0
 11
9.5596763831842964
 21
8.1329572322974357
 31
0.0
  0
LINE
  5
B5A8
  8
0
 10
9.5596763831842964
 20
8.1329572322974357
 30
0.0
 11
9.5482849901943219
 21
8.1380780809069115
 31
0.0
  0
LINE
  5
B5A9
  8
0
 10
9.5482849901943219
 20
8.1380780809069115
 30
0.0
 11
9.5368417745235234
 21
8.1428553643360662
 31
0.0
  0
LINE
  5
B5AA
  8
0
 10
9.5368417745235234
 20
8.1428553643360662
 30
0.0
 11
9.5253217845107478
 21
8.1472833245092531
 31
0.0
  0
LINE
  5
B5AB
  8
0
 10
9.5253217845107478
 20
8.1472833245092531
 30
0.0
 11
9.5137019878534055
 21
8.1513542839922764
 31
0.0
  0
LINE
  5
B5AC
  8
0
 10
9.5137019878534055
 20
8.1513542839922764
 30
0.0
 11
9.5019574328903715
 21
8.1550644040680318
 31
0.0
  0
LINE
  5
B5AD
  8
0
 10
9.5019574328903715
 20
8.1550644040680318
 30
0.0
 11
9.4900324582236948
 21
8.1584309589634643
 31
0.0
  0
LINE
  5
B5AE
  8
0
 10
9.4900324582236948
 20
8.1584309589634643
 30
0.0
 11
9.4778714024554667
 21
8.1614693035469728
 31
0.0
  0
LINE
  5
B5AF
  8
0
 10
9.4778714024554667
 20
8.1614693035469728
 30
0.0
 11
9.4654186041877466
 21
8.1641986314040516
 31
0.0
  0
LINE
  5
B5B0
  8
0
 10
9.4654186041877466
 20
8.1641986314040516
 30
0.0
 11
9.4526164826640553
 21
8.1666419748372832
 31
0.0
  0
LINE
  5
B5B1
  8
0
 10
9.4526164826640553
 20
8.1666419748372832
 30
0.0
 11
9.4394055377693675
 21
8.1688127693565136
 31
0.0
  0
LINE
  5
B5B2
  8
0
 10
9.4394055377693675
 20
8.1688127693565136
 30
0.0
 11
9.4257339468228487
 21
8.1707340472643466
 31
0.0
  0
LINE
  5
B5B3
  8
0
 10
9.4257339468228487
 20
8.1707340472643466
 30
0.0
 11
9.4115383709923819
 21
8.1724250021462588
 31
0.0
  0
LINE
  5
B5B4
  8
0
 10
9.4115383709923819
 20
8.1724250021462588
 30
0.0
 11
9.394344757107941
 21
8.1738990695121068
 31
0.0
  0
LINE
  5
B5B5
  8
0
 10
9.394344757107941
 20
8.1738990695121068
 30
0.0
 11
9.3619824526085509
 21
8.1751658461546306
 31
0.0
  0
LINE
  5
B5B6
  8
0
 10
9.3619824526085509
 20
8.1751658461546306
 30
0.0
 11
9.2998604938025871
 21
8.1762253320738338
 31
0.0
  0
LINE
  5
B5B7
  8
0
 10
9.2998604938025871
 20
8.1762253320738338
 30
0.0
 11
9.1933879169984216
 21
8.1770852047039071
 31
0.0
  0
LINE
  5
B5B8
  8
0
 10
9.1933879169984216
 20
8.1770852047039071
 30
0.0
 11
9.0279737585044586
 21
8.177745464044861
 31
0.0
  0
LINE
  5
B5B9
  8
0
 10
10.923787460248461
 20
10.933078710103869
 30
0.0
 11
3.9504039298630569
 21
10.933078710103869
 31
0.0
  0
LINE
  5
B5BA
  8
0
 10
4.3797038338926688
 20
4.308078708879612
 30
0.0
 11
3.9504039298630551
 21
4.308078708879612
 31
0.0
  0
LINE
  5
B5BB
  8
0
 10
4.0129039298630573
 20
10.683078710103869
 30
0.0
 11
4.0129039298630547
 21
4.558078708879612
 31
0.0
  0
SOLID
  5
B5BC
  8
0
 10
3.9712372631963908
 20
10.683078710103869
 30
0.0
 11
4.0545705965297234
 21
10.683078710103869
 31
0.0
 12
4.0129039298630573
 22
10.933078710103869
 32
0.0
 13
4.0129039298630573
 23
10.933078710103869
 33
0.0
  0
SOLID
  5
B5BD
  8
0
 10
3.971237263196389
 20
4.558078708879612
 30
0.0
 11
4.0545705965297207
 21
4.558078708879612
 31
0.0
 12
4.0129039298630547
 22
4.308078708879612
 32
0.0
 13
4.0129039298630547
 23
4.308078708879612
 33
0.0
  0
LINE
  5
B5BF
  8
0
 10
11.80155004011441
 20
10.751505360167281
 30
0.0
 11
12.93566485694158
 21
9.5531953652505734
 31
0.0
  0
LINE
  5
B5C0
  8
0
 10
4.8015500401144102
 20
4.1265053589430236
 30
0.0
 11
5.9356648569415897
 21
2.928195364026315
 31
0.0
  0
LINE
  5
B5C1
  8
0
 10
12.711129955449559
 20
9.4267424965129791
 30
0.0
 11
6.0742766553227421
 21
3.1454349077322021
 31
0.0
  0
SOLID
  5
B5C2
  8
0
 10
12.682488921079271
 20
9.4570047215024076
 30
0.0
 11
12.739770989819849
 21
9.3964802715235471
 31
0.0
 12
12.892703305386149
 22
9.5985887027347232
 32
0.0
 13
12.892703305386149
 23
9.5985887027347232
 33
0.0
  0
SOLID
  5
B5C3
  8
0
 10
6.045635620952452
 20
3.1756971327216301
 30
0.0
 11
6.1029176896930331
 21
3.1151726827427701
 31
0.0
 12
5.8927033053861537
 22
2.9735887015104612
 32
0.0
 13
5.8927033053861537
 23
2.9735887015104612
 33
0.0
  0
TEXT
  5
B5DA
  8
0
 10
3.780761072720197
 20
6.971769185682219
 30
0.0
 40
0.25
  1
6 5/8"
 50
90.0
  0
TEXT
  5
B5DB
  8
0
 10
7.9630371672260027
 20
11.615870882544559
 30
0.0
 40
0.25
  1
7"
  0
TEXT
  5
B5DC
  8
0
 10
8.7619057533448181
 20
6.0087107061548997
 30
0.0
 40
0.25
  1
9 5/8"
 50
43.42344995010221
  0
ENDSEC
  0
EOF
