  0
SECTION
  2
HEADER
  9
$ACADVER
  1
AC1009
  9
$INSBASE
 10
0.0
 20
0.0
 30
0.0
  9
$EXTMIN
 10
-0.0000303578520224
 20
-0.0000303983652366
 30
-0.0000000000000129
  9
$EXTMAX
 10
10.0005799471432
 20
7.0000000388858314
 30
0.0000000000000024
  9
$LIMMIN
 10
0.0
 20
0.0
  9
$LIMMAX
 10
10.0
 20
7.0
  9
$ORTHOMODE
 70
     1
  9
$REGENMODE
 70
     1
  9
$FILLMODE
 70
     1
  9
$QTEXTMODE
 70
     0
  9
$MIRRTEXT
 70
     1
  9
$DRAGMODE
 70
     2
  9
$LTSCALE
 40
1.0
  9
$OSMODE
 70
    37
  9
$ATTMODE
 70
     1
  9
$TEXTSIZE
 40
0.0021111515439181
  9
$TRACEWID
 40
0.05
  9
$TEXTSTYLE
  7
STANDARD
  9
$CLAYER
  8
0
  9
$CELTYPE
  6
BYLAYER
  9
$CECOLOR
 62
   256
  9
$DIMSCALE
 40
1.0
  9
$DIMASZ
 40
0.125
  9
$DIMEXO
 40
0.125
  9
$DIMDLI
 40
0.125
  9
$DIMRND
 40
0.0
  9
$DIMDLE
 40
0.0
  9
$DIMEXE
 40
0.03125
  9
$DIMTP
 40
0.1
  9
$DIMTM
 40
0.0
  9
$DIMTXT
 40
0.125
  9
$DIMCEN
 40
0.0
  9
$DIMTSZ
 40
0.0
  9
$DIMTOL
 70
     0
  9
$DIMLIM
 70
     0
  9
$DIMTIH
 70
     0
  9
$DIMTOH
 70
     0
  9
$DIMSE1
 70
     0
  9
$DIMSE2
 70
     0
  9
$DIMTAD
 70
     1
  9
$DIMZIN
 70
     8
  9
$DIMBLK
  1

  9
$DIMASO
 70
     1
  9
$DIMSHO
 70
     1
  9
$DIMPOST
  1

  9
$DIMAPOST
  1
"
  9
$DIMALT
 70
     0
  9
$DIMALTD
 70
     2
  9
$DIMALTF
 40
0.0394
  9
$DIMLFAC
 40
1.0
  9
$DIMTOFL
 70
     0
  9
$DIMTVP
 40
0.0
  9
$DIMTIX
 70
     0
  9
$DIMSOXD
 70
     0
  9
$DIMSAH
 70
     0
  9
$DIMBLK1
  1

  9
$DIMBLK2
  1

  9
$DIMSTYLE
  2
STANDARD
  9
$DIMCLRD
 70
   256
  9
$DIMCLRE
 70
   256
  9
$DIMCLRT
 70
   256
  9
$DIMTFAC
 40
1.0
  9
$DIMGAP
 40
0.0625
  9
$LUNITS
 70
     2
  9
$LUPREC
 70
     8
  9
$SKETCHINC
 40
0.1
  9
$FILLETRAD
 40
3.174999999999998
  9
$AUNITS
 70
     0
  9
$AUPREC
 70
     7
  9
$MENU
  1
.
  9
$ELEVATION
 40
0.0
  9
$PELEVATION
 40
0.0
  9
$THICKNESS
 40
0.0
  9
$LIMCHECK
 70
     0
  9
$BLIPMODE
 70
     0
  9
$CHAMFERA
 40
0.0
  9
$CHAMFERB
 40
0.0
  9
$SKPOLY
 70
     0
  9
$TDCREATE
 40
2451702.3929123841
  9
$TDUPDATE
 40
2452499.4733998608
  9
$TDINDWG
 40
3.2845412615999998
  9
$TDUSRTIMER
 40
3.2845410880000001
  9
$USRTIMER
 70
     1
  9
$ANGBASE
 50
0.0
  9
$ANGDIR
 70
     0
  9
$PDMODE
 70
     0
  9
$PDSIZE
 40
0.0
  9
$PLINEWID
 40
0.0
  9
$COORDS
 70
     2
  9
$SPLFRAME
 70
     0
  9
$SPLINETYPE
 70
     6
  9
$SPLINESEGS
 70
     8
  9
$ATTDIA
 70
     0
  9
$ATTREQ
 70
     1
  9
$HANDLING
 70
 22529
  9
$HANDSEED
  5
A112
  9
$SURFTAB1
 70
     6
  9
$SURFTAB2
 70
     6
  9
$SURFTYPE
 70
     6
  9
$SURFU
 70
     6
  9
$SURFV
 70
     6
  9
$UCSNAME
  2

  9
$UCSORG
 10
0.0
 20
0.0
 30
0.0
  9
$UCSXDIR
 10
1.0
 20
0.0
 30
0.0
  9
$UCSYDIR
 10
0.0
 20
1.0
 30
0.0
  9
$PUCSNAME
  2

  9
$PUCSORG
 10
0.0
 20
0.0
 30
0.0
  9
$PUCSXDIR
 10
1.0
 20
0.0
 30
0.0
  9
$PUCSYDIR
 10
0.0
 20
1.0
 30
0.0
  9
$USERI1
 70
     0
  9
$USERI2
 70
     0
  9
$USERI3
 70
     0
  9
$USERI4
 70
     0
  9
$USERI5
 70
     0
  9
$USERR1
 40
0.0
  9
$USERR2
 40
0.0
  9
$USERR3
 40
0.0
  9
$USERR4
 40
0.0
  9
$USERR5
 40
0.0
  9
$WORLDVIEW
 70
     1
  9
$SHADEDGE
 70
     3
  9
$SHADEDIF
 70
    70
  9
$TILEMODE
 70
     1
  9
$MAXACTVP
 70
    48
  9
$PLIMCHECK
 70
     0
  9
$PEXTMIN
 10
0.0
 20
0.0
 30
0.0
  9
$PEXTMAX
 10
0.0
 20
0.0
 30
0.0
  9
$PLIMMIN
 10
0.0
 20
0.0
  9
$PLIMMAX
 10
12.0
 20
9.0
  9
$UNITMODE
 70
     0
  9
$VISRETAIN
 70
     1
  9
$PLINEGEN
 70
     0
  9
$PSLTSCALE
 70
     1
  0
ENDSEC
  0
SECTION
  2
TABLES
  0
TABLE
  2
VPORT
 70
     2
  0
VPORT
  2
*ACTIVE
 70
     0
 10
0.0
 20
0.0
 11
1.0
 21
1.0
 12
5.0002747946455903
 22
3.499984820260297
 13
0.0
 23
0.0
 14
1.0
 24
1.0
 15
0.0
 25
0.0
 16
0.0
 26
0.0
 36
1.0
 17
0.0
 27
0.0
 37
0.0
 40
7.0808000192193488
 41
1.4701348747591521
 42
50.0
 43
0.0
 44
0.0
 50
0.0
 51
0.0
 71
     0
 72
 20000
 73
     1
 74
     0
 75
     0
 76
     0
 77
     0
 78
     0
  0
ENDTAB
  0
TABLE
  2
LTYPE
 70
     1
  0
LTYPE
  2
CONTINUOUS
 70
     0
  3
Solid line
 72
    65
 73
     0
 40
0.0
  0
ENDTAB
  0
TABLE
  2
LAYER
 70
     2
  0
LAYER
  2
0
 70
     0
 62
     7
  6
CONTINUOUS
  0
LAYER
  2
DEFPOINTS
 70
     0
 62
     7
  6
CONTINUOUS
  0
ENDTAB
  0
TABLE
  2
STYLE
 70
     2
  0
STYLE
  2
STANDARD
 70
     0
 40
0.0
 41
1.0
 50
0.0
 71
     0
 42
0.0021111515439181
  3
simplex.shx
  4

  0
STYLE
  2
COSTAND
 70
     0
 40
0.0
 41
1.0
 50
0.0
 71
     0
 42
3.0
  3
R:\WIP\SD\FONTS\Simplex.shx
  4

  0
ENDTAB
  0
TABLE
  2
VIEW
 70
     0
  0
ENDTAB
  0
TABLE
  2
UCS
 70
     0
  0
ENDTAB
  0
TABLE
  2
APPID
 70
     1
  0
APPID
  2
ACAD
 70
     0
  0
ENDTAB
  0
TABLE
  2
DIMSTYLE
 70
     1
  0
DIMSTYLE
  2
STANDARD
 70
     0
  3

  4
"
  5

  6

  7

 40
1.0
 41
0.125
 42
0.125
 43
0.125
 44
0.03125
 45
0.0
 46
0.0
 47
0.1
 48
0.0
140
0.125
141
0.0
142
0.0
143
0.0394
144
1.0
145
0.0
146
1.0
147
0.0625
 71
     0
 72
     0
 73
     0
 74
     0
 75
     0
 76
     0
 77
     1
 78
     8
170
     0
171
     2
172
     0
173
     0
174
     0
175
     0
176
   256
177
   256
178
   256
  0
ENDTAB
  0
ENDSEC
  0
SECTION
  2
BLOCKS
  0
BLOCK
  8
0
  2
$MODEL_SPACE
 70
     0
 10
0.0
 20
0.0
 30
0.0
  3
$MODEL_SPACE
  1

  0
ENDBLK
  5
9903
  8
0
  0
BLOCK
 67
     1
  8
0
  2
$PAPER_SPACE
 70
     0
 10
0.0
 20
0.0
 30
0.0
  3
$PAPER_SPACE
  1

  0
ENDBLK
  5
98FF
 67
     1
  8
0
  0
ENDSEC
  0
SECTION
  2
ENTITIES
  0
TEXT
  5
9911
  8
0
 10
1172.507321116894
 20
-374.4400440153197
 30
599.8012402584792
 40
3.0
  1
 
  7
COSTAND
210
0.577350269189626
220
-0.577350269189626
230
0.577350269189626
  0
TEXT
  5
9912
  8
0
 10
772.73448984001482
 20
-161.4431119421578
 30
-439.3012875610508
 40
3.0
  1
 
  7
COSTAND
210
-0.0000000000000004
220
-1.0
230
0.0000000000000002
  0
TEXT
  5
9913
  8
0
 10
494.82450660688812
 20
-52.690634976270552
 30
719.03518200794144
 40
3.0
  1
 
  7
COSTAND
210
1.0
220
-0.0000000000000007
230
0.0
  0
LINE
  5
9914
  8
0
 10
0.0
 20
7.0
 30
0.0
 11
0.0
 21
0.0
 31
0.0
  0
LINE
  5
9915
  8
0
 10
0.0
 20
0.0
 30
0.0
 11
10.0
 21
0.0
 31
0.0
  0
LINE
  5
9916
  8
0
 10
10.0
 20
0.0
 30
0.0
 11
10.0
 21
7.0
 31
0.0
  0
LINE
  5
9917
  8
0
 10
10.0
 20
7.0
 30
0.0
 11
0.0
 21
7.0
 31
0.0
  0
TEXT
  5
9918
  8
0
 10
8.8292602633421957
 20
3.8844078453406601
 30
0.0
 40
0.0625
  1
3006
 72
     4
 11
8.9378912157231483
 21
3.9156578453406601
 31
0.0
  0
TEXT
  5
9919
  8
0
 10
20.733378968077311
 20
582.74109584933205
 30
0.0
 40
0.125
  1

  0
TEXT
  5
991A
  8
0
 10
20.733378968077311
 20
582.5268101350465
 30
0.0
 40
0.125
  1

  0
TEXT
  5
991B
  8
0
 10
20.733378968077311
 20
582.31252442076072
 30
0.0
 40
0.125
  1

  0
TEXT
  5
991C
  8
0
 10
20.733378968077311
 20
582.09823870647506
 30
0.0
 40
0.125
  1

  0
TEXT
  5
991D
  8
0
 10
9.4202280845904518
 20
6.8172052417185132
 30
0.0
 40
0.125
  1
11040
 72
     2
 11
9.9321328464952128
 21
6.8172052417185132
 31
0.0
  0
TEXT
  5
991E
  8
0
 10
9.0511804655428314
 20
6.5672052417185132
 30
0.0
 40
0.125
  1
GEORGIAN
 72
     2
 11
9.9321328464952128
 21
6.5672052417185132
 31
0.0
  0
TEXT
  5
991F
  8
0
 10
9.2773709417333077
 20
6.3172052417185132
 30
0.0
 40
0.125
  1
020812
 72
     2
 11
9.9321328464952128
 21
6.3172052417185132
 31
0.0
  0
LINE
  5
9920
  8
0
 10
10.0
 20
6.75
 30
0.0
 11
8.9883360811104254
 21
6.7499999999998863
 31
0.0
  0
LINE
  5
9921
  8
0
 10
10.0
 20
6.5
 30
0.0
 11
8.9883360811104254
 21
6.4999999999998863
 31
0.0
  0
LINE
  5
9922
  8
0
 10
10.0
 20
6.25
 30
0.0
 11
8.9883360811104254
 21
6.2499999999998863
 31
0.0
  0
TEXT
  5
9923
  8
0
 10
7.9170288170333194
 20
4.1940052949844331
 30
0.0
 40
0.0625
  1
A R C H I T E C T U R A L  P R O D U C T S
 41
0.85
 72
     1
 11
8.9428472694142727
 21
4.2252552949844331
 31
0.0
 73
     2
  0
TEXT
  5
9924
  8
0
 10
9.9017471501783394
 20
4.3406321449398009
 30
0.0
 40
0.0156255
  1
R
 72
     1
 11
9.9069556501783396
 21
4.348444894939802
 31
0.0
 73
     2
  0
CIRCLE
  5
9925
  8
0
 10
9.9069556501783396
 20
4.348444894939802
 30
0.0
 40
0.015625
  0
TEXT
  5
9926
  8
0
 10
21.664405340269479
 20
582.88423560730655
 30
0.0
 40
0.0625
  1

 72
     1
 11
21.664405340269479
 21
582.91548560730655
 31
0.0
 73
     2
  0
LINE
  5
9927
  8
0
 10
8.9883360811104254
 20
6.2499999999998863
 30
0.0
 11
8.9883360811104271
 21
7.0
 31
0.0
  0
TEXT
  5
9928
  8
0
 10
20.733378968077311
 20
582.99109584933205
 30
0.0
 40
0.125
  1

  0
LINE
  5
9929
  8
0
 10
0.0
 20
0.25
 30
0.0
 11
10.0
 21
0.25
 31
0.0
  0
TEXT
  5
992A
  8
0
 10
1.0674674927910091
 20
0.0590084019956976
 30
0.0
 40
0.125
  1
PRINT BORDER SIZE 7" x 10"  TO ACHIEVE PROPER SCALE
 72
     1
 11
3.9365151118386281
 21
0.0590084019956976
 31
0.0
  0
TEXT
  5
992B
  8
0
 10
12.83537682998336
 20
580.62451063991034
 30
0.0
 40
0.125
  1

  0
TEXT
  5
992C
  8
0
 10
20.733378968077311
 20
583.24109584933205
 30
0.0
 40
0.125
  1

  0
TEXT
  5
992D
  8
0
 10
0.0512918160363185
 20
6.7944884953145666
 30
0.0
 40
0.0625
  1
belonging to Nomaco/Focal Point and may not be reproduced nor
  0
TEXT
  5
992E
  8
0
 10
0.0512918160363185
 20
6.7038963037144841
 30
0.0
 40
0.0625
  1
made accessible to third parties without our prior written consent.
  0
TEXT
  5
992F
  8
0
 10
0.0512918160363185
 20
6.8850806869146481
 30
0.0
 40
0.0625
  1
This document contains confidential and proprietary information
  0
LINE
  5
9930
  8
0
 10
0.0
 20
0.5
 30
0.0
 11
9.2400453739850263
 21
0.5
 31
0.0
  0
TEXT
  5
9931
  8
0
 10
1.5768596967213471
 20
0.3090084019956976
 30
0.0
 40
0.125
  1
ENGINEERING DRAWING AND DIGITAL DATA IN FRACTIONAL (U.S.) UNITS
 72
     1
 11
5.0024549348165843
 21
0.3090084019956976
 31
0.0
  0
LINE
  5
9932
  8
0
 10
7.875
 20
0.53125
 30
0.0
 11
7.875
 21
2.03125
 31
0.0
  0
LINE
  5
9933
  8
0
 10
7.875
 20
0.78125
 30
0.0
 11
10.0
 21
0.78125
 31
0.0
  0
LINE
  5
9934
  8
0
 10
7.875
 20
1.03125
 30
0.0
 11
10.0
 21
1.03125
 31
0.0
  0
LINE
  5
9935
  8
0
 10
7.875
 20
1.28125
 30
0.0
 11
10.0
 21
1.28125
 31
0.0
  0
TEXT
  5
9936
  8
0
 10
7.9192651301360009
 20
0.5902584019956976
 30
0.0
 40
0.125
  1
BLADE ANGLE
  0
TEXT
  5
9937
  8
0
 10
7.9192651301360009
 20
0.8402584019956974
 30
0.0
 40
0.125
  1
TABLE ANGLE
  0
TEXT
  5
9938
  8
0
 10
8.1283992949944306
 20
1.090258401995696
 30
0.0
 40
0.125
  1
MITER SAW DATA
 72
     1
 11
8.9349469140420492
 21
1.090258401995696
 31
0.0
  0
TEXT
  5
9939
  8
0
 10
7.9192651301360009
 20
1.340258401995696
 30
0.0
 40
0.125
  1
REPEAT:  3 5/8"
  0
LINE
  5
993A
  8
0
 10
7.875
 20
1.53125
 30
0.0
 11
10.0
 21
1.53125
 31
0.0
  0
LINE
  5
993B
  8
0
 10
7.875
 20
1.78125
 30
0.0
 11
10.0
 21
1.78125
 31
0.0
  0
TEXT
  5
993C
  8
0
 10
7.9192651301360009
 20
1.590258401995696
 30
0.0
 40
0.125
  1
LENGTH:  12'
  0
TEXT
  5
993D
  8
0
 10
8.2147088188039543
 20
1.840258401995696
 30
0.0
 40
0.125
  1
PRODUCT DATA
 72
     1
 11
8.9349469140420492
 21
1.840258401995696
 31
0.0
  0
LINE
  5
993E
  8
0
 10
7.875
 20
2.03125
 30
0.0
 11
10.0
 21
2.03125
 31
0.0
  0
LINE
  5
993F
  8
0
 10
7.875
 20
2.0
 30
0.0
 11
10.0
 21
2.0
 31
0.0
  0
LINE
  5
9940
  8
0
 10
7.875
 20
1.8125
 30
0.0
 11
10.0
 21
1.8125
 31
0.0
  0
LINE
  5
9941
  8
0
 10
7.875
 20
1.25
 30
0.0
 11
10.0
 21
1.25
 31
0.0
  0
LINE
  5
9942
  8
0
 10
7.875
 20
1.0625
 30
0.0
 11
10.0
 21
1.0625
 31
0.0
  0
TEXT
  5
9943
  8
0
 10
9.4006409116805525
 20
0.5902584019956976
 30
0.0
 40
0.125
  1
32.8%%D
 72
     1
 11
9.6208790069186474
 21
0.5902584019956976
 31
0.0
  0
TEXT
  5
9944
  8
0
 10
9.4006409116805525
 20
0.8402584019956974
 30
0.0
 40
0.125
  1
32.7%%d
 72
     1
 11
9.6208790069186474
 21
0.8402584019956974
 31
0.0
  0
LINE
  5
9945
  8
0
 10
9.2400453739850263
 20
0.5312499999998864
 30
0.0
 11
9.2400453739850263
 21
1.03125
 31
0.0
  0
LINE
  5
9946
  8
0
 10
9.2400453739850263
 20
0.5
 30
0.0
 11
10.0
 21
0.5
 31
0.0
  0
LINE
  5
9947
  8
0
 10
7.875
 20
0.2499999999998863
 30
0.0
 11
7.875
 21
-0.0000000000001137
 31
0.0
  0
LINE
  5
9948
  8
0
 10
9.2400453739850263
 20
0.25
 30
0.0
 11
9.2400453739850263
 21
-0.0000000000001137
 31
0.0
  0
TEXT
  5
9949
  8
0
 10
7.9192651301360009
 20
0.0590084019956976
 30
0.0
 40
0.125
  1
SCALE
  0
TEXT
  5
994A
  8
0
 10
9.4933055806978643
 20
0.0590084019956976
 30
0.0
 40
0.125
  1
1/1
 72
     1
 11
9.6212817711740541
 21
0.0590084019956976
 31
0.0
  0
ARC
  5
994B
  8
0
 10
-9.1540589105830872
 20
4.5410084783318281
 30
0.0
 40
0.228949716906945
210
0.0
220
0.0
230
-1.0
 50
150.0285049999984
 51
161.08358500000091
  0
ARC
  5
994C
  8
0
 10
-9.1254876812655112
 20
4.5173233222092204
 30
0.0
 40
0.2582064810695791
210
0.0
220
0.0
230
-1.0
 50
184.7396419999973
 51
206.15299100000109
  0
ARC
  5
994D
  8
0
 10
-8.9854966627933877
 20
5.2865312610573474
 30
0.0
 40
0.1296512317644414
210
0.0
220
0.0
230
-1.0
 50
15.95685699999988
 51
35.77585599999761
  0
ARC
  5
994E
  8
0
 10
-8.9076862746468031
 20
5.3179159486667231
 30
0.0
 40
0.0215783372515363
210
0.0
220
0.0
230
-1.0
 50
111.5014340000002
 51
139.5739210000001
  0
ARC
  5
994F
  8
0
 10
8.8716272873453192
 20
5.3026929997399721
 30
0.0
 40
0.1147208359244185
 50
12.25384300000144
 51
41.937262000001851
  0
ARC
  5
9950
  8
0
 10
8.6932060690025814
 20
5.3999926755705001
 30
0.0
 40
0.1582521583315984
 50
321.09161298227582
 51
342.10924395059959
  0
LINE
  5
9951
  8
0
 10
7.960523823985409
 20
4.7356916414016723
 30
0.0
 11
8.0748997092553125
 21
4.7356916414016723
 31
0.0
  0
LINE
  5
9952
  8
0
 10
7.9933763712366419
 20
4.7223069738110972
 30
0.0
 11
8.0615157694086612
 21
4.7223069738110972
 31
0.0
  0
LINE
  5
9953
  8
0
 10
7.9933763712366419
 20
4.5203230829645191
 30
0.0
 11
8.0547361063337188
 21
4.5203230829645191
 31
0.0
  0
LINE
  5
9954
  8
0
 10
7.9933763712366419
 20
4.534924538517882
 30
0.0
 11
8.0505646777435906
 21
4.534924538517882
 31
0.0
  0
LINE
  5
9955
  8
0
 10
7.9933763712366419
 20
4.7223069738110972
 30
0.0
 11
7.9933763712366419
 21
4.534924538517882
 31
0.0
  0
LINE
  5
9956
  8
0
 10
7.9678245517621313
 20
4.715006246034247
 30
0.0
 11
7.9678245517621313
 21
4.354842831001406
 31
0.0
  0
LINE
  5
9957
  8
0
 10
7.9933763712366419
 20
4.5203230829645191
 30
0.0
 11
7.9933763712366419
 21
4.3562117174596962
 31
0.0
  0
ARC
  5
9958
  8
0
 10
8.032008661311103
 20
4.3562117174596962
 30
0.0
 40
0.0386468449543974
 50
180.0
 51
214.79552800000249
  0
ARC
  5
9959
  8
0
 10
7.920283219677847
 20
4.359014259591615
 30
0.0
 40
0.0477232680835047
 50
328.61068700000237
 51
354.98506300000213
  0
LINE
  5
995A
  8
0
 10
8.0002724733510888
 20
4.3341574356342081
 30
0.0
 11
7.961022328623276
 21
4.3341574356342081
 31
0.0
  0
ARC
  5
995B
  8
0
 10
-7.863334340945876
 20
4.689758623550345
 30
0.0
 40
0.1074972490113717
210
0.0
220
0.0
230
-1.0
 50
154.7039520000001
 51
166.4159789999984
  0
ARC
  5
995C
  8
0
 10
8.6696347398068951
 20
5.1963056800136611
 30
0.0
 40
0.0193297983684781
 50
303.58637854013671
 51
343.84355974110872
  0
ARC
  5
995D
  8
0
 10
8.6814373513237602
 20
5.2015770224708131
 30
0.0
 40
0.02909338378212
 50
251.50885560391629
 51
313.31489517703852
  0
ARC
  5
995E
  8
0
 10
8.6795421703444031
 20
4.8610186183365132
 30
0.0
 40
0.1487647000985397
 50
74.827085000000451
 51
93.780599201570212
  0
ARC
  5
995F
  8
0
 10
-8.7136115055584185
 20
4.9717448674621201
 30
0.0
 40
0.0440903700510717
210
0.0
220
0.0
230
-1.0
 50
297.97947399999953
 51
324.74037614796919
  0
ARC
  5
9960
  8
0
 10
-8.6904925342654842
 20
4.9172943338714941
 30
0.0
 40
0.064747383402556
210
0.0
220
0.0
230
-1.0
 50
72.501451999999674
 51
97.559066999999729
  0
ARC
  5
9961
  8
0
 10
8.6220853263026065
 20
5.2149663718918164
 30
0.0
 40
0.3452388411446434
 50
276.53313499999939
 51
284.3418149999996
  0
ARC
  5
9962
  8
0
 10
8.9833287134266726
 20
5.4434459661767951
 30
0.0
 40
0.4384970511130299
 50
222.97599100000181
 51
234.03107199999849
  0
ARC
  5
9963
  8
0
 10
8.6597014444707376
 20
5.1943268739280484
 30
0.0
 40
0.0449354156924713
 50
270.47448234597562
 51
334.2733758010491
  0
LINE
  5
9964
  8
0
 10
8.6986403560545664
 20
4.4886873236760012
 30
0.0
 11
8.6634175466054977
 21
4.631778531574807
 31
0.0
  0
LINE
  5
9965
  8
0
 10
8.6270172473694728
 20
4.4886873236760012
 30
0.0
 11
8.6986403560545664
 21
4.4886873236760012
 31
0.0
  0
LINE
  5
9966
  8
0
 10
8.623612860952063
 20
4.475302656085316
 30
0.0
 11
8.7019348531284511
 21
4.475302656085316
 31
0.0
  0
LINE
  5
9967
  8
0
 10
8.6673975785244437
 20
4.7283909136248212
 30
0.0
 11
8.7610887961709771
 21
4.3524092550760498
 31
0.0
  0
ARC
  5
9968
  8
0
 10
-8.0371567223450437
 20
4.5279280077318163
 30
0.0
 40
0.3018143568507184
210
0.0
220
0.0
230
-1.0
 50
171.01236299999761
 51
178.90273499999901
  0
ARC
  5
9969
  8
0
 10
-7.9687138549263219
 20
4.528232204722598
 30
0.0
 40
0.3436705528313635
210
0.0
220
0.0
230
-1.0
 50
170.11247000000279
 51
182.13048099999759
  0
ARC
  5
996A
  8
0
 10
-8.3756217223667129
 20
4.541211518907061
 30
0.0
 40
0.2587064411954368
210
0.0
220
0.0
230
-1.0
 50
3.7304230000010872
 51
18.889442000000461
  0
ARC
  5
996B
  8
0
 10
-8.3339729334251782
 20
4.537662311434131
 30
0.0
 40
0.2436385017400032
210
0.0
220
0.0
230
-1.0
 50
6.5238629999969824
 51
20.99770699999857
  0
ARC
  5
996C
  8
0
 10
-8.2193721752602471
 20
4.4280633377597951
 30
0.0
 40
0.1008544018078365
210
0.0
220
0.0
230
-1.0
 50
281.66125999999957
 51
328.60712600000028
  0
ARC
  5
996D
  8
0
 10
-8.2161781068579316
 20
4.4142573063949131
 30
0.0
 40
0.0718967404279208
210
0.0
220
0.0
230
-1.0
 50
281.84460100000052
 51
326.2472740000004
  0
ARC
  5
996E
  8
0
 10
-8.2953501040226776
 20
4.4948505875856881
 30
0.0
 40
0.2012561468496127
210
0.0
220
0.0
230
-1.0
 50
323.63766500000168
 51
347.05053800000201
  0
ARC
  5
996F
  8
0
 10
-8.3209150228891335
 20
4.4895817210482383
 30
0.0
 40
0.200879175459228
210
0.0
220
0.0
230
-1.0
 50
324.9820570000021
 51
349.27061299999809
  0
LINE
  5
9970
  8
0
 10
8.0663829212598088
 20
4.5470924181457804
 30
0.0
 11
8.0663829212598088
 21
4.5097526014097831
 31
0.0
  0
ARC
  5
9971
  8
0
 10
-8.0547361063337188
 20
4.5086224149825931
 30
0.0
 40
0.0117006679818624
210
0.0
220
0.0
230
-1.0
 50
90.0
 51
174.45879500000001
  0
ARC
  5
9972
  8
0
 10
-8.0505646777435906
 20
4.5513511760154861
 30
0.0
 40
0.0163815173698048
210
0.0
220
0.0
230
-1.0
 50
195.06848800000279
 51
270.0
  0
ARC
  5
9973
  8
0
 10
-8.4137475026193442
 20
4.5270154167598067
 30
0.0
 40
0.324109521939183
210
0.0
220
0.0
230
-1.0
 50
355.37033100000082
 51
6.7915170000004892
  0
LINE
  5
9974
  8
0
 10
8.1223311519960646
 20
4.458268352350383
 30
0.0
 11
8.1226950239945062
 21
4.4562321246471583
 31
0.0
  0
LINE
  5
9975
  8
0
 10
8.1226950239945062
 20
4.4562321246471583
 30
0.0
 11
8.1231629633844982
 21
4.454216273775728
 31
0.0
  0
LINE
  5
9976
  8
0
 10
8.1231629633844982
 20
4.454216273775728
 30
0.0
 11
8.1235479399588542
 21
4.452184412536436
 31
0.0
  0
ARC
  5
9977
  8
0
 10
-8.5065261292937855
 20
4.5270154167598067
 30
0.0
 40
0.3902971107115676
210
0.0
220
0.0
230
-1.0
 50
349.85491799999681
 51
4.559676999999855
  0
ARC
  5
9978
  8
0
 10
-8.4227511513487592
 20
4.5299358534191452
 30
0.0
 40
0.3333271274036853
210
0.0
220
0.0
230
-1.0
 50
346.0804279999968
 51
354.99492799999939
  0
ARC
  5
9979
  8
0
 10
-8.0792479796366781
 20
4.49855698776173
 30
0.0
 40
0.2303651789808797
210
0.0
220
0.0
230
-1.0
 50
190.07226000000131
 51
209.11230400000079
  0
ARC
  5
997A
  8
0
 10
-8.080375255087846
 20
4.5173233222092204
 30
0.0
 40
0.2582064810695791
210
0.0
220
0.0
230
-1.0
 50
184.7396419999973
 51
206.15299100000109
  0
ARC
  5
997B
  8
0
 10
-8.2056796719589151
 20
4.423589895410827
 30
0.0
 40
0.0835282727300794
210
0.0
220
0.0
230
-1.0
 50
206.37842099999841
 51
243.62157900000099
  0
ARC
  5
997C
  8
0
 10
-8.213713237940496
 20
4.4176151171965321
 30
0.0
 40
0.08992950892665
210
0.0
220
0.0
230
-1.0
 50
226.4760059999989
 51
259.16177100000021
  0
ARC
  5
997D
  8
0
 10
-8.214805581679812
 20
4.4217647134667004
 30
0.0
 40
0.0938178451019883
210
0.0
220
0.0
230
-1.0
 50
260.29334799999953
 51
279.70665200000002
  0
ARC
  5
997E
  8
0
 10
-8.214805581679812
 20
4.408380773620137
 30
0.0
 40
0.0658630149497754
210
0.0
220
0.0
230
-1.0
 50
244.85521399999951
 51
281.72511200000019
  0
ARC
  5
997F
  8
0
 10
-8.1554878962379895
 20
4.4768236410387772
 30
0.0
 40
0.1729636434828467
210
0.0
220
0.0
230
-1.0
 50
205.07776900000059
 51
225.9975869999983
  0
ARC
  5
9980
  8
0
 10
-8.0176888426844641
 20
4.5251902348156801
 30
0.0
 40
0.3213397282870517
210
0.0
220
0.0
230
-1.0
 50
178.48115000000081
 51
185.21407099999681
  0
ARC
  5
9981
  8
0
 10
-7.959325957366552
 20
4.5240724200363021
 30
0.0
 40
0.3529260009837038
210
0.0
220
0.0
230
-1.0
 50
181.39897300000311
 51
190.7459399999986
  0
ARC
  5
9982
  8
0
 10
-8.2574528353850631
 20
4.5906522628230251
 30
0.0
 40
0.1311722167179239
210
0.0
220
0.0
230
-1.0
 50
15.164220999999531
 51
52.215913999998691
  0
ARC
  5
9983
  8
0
 10
-8.2289201764993312
 20
4.6059836456054191
 30
0.0
 40
0.116869136203213
210
0.0
220
0.0
230
-1.0
 50
36.106316999998938
 51
68.885398000000023
  0
ARC
  5
9984
  8
0
 10
-8.2951121317356922
 20
4.5519595699968241
 30
0.0
 40
0.2022364180134121
210
0.0
220
0.0
230
-1.0
 50
21.161260000002539
 51
37.421465000000516
  0
ARC
  5
9985
  8
0
 10
-8.0568509303886522
 20
4.704258194944372
 30
0.0
 40
0.0186418902241191
210
0.0
220
0.0
230
-1.0
 50
104.4897629999991
 51
165.5102369999986
  0
LINE
  5
9986
  8
0
 10
8.0748997092553125
 20
4.7356916414016723
 30
0.0
 11
8.0748997092553125
 21
4.7089223062202992
 31
0.0
  0
ARC
  5
9987
  8
0
 10
-8.2101407426597977
 20
4.6434195245490164
 30
0.0
 40
0.0606931215959285
210
0.0
220
0.0
230
-1.0
 50
57.000210000000273
 51
78.239519999999928
  0
ARC
  5
9988
  8
0
 10
-8.2146534831844669
 20
4.6368290749131802
 30
0.0
 40
0.0676387103021665
210
0.0
220
0.0
230
-1.0
 50
96.325964000000056
 51
130.53142199999971
  0
ARC
  5
9989
  8
0
 10
-8.2079189402373256
 20
4.6181828182251321
 30
0.0
 40
0.1018208458356953
210
0.0
220
0.0
230
-1.0
 50
102.88433400000039
 51
137.4627059999977
  0
ARC
  5
998A
  8
0
 10
-8.0579287192480358
 20
4.5291011310547411
 30
0.0
 40
0.2811216840433869
210
0.0
220
0.0
230
-1.0
 50
162.1588269999971
 51
170.58718400000211
  0
ARC
  5
998B
  8
0
 10
-8.2056796719589151
 20
4.6207066344062451
 30
0.0
 40
0.0858017449763375
210
0.0
220
0.0
230
-1.0
 50
128.08877299999921
 51
156.1612599999996
  0
ARC
  5
998C
  8
0
 10
-8.1796409917504942
 20
4.5823785413225551
 30
0.0
 40
0.1470428578019179
210
0.0
220
0.0
230
-1.0
 50
134.63121999999939
 51
150.23159600000031
  0
ARC
  5
998D
  8
0
 10
8.0995834433264466
 20
4.5547691825248631
 30
0.0
 40
0.2102200656853753
 50
8.8870558864557356
 51
28.595275765016879
  0
ARC
  5
998E
  8
0
 10
-8.1089464844054238
 20
4.5410084783318281
 30
0.0
 40
0.228949716906945
210
0.0
220
0.0
230
-1.0
 50
150.0285049999984
 51
161.08358500000091
  0
ARC
  5
998F
  8
0
 10
-8.2135887937170224
 20
4.630440938108447
 30
0.0
 40
0.0741054434584564
210
0.0
220
0.0
230
-1.0
 50
77.675272999999422
 51
96.599917000000019
  0
ARC
  5
9990
  8
0
 10
-8.2133602821020038
 20
4.6327224155388631
 30
0.0
 40
0.0864581700615247
210
0.0
220
0.0
230
-1.0
 50
72.122851000000537
 51
101.5174889999993
  0
LINE
  5
9991
  8
0
 10
8.6270172473694728
 20
4.4886873236760012
 30
0.0
 11
8.6634175466054977
 21
4.631778531574807
 31
0.0
  0
ARC
  5
9992
  8
0
 10
8.6849769625131206
 20
4.5234523821510466
 30
0.0
 40
0.3280779099541784
 50
171.1615180000004
 51
177.78340099999841
  0
ARC
  5
9993
  8
0
 10
-8.6056972592368322
 20
4.5392386049313691
 30
0.0
 40
0.2213673522034357
210
0.0
220
0.0
230
-1.0
 50
4.873011999997221
 51
30.178125000000389
  0
LINE
  5
9994
  8
0
 10
8.6568889552094728
 20
4.6583026170292161
 30
0.0
 11
8.577355997022277
 21
4.3524092550760498
 31
0.0
  0
ARC
  5
9995
  8
0
 10
8.3687037879323523
 20
4.7947051298527841
 30
0.0
 40
0.4834461590804219
 50
285.69779299999902
 51
291.17210499999959
  0
ARC
  5
9996
  8
0
 10
-8.4875087231672737
 20
4.4264106311429714
 30
0.0
 40
0.0844765231580161
210
0.0
220
0.0
230
-1.0
 50
212.0265570000021
 51
257.6405709999994
  0
ARC
  5
9997
  8
0
 10
8.58592882130554
 20
4.5031963557418031
 30
0.0
 40
0.2276455996645332
 50
186.11338500000039
 51
211.2023919999985
  0
ARC
  5
9998
  8
0
 10
-8.6641445628583824
 20
4.5225696286828443
 30
0.0
 40
0.2804870912781062
210
0.0
220
0.0
230
-1.0
 50
342.88321399999802
 51
357.5519719999977
  0
ARC
  5
9999
  8
0
 10
-8.5511084542867444
 20
4.4812526910038724
 30
0.0
 40
0.1604180647206048
210
0.0
220
0.0
230
-1.0
 50
312.70061699999781
 51
345.10475699999802
  0
ARC
  5
999A
  8
0
 10
8.4885130098829666
 20
4.436095448253468
 30
0.0
 40
0.1097779986975987
 50
207.5844410000017
 51
251.9428419999989
  0
ARC
  5
999B
  8
0
 10
-8.4922055829231446
 20
4.4129437284806272
 30
0.0
 40
0.0703371850426035
210
0.0
220
0.0
230
-1.0
 50
259.03024199999919
 51
315.1752159999981
  0
ARC
  5
999C
  8
0
 10
8.4825047554447153
 20
4.4324174300930963
 30
0.0
 40
0.1045185928321354
 50
254.45024699999951
 51
279.36163699999992
  0
ARC
  5
999D
  8
0
 10
8.7157867323650962
 20
4.5227566588899881
 30
0.0
 40
0.3588927740141359
 50
177.86272700000001
 51
187.01057000000031
  0
ARC
  5
999E
  8
0
 10
-8.7166993233371848
 20
4.5257986287970171
 30
0.0
 40
0.3331335475005149
210
0.0
220
0.0
230
-1.0
 50
357.38318399999991
 51
5.5544169999980477
  0
LINE
  5
999F
  8
0
 10
8.623612860952063
 20
4.475302656085316
 30
0.0
 11
8.5928984255636767
 21
4.354565560538731
 31
0.0
  0
ARC
  5
99A0
  8
0
 10
8.4593952448237371
 20
4.3659489321378251
 30
0.0
 40
0.1009548304794062
 50
347.37974199999678
 51
8.9250369999969497
  0
ARC
  5
99A1
  8
0
 10
-8.5506106773928767
 20
4.328073495820262
 30
0.0
 40
0.0174214635413486
210
0.0
220
0.0
230
-1.0
 50
65.224859000000265
 51
114.7751409999991
  0
LINE
  5
99A2
  8
0
 10
8.5676224210639802
 20
4.3341574356342081
 30
0.0
 11
8.595023438034568
 21
4.3341574356342081
 31
0.0
  0
ARC
  5
99A3
  8
0
 10
8.6216443134404965
 20
4.3472531888580761
 30
0.0
 40
0.0296679395208722
 50
165.7274869999988
 51
206.1942030000024
  0
ARC
  5
99A4
  8
0
 10
-8.5192558272872354
 20
4.3716748219054571
 30
0.0
 40
0.0612112753217082
210
0.0
220
0.0
230
-1.0
 50
198.34490800000231
 51
217.8000650000015
  0
ARC
  5
99A5
  8
0
 10
-8.4769957333883212
 20
4.5896792690991761
 30
0.0
 40
0.1320702528100758
210
0.0
220
0.0
230
-1.0
 50
104.676393
 51
118.9264259999986
  0
ARC
  5
99A6
  8
0
 10
-8.4940307648673254
 20
4.6331787110249243
 30
0.0
 40
0.0714615495177856
210
0.0
220
0.0
230
-1.0
 50
67.473939000000655
 51
112.526060999999
  0
ARC
  5
99A7
  8
0
 10
-8.5109013262030366
 20
4.599164684354605
 30
0.0
 40
0.1093741007793294
210
0.0
220
0.0
230
-1.0
 50
28.00316899999774
 51
66.136893000001095
  0
ARC
  5
99A8
  8
0
 10
8.5365142761732855
 20
4.565515985170804
 30
0.0
 40
0.1723523385254661
 50
129.1425410000017
 51
158.0887550000011
  0
ARC
  5
99A9
  8
0
 10
8.611737534410949
 20
4.5331633980455281
 30
0.0
 40
0.2542213549426555
 50
157.65048299999771
 51
170.7880109999976
  0
ARC
  5
99AA
  8
0
 10
8.4987509124310971
 20
4.5941898263919212
 30
0.0
 40
0.1267700932807872
 50
103.5326130000004
 51
124.07927400000059
  0
ARC
  5
99AB
  8
0
 10
8.4897720069975762
 20
4.603063936689975
 30
0.0
 40
0.1162316324619447
 50
79.748801000000199
 51
100.2511989999997
  0
ARC
  5
99AC
  8
0
 10
-8.4868573922900676
 20
4.61678627749518
 30
0.0
 40
0.0893524079371228
210
0.0
220
0.0
230
-1.0
 50
112.747942000001
 51
148.22547099999781
  0
ARC
  5
99AD
  8
0
 10
-8.2847461462441156
 20
4.6557496910883129
 30
0.0
 40
0.278189603479951
210
0.0
220
0.0
230
-1.0
 50
170.5088379999994
 51
178.3340760000018
  0
LINE
  5
99AE
  8
0
 10
8.649145759082657
 20
4.6809369108201482
 30
0.0
 11
8.6673975785244437
 21
4.7283909136248212
 31
0.0
  0
ARC
  5
99AF
  8
0
 10
8.6335887756613143
 20
4.6674656416939762
 30
0.0
 40
0.0205791447438179
 50
7.0349760000016648
 51
40.890001999998361
  0
LINE
  5
99B0
  8
0
 10
8.6568889552094728
 20
4.6583026170292161
 30
0.0
 11
8.6540129109337975
 21
4.6699858191552712
 31
0.0
  0
ARC
  5
99B1
  8
0
 10
8.5563292897203702
 20
4.7350832474201052
 30
0.0
 40
0.033578108016117
 50
242.5992509999993
 51
274.78088400000001
  0
ARC
  5
99B2
  8
0
 10
-8.6447465466215032
 20
4.9650991092827281
 30
0.0
 40
0.1564947968334161
210
0.0
220
0.0
230
-1.0
 50
44.07312200000132
 51
60.97451899999939
  0
ARC
  5
99B3
  8
0
 10
8.5923249632941303
 20
4.990228837238873
 30
0.0
 40
0.1227041875702096
 50
88.477618000000007
 51
145.713487000002
  0
ARC
  5
99B4
  8
0
 10
8.610874430030643
 20
5.0666630614873611
 30
0.0
 40
0.1293506734937293
 50
210.53341399999721
 51
263.5655612222763
  0
ARC
  5
99B5
  8
0
 10
8.5390046161306152
 20
5.0447506897413632
 30
0.0
 40
0.0502310738967587
 50
163.10135100000139
 51
191.17383799999939
  0
ARC
  5
99B6
  8
0
 10
8.6734582305304784
 20
5.0690864489970391
 30
0.0
 40
0.1868642815672821
 50
190.5050639999981
 51
201.3857279999994
  0
ARC
  5
99B7
  8
0
 10
-8.680885585762649
 20
4.9655051904327321
 30
0.0
 40
0.0481999404014621
210
0.0
220
0.0
230
-1.0
 50
299.9342454438476
 51
346.42198815912582
  0
ARC
  5
99B8
  8
0
 10
8.5949480525227013
 20
4.9140219969195851
 30
0.0
 40
0.0241476152753182
 50
20.527675597314641
 51
86.603739140537925
  0
ARC
  5
99B9
  8
0
 10
9.7814018901669115
 20
5.3264334644062492
 30
0.0
 40
1.231946870241077
 50
199.14079692781311
 51
200.79779800000051
  0
ARC
  5
99BA
  8
0
 10
8.6534569145201772
 20
4.896913135494855
 30
0.0
 40
0.0250103779408299
 50
198.43494899999851
 51
265.81508399999967
  0
LINE
  5
99BB
  8
0
 10
8.6613653085342932
 20
4.8719697100017321
 30
0.0
 11
8.6581421303721076
 21
4.8716007437951694
 31
0.0
  0
LINE
  5
99BC
  8
0
 10
8.6581421303721076
 20
4.8716007437951694
 30
0.0
 11
8.6548672823861352
 21
4.871733193202771
 31
0.0
  0
LINE
  5
99BD
  8
0
 10
8.6548672823861352
 20
4.871733193202771
 30
0.0
 11
8.6516317325760035
 21
4.8719697100017321
 31
0.0
  0
ARC
  5
99BE
  8
0
 10
-8.548738919832898
 20
5.044142295759797
 30
0.0
 40
0.1618095112426424
210
0.0
220
0.0
230
-1.0
 50
217.20895080399799
 51
228.0843192545702
  0
LINE
  5
99BF
  8
0
 10
8.6008570339135773
 20
5.0387067758471131
 30
0.0
 11
8.5907173768050225
 21
5.0386674776714226
 31
0.0
  0
LINE
  5
99C0
  8
0
 10
8.5984604707112915
 20
4.9798428737294671
 30
0.0
 11
8.5995567553312249
 21
4.979282465486218
 31
0.0
  0
LINE
  5
99C1
  8
0
 10
8.6000261632384891
 20
4.9719908319036641
 30
0.0
 11
8.5994344062145061
 21
4.9721389882156464
 31
0.0
  0
LINE
  5
99C2
  8
0
 10
8.5851639623648168
 20
4.9845480675991212
 30
0.0
 11
8.5851734102444031
 21
4.9847674582509827
 31
0.0
  0
LINE
  5
99C3
  8
0
 10
8.5851734102444031
 20
4.9847674582509827
 30
0.0
 11
8.5853054517172112
 21
4.984943994446553
 31
0.0
  0
LINE
  5
99C4
  8
0
 10
8.5853054517172112
 20
4.984943994446553
 30
0.0
 11
8.5855314233351177
 21
4.985078145239866
 31
0.0
  0
LINE
  5
99C5
  8
0
 10
8.5855314233351177
 20
4.985078145239866
 30
0.0
 11
8.5858226616499955
 21
4.9851703796846323
 31
0.0
  0
LINE
  5
99C6
  8
0
 10
8.5858226616499955
 20
4.9851703796846323
 30
0.0
 11
8.5861505032137142
 21
4.9852211668344353
 31
0.0
  0
LINE
  5
99C7
  8
0
 10
8.5861505032137142
 20
4.9852211668344353
 30
0.0
 11
8.5864862845781538
 21
4.9852309757433204
 31
0.0
  0
LINE
  5
99C8
  8
0
 10
8.5864862845781538
 20
4.9852309757433204
 30
0.0
 11
8.5868013422951783
 21
4.9852002754648721
 31
0.0
  0
LINE
  5
99C9
  8
0
 10
8.5868013422951783
 20
4.9852002754648721
 30
0.0
 11
8.5870670129166626
 21
4.9851295350526881
 31
0.0
  0
LINE
  5
99CA
  8
0
 10
8.5870670129166626
 20
4.9851295350526881
 30
0.0
 11
8.5876348580306772
 21
4.9849029203810451
 31
0.0
  0
LINE
  5
99CB
  8
0
 10
8.5876348580306772
 20
4.9849029203810451
 30
0.0
 11
8.5882509396371738
 21
4.984649003227787
 31
0.0
  0
LINE
  5
99CC
  8
0
 10
8.5882509396371738
 20
4.984649003227787
 30
0.0
 11
8.5889174075658268
 21
4.9843664411043811
 31
0.0
  0
LINE
  5
99CD
  8
0
 10
8.5889174075658268
 20
4.9843664411043811
 30
0.0
 11
8.5896364116463175
 21
4.9840538915219641
 31
0.0
  0
LINE
  5
99CE
  8
0
 10
8.5896364116463175
 20
4.9840538915219641
 30
0.0
 11
8.5904101017083292
 21
4.983710011991997
 31
0.0
  0
LINE
  5
99CF
  8
0
 10
8.5904101017083292
 20
4.983710011991997
 30
0.0
 11
8.5912406275815272
 21
4.9833334600257331
 31
0.0
  0
LINE
  5
99D0
  8
0
 10
8.5912406275815272
 20
4.9833334600257331
 30
0.0
 11
8.5921301390956017
 21
4.9829228931343961
 31
0.0
  0
LINE
  5
99D1
  8
0
 10
8.5921301390956017
 20
4.9829228931343961
 30
0.0
 11
8.5930807860802272
 21
4.982476968829471
 31
0.0
  0
LINE
  5
99D2
  8
0
 10
8.5930807860802272
 20
4.982476968829471
 30
0.0
 11
8.5940917917539714
 21
4.9819957276199593
 31
0.0
  0
LINE
  5
99D3
  8
0
 10
8.5940917917539714
 20
4.9819957276199593
 30
0.0
 11
8.5951506728909415
 21
4.9814847420067281
 31
0.0
  0
LINE
  5
99D4
  8
0
 10
8.5951506728909415
 20
4.9814847420067281
 30
0.0
 11
8.5962420196541451
 21
4.980950967488293
 31
0.0
  0
LINE
  5
99D5
  8
0
 10
8.5869133953267891
 20
4.980706097150116
 30
0.0
 11
8.5867049678588838
 21
4.981065206120773
 31
0.0
  0
LINE
  5
99D6
  8
0
 10
8.5867049678588838
 20
4.981065206120773
 30
0.0
 11
8.5865047303536883
 21
4.9814216315355662
 31
0.0
  0
LINE
  5
99D7
  8
0
 10
8.5865047303536883
 20
4.9814216315355662
 30
0.0
 11
8.586314585321638
 21
4.981772175300871
 31
0.0
  0
LINE
  5
99D8
  8
0
 10
8.586314585321638
 20
4.981772175300871
 30
0.0
 11
8.5861364352731613
 21
4.9821136393225052
 31
0.0
  0
LINE
  5
99D9
  8
0
 10
8.5861364352731613
 20
4.9821136393225052
 30
0.0
 11
8.5859721827186863
 21
4.9824428255069471
 31
0.0
  0
LINE
  5
99DA
  8
0
 10
8.5859721827186863
 20
4.9824428255069471
 30
0.0
 11
8.5858232949910036
 21
4.9827571168658551
 31
0.0
  0
LINE
  5
99DB
  8
0
 10
8.5856894987123162
 20
4.9830562208331912
 30
0.0
 11
8.5855700853271912
 21
4.9833404259477421
 31
0.0
  0
LINE
  5
99DC
  8
0
 10
8.5855700853271912
 20
4.9833404259477421
 30
0.0
 11
8.5854643462801974
 21
4.983610020748638
 31
0.0
  0
LINE
  5
99DD
  8
0
 10
8.5854643462801974
 20
4.983610020748638
 30
0.0
 11
8.5853715730158982
 21
4.9838652937751231
 31
0.0
  0
LINE
  5
99DE
  8
0
 10
8.5853715730158982
 20
4.9838652937751231
 30
0.0
 11
8.5852910569788534
 21
4.9841065335663162
 31
0.0
  0
LINE
  5
99DF
  8
0
 10
8.5852910569788534
 20
4.9841065335663162
 30
0.0
 11
8.5852220896136391
 21
4.984334028661352
 31
0.0
  0
LINE
  5
99E0
  8
0
 10
8.5852220896136391
 20
4.984334028661352
 30
0.0
 11
8.5851639623648168
 21
4.9845480675991212
 31
0.0
  0
ARC
  5
99E1
  8
0
 10
-8.575495883366246
 20
5.0392009140210803
 30
0.0
 40
0.0554300770104808
210
0.0
220
0.0
230
-1.0
 50
356.93122599999862
 51
38.826167000000673
  0
ARC
  5
99E2
  8
0
 10
8.5049352809166017
 20
4.9632273517225931
 30
0.0
 40
0.0702280234430713
 50
48.160362000000802
 51
58.099843000000789
  0
ARC
  5
99E3
  8
0
 10
8.5413473888035352
 20
5.0376558428360978
 30
0.0
 40
0.0212497517064199
 50
183.83797336945321
 51
219.75545477125709
  0
ARC
  5
99E4
  8
0
 10
8.5383962221492151
 20
5.0185904762853371
 30
0.0
 40
0.0056087229839665
 50
49.398704999999332
 51
130.6012950000005
  0
ARC
  5
99E5
  8
0
 10
-8.5305889845506702
 20
5.0291354868002092
 30
0.0
 40
0.0075372445757027
210
0.0
220
0.0
230
-1.0
 50
236.52372199999871
 51
317.73637843584879
  0
ARC
  5
99E6
  8
0
 10
8.5714518099755743
 20
4.9983111620681484
 30
0.0
 40
0.0318395276075669
 50
90.364936000000014
 51
117.7075509999996
  0
ARC
  5
99E7
  8
0
 10
8.5621235874235495
 20
5.0252828100806211
 30
0.0
 40
0.0056087229839665
 50
167.4711920000004
 51
220.6012949999994
  0
ARC
  5
99E8
  8
0
 10
-8.5542144656654386
 20
5.0191988702666732
 30
0.0
 40
0.0043868408132023
210
0.0
220
0.0
230
-1.0
 50
146.3099320000002
 51
303.69006799999852
  0
ARC
  5
99E9
  8
0
 10
8.5908221719405731
 20
5.011919247065971
 30
0.0
 40
0.0267482306053832
 50
90.224687999999887
 51
137.0340669999992
  0
LINE
  5
99EA
  8
0
 10
8.5973504222065991
 20
4.9804013595630732
 30
0.0
 11
8.5984604707112915
 21
4.9798428737294671
 31
0.0
  0
LINE
  5
99EB
  8
0
 10
8.5994344062145061
 20
4.9721389882156464
 30
0.0
 11
8.5988211210448604
 21
4.9722752078201884
 31
0.0
  0
LINE
  5
99EC
  8
0
 10
8.5988211210448604
 20
4.9722752078201884
 30
0.0
 11
8.5981963866996374
 21
4.9724070083699372
 31
0.0
  0
LINE
  5
99ED
  8
0
 10
8.5981963866996374
 20
4.9724070083699372
 30
0.0
 11
8.5975702821489293
 21
4.9725419075172113
 31
0.0
  0
LINE
  5
99EE
  8
0
 10
8.5975702821489293
 20
4.9725419075172113
 30
0.0
 11
8.5969528863628035
 21
4.9726874229141913
 31
0.0
  0
LINE
  5
99EF
  8
0
 10
8.5969528863628035
 20
4.9726874229141913
 30
0.0
 11
8.59635427831134
 21
4.972851072213416
 31
0.0
  0
LINE
  5
99F0
  8
0
 10
8.59635427831134
 20
4.972851072213416
 30
0.0
 11
8.5957845369646435
 21
4.9730403730671906
 31
0.0
  0
LINE
  5
99F1
  8
0
 10
8.5957845369646435
 20
4.9730403730671906
 30
0.0
 11
8.5952513569362203
 21
4.973260583141605
 31
0.0
  0
LINE
  5
99F2
  8
0
 10
8.5952513569362203
 20
4.973260583141605
 30
0.0
 11
8.5947528954133912
 21
4.973507920157771
 31
0.0
  0
LINE
  5
99F3
  8
0
 10
8.5947528954133912
 20
4.973507920157771
 30
0.0
 11
8.5942849252269422
 21
4.9737763418505621
 31
0.0
  0
LINE
  5
99F4
  8
0
 10
8.5942849252269422
 20
4.9737763418505621
 30
0.0
 11
8.5938432192076277
 21
4.9740598059547612
 31
0.0
  0
LINE
  5
99F5
  8
0
 10
8.5938432192076277
 20
4.9740598059547612
 30
0.0
 11
8.5934235501862162
 21
4.974352270205598
 31
0.0
  0
LINE
  5
99F6
  8
0
 10
8.5934235501862162
 20
4.974352270205598
 30
0.0
 11
8.5930216909934813
 21
4.9746476923378351
 31
0.0
  0
LINE
  5
99F7
  8
0
 10
8.5930216909934813
 20
4.9746476923378351
 30
0.0
 11
8.5926334144601864
 21
4.9749400300862572
 31
0.0
  0
LINE
  5
99F8
  8
0
 10
8.5926334144601864
 20
4.9749400300862572
 30
0.0
 11
8.5922544934171015
 21
4.975223241185855
 31
0.0
  0
LINE
  5
99F9
  8
0
 10
8.5922544934171015
 20
4.975223241185855
 30
0.0
 11
8.5918816385655976
 21
4.975492833144127
 31
0.0
  0
LINE
  5
99FA
  8
0
 10
8.5918816385655976
 20
4.975492833144127
 30
0.0
 11
8.5915153120894381
 21
4.9757505125585331
 31
0.0
  0
LINE
  5
99FB
  8
0
 10
8.5915153120894381
 20
4.9757505125585331
 30
0.0
 11
8.5911569140429922
 21
4.9759995357990174
 31
0.0
  0
LINE
  5
99FC
  8
0
 10
8.5911569140429922
 20
4.9759995357990174
 30
0.0
 11
8.5908078444806382
 21
4.9762431592362191
 31
0.0
  0
LINE
  5
99FD
  8
0
 10
8.5908078444806382
 20
4.9762431592362191
 30
0.0
 11
8.5904695034567347
 21
4.976484639239743
 31
0.0
  0
LINE
  5
99FE
  8
0
 10
8.5904695034567347
 20
4.976484639239743
 30
0.0
 11
8.5901432910256457
 21
4.9767272321797691
 31
0.0
  0
LINE
  5
99FF
  8
0
 10
8.5901432910256457
 20
4.9767272321797691
 30
0.0
 11
8.5898306072417636
 21
4.9769741944268171
 31
0.0
  0
LINE
  5
9A00
  8
0
 10
8.5898306072417636
 20
4.9769741944268171
 30
0.0
 11
8.5895328521594294
 21
4.977228782350605
 31
0.0
  0
LINE
  5
9A01
  8
0
 10
8.5895328521594294
 20
4.977228782350605
 30
0.0
 11
8.5892508643899106
 21
4.9774936934841181
 31
0.0
  0
LINE
  5
9A02
  8
0
 10
8.5892508643899106
 20
4.9774936934841181
 30
0.0
 11
8.5889832367719521
 21
4.9777693900109581
 31
0.0
  0
LINE
  5
9A03
  8
0
 10
8.5889832367719521
 20
4.9777693900109581
 30
0.0
 11
8.5887280007011864
 21
4.9780557752777641
 31
0.0
  0
LINE
  5
9A04
  8
0
 10
8.5887280007011864
 20
4.9780557752777641
 30
0.0
 11
8.5884831875732601
 21
4.9783527526311673
 31
0.0
  0
LINE
  5
9A05
  8
0
 10
8.5884831875732601
 20
4.9783527526311673
 30
0.0
 11
8.5882468287837952
 21
4.9786602254173431
 31
0.0
  0
LINE
  5
9A06
  8
0
 10
8.5882468287837952
 20
4.9786602254173431
 30
0.0
 11
8.5880169557284241
 21
4.9789780969830391
 31
0.0
  0
LINE
  5
9A07
  8
0
 10
8.5880169557284241
 20
4.9789780969830391
 30
0.0
 11
8.5877915998027881
 21
4.9793062706747833
 31
0.0
  0
LINE
  5
9A08
  8
0
 10
8.5877915998027881
 20
4.9793062706747833
 30
0.0
 11
8.5875687924025126
 21
4.979644649838856
 31
0.0
  0
LINE
  5
9A09
  8
0
 10
8.5875687924025126
 20
4.979644649838856
 30
0.0
 11
8.5873472101090371
 21
4.9799926209153682
 31
0.0
  0
LINE
  5
9A0A
  8
0
 10
8.5873472101090371
 20
4.9799926209153682
 30
0.0
 11
8.5871281102469812
 21
4.9803475027168771
 31
0.0
  0
LINE
  5
9A0B
  8
0
 10
8.5962420196541451
 20
4.980950967488293
 30
0.0
 11
8.5973504222065991
 21
4.9804013595630732
 31
0.0
  0
LINE
  5
9A0C
  8
0
 10
8.5871281102469812
 20
4.9803475027168771
 30
0.0
 11
8.5869133953267891
 21
4.980706097150116
 31
0.0
  0
ARC
  5
9A0D
  8
0
 10
8.6192565853867258
 20
5.014774186765746
 30
0.0
 40
0.0239667930493017
 50
19.689399999997601
 51
85.499885999999734
  0
ARC
  5
9A0E
  8
0
 10
8.5949761346747717
 20
5.0052058086947682
 30
0.0
 40
0.0500578708255009
 50
7.4819300195313572
 51
20.637547000001629
  0
LINE
  5
9A0F
  8
0
 10
8.621137075874671
 20
5.0386674776714226
 30
0.0
 11
8.6110287117579851
 21
5.0394629018599044
 31
0.0
  0
LINE
  5
9A10
  8
0
 10
8.6110287117579851
 20
5.0394629018599044
 30
0.0
 11
8.6008570339135773
 21
5.0387067758471131
 31
0.0
  0
LINE
  5
9A11
  8
0
 10
8.6070312158782833
 20
4.9698351326574084
 30
0.0
 11
8.6065261527793027
 21
4.969853466262748
 31
0.0
  0
LINE
  5
9A12
  8
0
 10
8.5995567553312249
 20
4.979282465486218
 30
0.0
 11
8.6006238662294141
 21
4.9787270903321987
 31
0.0
  0
LINE
  5
9A13
  8
0
 10
8.6006238662294141
 20
4.9787270903321987
 30
0.0
 11
8.6016463935688616
 21
4.9781837037652403
 31
0.0
  0
LINE
  5
9A14
  8
0
 10
8.6016463935688616
 20
4.9781837037652403
 30
0.0
 11
8.6026120032495932
 21
4.9776582773373521
 31
0.0
  0
LINE
  5
9A15
  8
0
 10
8.6026120032495932
 20
4.9776582773373521
 30
0.0
 11
8.6035206641198219
 21
4.977152846813051
 31
0.0
  0
LINE
  5
9A16
  8
0
 10
8.6035206641198219
 20
4.977152846813051
 30
0.0
 11
8.6043754207647893
 21
4.976668464009431
 31
0.0
  0
LINE
  5
9A17
  8
0
 10
8.6043754207647893
 20
4.976668464009431
 30
0.0
 11
8.6051793177697213
 21
4.9762061807443843
 31
0.0
  0
LINE
  5
9A18
  8
0
 10
8.6051793177697213
 20
4.9762061807443843
 30
0.0
 11
8.6059353997198542
 21
4.9757670488349932
 31
0.0
  0
LINE
  5
9A19
  8
0
 10
8.6059353997198542
 20
4.9757670488349932
 30
0.0
 11
8.6066467112004297
 21
4.9753521200993829
 31
0.0
  0
LINE
  5
9A1A
  8
0
 10
8.6066467112004297
 20
4.9753521200993829
 30
0.0
 11
8.6073162967966841
 21
4.9749624463544251
 31
0.0
  0
LINE
  5
9A1B
  8
0
 10
8.6073162967966841
 20
4.9749624463544251
 30
0.0
 11
8.6079472010938574
 21
4.9745990794179971
 31
0.0
  0
LINE
  5
9A1C
  8
0
 10
8.6079472010938574
 20
4.9745990794179971
 30
0.0
 11
8.6085428304171163
 21
4.9742627069983874
 31
0.0
  0
LINE
  5
9A1D
  8
0
 10
8.6085428304171163
 20
4.9742627069983874
 30
0.0
 11
8.6091080380513816
 21
4.973952560368839
 31
0.0
  0
LINE
  5
9A1E
  8
0
 10
8.6091080380513816
 20
4.973952560368839
 30
0.0
 11
8.6096480390215078
 21
4.973667506693455
 31
0.0
  0
LINE
  5
9A1F
  8
0
 10
8.6096480390215078
 20
4.973667506693455
 30
0.0
 11
8.6101680483523424
 21
4.973406413136443
 31
0.0
  0
LINE
  5
9A20
  8
0
 10
8.6101680483523424
 20
4.973406413136443
 30
0.0
 11
8.6106732810687419
 21
4.9731681468616671
 31
0.0
  0
LINE
  5
9A21
  8
0
 10
8.6106732810687419
 20
4.9731681468616671
 30
0.0
 11
8.6111689521955501
 21
4.9729515750334441
 31
0.0
  0
LINE
  5
9A22
  8
0
 10
8.6111689521955501
 20
4.9729515750334441
 30
0.0
 11
8.6116602767576378
 21
4.972755564815996
 31
0.0
  0
LINE
  5
9A23
  8
0
 10
8.6116602767576378
 20
4.972755564815996
 30
0.0
 11
8.6121524697798382
 21
4.9725789833731779
 31
0.0
  0
LINE
  5
9A24
  8
0
 10
8.6121524697798382
 20
4.9725789833731779
 30
0.0
 11
8.6126480748127179
 21
4.9724200667789091
 31
0.0
  0
LINE
  5
9A25
  8
0
 10
8.6126480748127179
 20
4.9724200667789091
 30
0.0
 11
8.6131389495096116
 21
4.9722745267446271
 31
0.0
  0
LINE
  5
9A26
  8
0
 10
8.6131389495096116
 20
4.9722745267446271
 30
0.0
 11
8.6136142800495747
 21
4.9721374438917101
 31
0.0
  0
LINE
  5
9A27
  8
0
 10
8.6136142800495747
 20
4.9721374438917101
 30
0.0
 11
8.6140632526116541
 21
4.9720038988409661
 31
0.0
  0
LINE
  5
9A28
  8
0
 10
8.6140632526116541
 20
4.9720038988409661
 30
0.0
 11
8.6144750533748855
 21
4.9718689722138789
 31
0.0
  0
LINE
  5
9A29
  8
0
 10
8.6144750533748855
 20
4.9718689722138789
 30
0.0
 11
8.6148388685183281
 21
4.9717277446313801
 31
0.0
  0
LINE
  5
9A2A
  8
0
 10
8.6148388685183281
 20
4.9717277446313801
 30
0.0
 11
8.6151438842210215
 21
4.971575296714601
 31
0.0
  0
LINE
  5
9A2B
  8
0
 10
8.6151438842210215
 20
4.971575296714601
 30
0.0
 11
8.6153792866620122
 21
4.9714067090848131
 31
0.0
  0
LINE
  5
9A2C
  8
0
 10
8.6153792866620122
 20
4.9714067090848131
 30
0.0
 11
8.6155371744177103
 21
4.9712190086993351
 31
0.0
  0
LINE
  5
9A2D
  8
0
 10
8.6155371744177103
 20
4.9712190086993351
 30
0.0
 11
8.6156212956539733
 21
4.9710170078601532
 31
0.0
  0
LINE
  5
9A2E
  8
0
 10
8.6156212956539733
 20
4.9710170078601532
 30
0.0
 11
8.6156383109340275
 21
4.9708074652050964
 31
0.0
  0
LINE
  5
9A2F
  8
0
 10
8.6156383109340275
 20
4.9708074652050964
 30
0.0
 11
8.6155948808210852
 21
4.9705971393723294
 31
0.0
  0
LINE
  5
9A30
  8
0
 10
8.6155948808210852
 20
4.9705971393723294
 30
0.0
 11
8.6154976658783795
 21
4.9703927890002433
 31
0.0
  0
LINE
  5
9A31
  8
0
 10
8.6154976658783795
 20
4.9703927890002433
 30
0.0
 11
8.6153533266691262
 21
4.9702011727265472
 31
0.0
  0
LINE
  5
9A32
  8
0
 10
8.6153533266691262
 20
4.9702011727265472
 30
0.0
 11
8.6151685237565374
 21
4.9700290491896322
 31
0.0
  0
LINE
  5
9A33
  8
0
 10
8.6151685237565374
 20
4.9700290491896322
 30
0.0
 11
8.6149499177038482
 21
4.9698831770274401
 31
0.0
  0
LINE
  5
9A34
  8
0
 10
8.6149499177038482
 20
4.9698831770274401
 30
0.0
 11
8.6147030405025333
 21
4.9697686037793529
 31
0.0
  0
LINE
  5
9A35
  8
0
 10
8.6147030405025333
 20
4.9697686037793529
 30
0.0
 11
8.6144289098570823
 21
4.9696835325909161
 31
0.0
  0
LINE
  5
9A36
  8
0
 10
8.6144289098570823
 20
4.9696835325909161
 30
0.0
 11
8.6141274149002527
 21
4.969624455508435
 31
0.0
  0
LINE
  5
9A37
  8
0
 10
8.6141274149002527
 20
4.969624455508435
 30
0.0
 11
8.6137984447647842
 21
4.969587864577985
 31
0.0
  0
LINE
  5
9A38
  8
0
 10
8.6137984447647842
 20
4.969587864577985
 30
0.0
 11
8.6134418885834414
 21
4.969570251846676
 31
0.0
  0
LINE
  5
9A39
  8
0
 10
8.6134418885834414
 20
4.969570251846676
 30
0.0
 11
8.6130576354889552
 21
4.96956810936069
 31
0.0
  0
LINE
  5
9A3A
  8
0
 10
8.6130576354889552
 20
4.96956810936069
 30
0.0
 11
8.6126455746141026
 21
4.9695779291668032
 31
0.0
  0
LINE
  5
9A3B
  8
0
 10
8.6126455746141026
 20
4.9695779291668032
 30
0.0
 11
8.6122055950916092
 21
4.969596203311311
 31
0.0
  0
LINE
  5
9A3C
  8
0
 10
8.6122055950916092
 20
4.969596203311311
 30
0.0
 11
8.6117383765756337
 21
4.9696197777631124
 31
0.0
  0
LINE
  5
9A3D
  8
0
 10
8.6117383765756337
 20
4.9696197777631124
 30
0.0
 11
8.6112477608058811
 21
4.9696469141806574
 31
0.0
  0
LINE
  5
9A3E
  8
0
 10
8.6112477608058811
 20
4.9696469141806574
 30
0.0
 11
8.6107383800434611
 21
4.969676228144861
 31
0.0
  0
LINE
  5
9A3F
  8
0
 10
8.6107383800434611
 20
4.969676228144861
 30
0.0
 11
8.6102148665494749
 21
4.9697063352363058
 31
0.0
  0
LINE
  5
9A40
  8
0
 10
8.6102148665494749
 20
4.9697063352363058
 30
0.0
 11
8.6096818525850232
 21
4.969735851035578
 31
0.0
  0
LINE
  5
9A41
  8
0
 10
8.6096818525850232
 20
4.969735851035578
 30
0.0
 11
8.6091439704112318
 21
4.969763391123589
 31
0.0
  0
LINE
  5
9A42
  8
0
 10
8.6091439704112318
 20
4.969763391123589
 30
0.0
 11
8.6086058522891804
 21
4.969787571081155
 31
0.0
  0
LINE
  5
9A43
  8
0
 10
8.6086058522891804
 20
4.969787571081155
 30
0.0
 11
8.6080721304799876
 21
4.969807006489189
 31
0.0
  0
LINE
  5
9A44
  8
0
 10
8.6080721304799876
 20
4.969807006489189
 30
0.0
 11
8.6075467886239672
 21
4.9698214412627522
 31
0.0
  0
LINE
  5
9A45
  8
0
 10
8.6075467886239672
 20
4.9698214412627522
 30
0.0
 11
8.6070312158782833
 21
4.9698351326574084
 31
0.0
  0
LINE
  5
9A46
  8
0
 10
8.6065261527793027
 20
4.969853466262748
 30
0.0
 11
8.6060323398633969
 21
4.969881827668698
 31
0.0
  0
LINE
  5
9A47
  8
0
 10
8.6060323398633969
 20
4.969881827668698
 30
0.0
 11
8.6055505176669413
 21
4.9699256024650804
 31
0.0
  0
LINE
  5
9A48
  8
0
 10
8.6055505176669413
 20
4.9699256024650804
 30
0.0
 11
8.6050814267263078
 21
4.969990176241704
 31
0.0
  0
LINE
  5
9A49
  8
0
 10
8.6050814267263078
 20
4.969990176241704
 30
0.0
 11
8.6046258075778628
 21
4.9700809345886201
 31
0.0
  0
LINE
  5
9A4A
  8
0
 10
8.6046258075778628
 20
4.9700809345886201
 30
0.0
 11
8.6041844007579815
 21
4.9702032630954092
 31
0.0
  0
LINE
  5
9A4B
  8
0
 10
8.6041844007579815
 20
4.9702032630954092
 30
0.0
 11
8.6037566434021713
 21
4.9703603179253832
 31
0.0
  0
LINE
  5
9A4C
  8
0
 10
8.6037566434021713
 20
4.9703603179253832
 30
0.0
 11
8.6033367590424454
 21
4.9705463375349801
 31
0.0
  0
LINE
  5
9A4D
  8
0
 10
8.6033367590424454
 20
4.9705463375349801
 30
0.0
 11
8.6029176678099688
 21
4.970753330953924
 31
0.0
  0
LINE
  5
9A4E
  8
0
 10
8.6029176678099688
 20
4.970753330953924
 30
0.0
 11
8.6024922898359026
 21
4.970973307212148
 31
0.0
  0
LINE
  5
9A4F
  8
0
 10
8.6024922898359026
 20
4.970973307212148
 30
0.0
 11
8.6020535452513815
 21
4.9711982753392441
 31
0.0
  0
LINE
  5
9A50
  8
0
 10
8.6020535452513815
 20
4.9711982753392441
 30
0.0
 11
8.6015943541875846
 21
4.9714202443650466
 31
0.0
  0
LINE
  5
9A51
  8
0
 10
8.6015943541875846
 20
4.9714202443650466
 30
0.0
 11
8.601107636775648
 21
4.9716312233197151
 31
0.0
  0
LINE
  5
9A52
  8
0
 10
8.601107636775648
 20
4.9716312233197151
 30
0.0
 11
8.6005863131467315
 21
4.9718232212323983
 31
0.0
  0
LINE
  5
9A53
  8
0
 10
8.6005863131467315
 20
4.9718232212323983
 30
0.0
 11
8.6000261632384891
 21
4.9719908319036641
 31
0.0
  0
ARC
  5
9A54
  8
0
 10
8.5511038957530712
 20
4.9991710949661821
 30
0.0
 40
0.094342769741877
 50
331.52398972244652
 51
7.6462551798543608
  0
ARC
  5
9A55
  8
0
 10
-8.6819750185259821
 20
4.9340251683597662
 30
0.0
 40
0.0463332770494608
210
0.0
220
0.0
230
-1.0
 50
60.068312362020961
 51
76.328692999999802
  0
ARC
  5
9A56
  8
0
 10
8.6277441141501505
 20
5.003087455705665
 30
0.0
 40
0.0424698564845654
 50
317.1022425865325
 51
8.6291783757405032
  0
ARC
  5
9A57
  8
0
 10
8.6531410736255374
 20
5.1284936469505711
 30
0.0
 40
0.0515410130911455
 50
118.6401079999989
 51
177.05530099999939
  0
ARC
  5
9A58
  8
0
 10
8.5981928107824732
 20
5.116409122118168
 30
0.0
 40
0.0035987279754277
 50
273.09450790218631
 51
5.5421348733659759
  0
LINE
  5
9A59
  8
0
 10
8.5971979370972509
 20
5.1040028782234641
 30
0.0
 11
8.6049324002961072
 21
5.103832586128191
 31
0.0
  0
LINE
  5
9A5A
  8
0
 10
8.5955845286561612
 20
5.1128900879133372
 30
0.0
 11
8.5983870812667842
 21
5.1128156416298172
 31
0.0
  0
LINE
  5
9A5B
  8
0
 10
8.5895005888422364
 20
5.1043725721738147
 30
0.0
 11
8.5971979370972509
 21
5.1040028782234641
 31
0.0
  0
ARC
  5
9A5C
  8
0
 10
-8.5864586189352696
 20
5.041100325852879
 30
0.0
 40
0.0633450207205651
210
0.0
220
0.0
230
-1.0
 50
73.82784100000049
 51
92.752484999999922
  0
ARC
  5
9A5D
  8
0
 10
-8.6745578517097623
 20
5.193758456334761
 30
0.0
 40
0.0147324494728711
210
0.0
220
0.0
230
-1.0
 50
246.9426104235107
 51
288.80904999999962
  0
LINE
  5
9A5E
  8
0
 10
8.6190689428119462
 20
5.1671027562556411
 30
0.0
 11
8.6190689428119462
 21
5.1671027562556411
 31
0.0
  0
ARC
  5
9A5F
  8
0
 10
8.6661575027537552
 20
5.1493929990530161
 30
0.0
 40
0.0060839398139302
 50
180.0
 51
233.13010199999891
  0
ARC
  5
9A60
  8
0
 10
-8.6726286023740329
 20
5.153983608185281
 30
0.0
 40
0.0320367462307218
210
0.0
220
0.0
230
-1.0
 50
358.3182239999997
 51
27.671010000001559
  0
ARC
  5
9A61
  8
0
 10
-11.281603202842501
 20
4.185103093424912
 30
0.0
 40
2.812788767467131
210
0.0
220
0.0
230
-1.0
 50
19.469593999999692
 51
20.128158999999531
  0
LINE
  5
9A62
  8
0
 10
8.6017747163060214
 20
5.116756679108561
 30
0.0
 11
8.6013388004395104
 21
5.124737032438472
 31
0.0
  0
LINE
  5
9A63
  8
0
 10
8.6013388004395104
 20
5.124737032438472
 30
0.0
 11
8.6016684684700984
 21
5.131141907355186
 31
0.0
  0
LINE
  5
9A64
  8
0
 10
8.6049324002961072
 20
5.103832586128191
 30
0.0
 11
8.6126195601351672
 21
5.1043725721738147
 31
0.0
  0
ARC
  5
9A65
  8
0
 10
8.6113350919806742
 20
5.1226469516795961
 30
0.0
 40
0.0183194996335005
 50
274.02034199999991
 51
359.92952600000149
  0
ARC
  5
9A66
  8
0
 10
8.6575484843404471
 20
5.119477591711302
 30
0.0
 40
0.0615680398475214
 50
78.514521519517345
 51
118.2181686236387
  0
ARC
  5
9A67
  8
0
 10
8.6614253368752614
 20
5.1540060999972139
 30
0.0
 40
0.0227045079399746
 50
61.640158362231332
 51
139.13362845344469
  0
ARC
  5
9A68
  8
0
 10
9.0474160330240565
 20
4.8392037642861361
 30
0.0
 40
0.0440183233953805
 50
300.66775632646471
 51
350.33841200000262
  0
ARC
  5
9A69
  8
0
 10
-8.9125534264979471
 20
4.845809496545594
 30
0.0
 40
0.023166274652732
210
0.0
220
0.0
230
-1.0
 50
256.3286929999997
 51
299.93151200000068
  0
ARC
  5
9A6A
  8
0
 10
-8.9174205783490912
 20
4.8275576771038651
 30
0.0
 40
0.0043016947655671
210
0.0
220
0.0
230
-1.0
 50
171.86989800000211
 51
261.86989799999952
  0
ARC
  5
9A6B
  8
0
 10
8.7741154137151511
 20
4.8392037642861361
 30
0.0
 40
0.0440183233953805
 50
189.66158799999729
 51
239.33224367353489
  0
LINE
  5
9A6C
  8
0
 10
8.9813004909073655
 20
4.7356916414016723
 30
0.0
 11
9.0530902529677437
 21
4.7356916414016723
 31
0.0
  0
ARC
  5
9A6D
  8
0
 10
9.0532205191431832
 20
4.9545359051677451
 30
0.0
 40
0.1561585791068568
 50
242.11373735930431
 51
272.23121636225119
  0
LINE
  5
9A6E
  8
0
 10
9.0141537659025897
 20
4.7223069738110972
 30
0.0
 11
9.0372720094515238
 21
4.7223069738110972
 31
0.0
  0
LINE
  5
9A6F
  8
0
 10
9.0141537659025897
 20
4.3560596189643039
 30
0.0
 11
9.0141537659025897
 21
4.7223069738110972
 31
0.0
  0
LINE
  5
9A70
  8
0
 10
8.988601218684078
 20
4.7089223062202992
 30
0.0
 11
8.988601218684078
 21
4.3609267708155812
 31
0.0
  0
LINE
  5
9A71
  8
0
 10
8.7914844796887301
 20
4.6931047904480412
 30
0.0
 11
8.7914844796887301
 21
4.3563638159548601
 31
0.0
  0
LINE
  5
9A72
  8
0
 10
8.8170370269072311
 20
4.3475421032247779
 30
0.0
 11
8.8170370269072311
 21
4.6887732581785713
 31
0.0
  0
LINE
  5
9A73
  8
0
 10
8.8170370269072311
 20
4.3475421032247779
 30
0.0
 11
8.8817895045177728
 21
4.3475421032247779
 31
0.0
  0
LINE
  5
9A74
  8
0
 10
8.7841837519120052
 20
4.3341574356342081
 30
0.0
 11
8.8949100010375481
 21
4.3341574356342081
 31
0.0
  0
LINE
  5
9A75
  8
0
 10
8.7019348531284511
 20
4.475302656085316
 30
0.0
 11
8.7318858850641128
 21
4.3536260430387284
 31
0.0
  0
LINE
  5
9A76
  8
0
 10
8.7282355211757512
 20
4.3341574356342081
 30
0.0
 11
8.7708223721292704
 21
4.3341574356342081
 31
0.0
  0
ARC
  5
9A77
  8
0
 10
8.8191889659060152
 20
4.3716748219054571
 30
0.0
 40
0.0612112753217082
 50
198.34490800000231
 51
217.8000650000015
  0
ARC
  5
9A78
  8
0
 10
-8.7057256716082101
 20
4.348454694196902
 30
0.0
 40
0.0266667232777325
210
0.0
220
0.0
230
-1.0
 50
168.81824599999831
 51
212.42106500000131
  0
LINE
  5
9A79
  8
0
 10
8.7890530869951462
 20
4.3433961456746601
 30
0.0
 11
8.7914844796887301
 21
4.349853418158883
 31
0.0
  0
LINE
  5
9A7A
  8
0
 10
8.7914844796887301
 20
4.349853418158883
 30
0.0
 11
8.7914844796887301
 21
4.3563638159548601
 31
0.0
  0
ARC
  5
9A7B
  8
0
 10
8.748897628735218
 20
4.3563638159548601
 30
0.0
 40
0.0416924535813469
 50
327.81736800000061
 51
333.22801199999878
  0
LINE
  5
9A7C
  8
0
 10
8.7861210064317063
 20
4.337583654371425
 30
0.0
 11
8.7890530869951462
 21
4.3433961456746601
 31
0.0
  0
ARC
  5
9A7D
  8
0
 10
8.8760497876143667
 20
4.378569468531845
 30
0.0
 40
0.0315542519607893
 50
280.48011099999968
 51
326.00354099999799
  0
LINE
  5
9A7E
  8
0
 10
8.9022107288142642
 20
4.3609267708155812
 30
0.0
 11
8.9027179663800915
 21
4.3616785303643111
 31
0.0
  0
LINE
  5
9A7F
  8
0
 10
8.9027179663800915
 20
4.3616785303643111
 30
0.0
 11
8.9037040594958672
 21
4.3593570270141981
 31
0.0
  0
LINE
  5
9A80
  8
0
 10
8.9037040594958672
 20
4.3593570270141981
 30
0.0
 11
8.9034275167770502
 21
4.3584931948898884
 31
0.0
  0
ARC
  5
9A81
  8
0
 10
8.4489637623724381
 20
4.5038971732109268
 30
0.0
 40
0.477157723203368
 50
339.16179600000231
 51
342.2581110000026
  0
ARC
  5
9A82
  8
0
 10
-9.057957404818886
 20
4.3584931948898884
 30
0.0
 40
0.0438713191080104
210
0.0
220
0.0
230
-1.0
 50
326.30993200000017
 51
356.82017000000047
  0
ARC
  5
9A83
  8
0
 10
-8.8444140283259216
 20
4.385870196308697
 30
0.0
 40
0.146328940940977
210
0.0
220
0.0
230
-1.0
 50
189.814787
 51
200.695450999999
  0
LINE
  5
9A84
  8
0
 10
8.9813004909073655
 20
4.3341574356342081
 30
0.0
 11
9.0214537659353056
 21
4.3341574356342081
 31
0.0
  0
ARC
  5
9A85
  8
0
 10
8.9550005506040602
 20
5.0100016416341742
 30
0.0
 40
0.2178203279626347
 50
242.62641915895671
 51
255.1270028687957
  0
ARC
  5
9A86
  8
0
 10
-8.7391633250329281
 20
4.6827620927642783
 30
0.0
 40
0.0533334465554649
210
0.0
220
0.0
230
-1.0
 50
147.57893499999841
 51
168.81824599999831
  0
ARC
  5
9A87
  8
0
 10
8.8949100010375481
 20
4.6760697589689881
 30
0.0
 40
0.0789027318858999
 50
153.4349489999976
 51
170.73496100000179
  0
ARC
  5
9A88
  8
0
 10
8.7683109275960263
 20
4.9545359051677451
 30
0.0
 40
0.1561585791068568
 50
267.76878363774881
 51
297.88626264069558
  0
LINE
  5
9A89
  8
0
 10
8.7402783387744591
 20
4.8100924139397421
 30
0.0
 11
8.7402783387744591
 21
4.8100924139397421
 31
0.0
  0
ARC
  5
9A8A
  8
0
 10
8.7622121197736806
 20
4.819466871503777
 30
0.0
 40
0.0209711631319526
 50
239.800845837184
 51
270.05247339540972
  0
ARC
  5
9A8B
  8
0
 10
8.8481566694022895
 20
4.8036460691471321
 30
0.0
 40
0.014554879937632
 50
62.626419158956772
 51
117.88626264069551
  0
LINE
  5
9A8C
  8
0
 10
8.7841837519120052
 20
4.7113558821458801
 30
0.0
 11
8.8243377546839543
 21
4.7113558821458801
 31
0.0
  0
ARC
  5
9A8D
  8
0
 10
8.8665308961351528
 20
5.0100016416341742
 30
0.0
 40
0.2178203279626347
 50
284.87299713120427
 51
297.37358084104301
  0
LINE
  5
9A8E
  8
0
 10
8.8744081969373347
 20
4.8089085571295964
 30
0.0
 11
8.8744081969373347
 21
4.8089085571295964
 31
0.0
  0
ARC
  5
9A8F
  8
0
 10
8.910765723369602
 20
4.8434390706214572
 30
0.0
 40
0.0454839998051
 50
255.1270028687957
 51
284.87299713120427
  0
ARC
  5
9A90
  8
0
 10
8.973374777336927
 20
4.8036460691471321
 30
0.0
 40
0.014554879937632
 50
62.113737359304501
 51
117.37358084104289
  0
ARC
  5
9A91
  8
0
 10
-8.8949776812292605
 20
4.6977689017240891
 30
0.0
 40
0.0942857844919832
210
0.0
220
0.0
230
-1.0
 50
156.2835929999988
 51
173.20616899999911
  0
ARC
  5
9A92
  8
0
 10
-9.0138262811039915
 20
4.528232204722598
 30
0.0
 40
0.3436705528313635
210
0.0
220
0.0
230
-1.0
 50
170.11247000000279
 51
182.13048099999759
  0
ARC
  5
9A93
  8
0
 10
-8.9908805128823133
 20
4.593398040923371
 30
0.0
 40
0.1292262292702626
210
0.0
220
0.0
230
-1.0
 50
182.1888729999973
 51
225.73610499999839
  0
ARC
  5
9A94
  8
0
 10
8.9675002814944946
 20
4.5907999948543612
 30
0.0
 40
0.1258342145007974
 50
326.60512299999868
 51
357.82709999999798
  0
ARC
  5
9A95
  8
0
 10
-9.4207341485443816
 20
4.541211518907061
 30
0.0
 40
0.2587064411954368
210
0.0
220
0.0
230
-1.0
 50
3.7304230000010872
 51
18.889442000000461
  0
ARC
  5
9A96
  8
0
 10
-9.3790853596028452
 20
4.537662311434131
 30
0.0
 40
0.2436385017400032
210
0.0
220
0.0
230
-1.0
 50
6.5238629999969824
 51
20.99770699999857
  0
ARC
  5
9A97
  8
0
 10
-9.3660274490667952
 20
4.4895817210482383
 30
0.0
 40
0.200879175459228
210
0.0
220
0.0
230
-1.0
 50
324.9820570000021
 51
349.27061299999809
  0
ARC
  5
9A98
  8
0
 10
-9.2644846014379141
 20
4.4280633377597951
 30
0.0
 40
0.1008544018078365
210
0.0
220
0.0
230
-1.0
 50
281.66125999999957
 51
328.60712600000028
  0
ARC
  5
9A99
  8
0
 10
-9.3404625302003481
 20
4.4948505875856881
 30
0.0
 40
0.2012561468496127
210
0.0
220
0.0
230
-1.0
 50
323.63766500000168
 51
347.05053800000201
  0
ARC
  5
9A9A
  8
0
 10
-9.0208453719539143
 20
4.596371602894691
 30
0.0
 40
0.1129203972761334
210
0.0
220
0.0
230
-1.0
 50
237.76556599999981
 51
244.12522600000071
  0
ARC
  5
9A9B
  8
0
 10
-9.057957404818886
 20
4.5251902348156801
 30
0.0
 40
0.0327623069956127
210
0.0
220
0.0
230
-1.0
 50
248.1985910000011
 51
285.068488
  0
ARC
  5
9A9C
  8
0
 10
-9.0527860559770428
 20
4.517281113057491
 30
0.0
 40
0.0239616988413236
210
0.0
220
0.0
230
-1.0
 50
278.0272379999999
 51
303.0848529999987
  0
ARC
  5
9A9D
  8
0
 10
9.0292413544459347
 20
4.5539062851886412
 30
0.0
 40
0.0540735622002935
 50
281.15822300000042
 51
323.23324499999921
  0
LINE
  5
9A9E
  8
0
 10
9.0397055853771011
 20
4.49720483941553
 30
0.0
 11
9.0386860160374631
 21
4.497868541940762
 31
0.0
  0
LINE
  5
9A9F
  8
0
 10
9.0386860160374631
 20
4.497868541940762
 30
0.0
 11
9.0385120852222087
 21
4.5006194142490541
 31
0.0
  0
LINE
  5
9AA0
  8
0
 10
9.0385120852222087
 20
4.5006194142490541
 30
0.0
 11
9.0397055853771011
 21
4.5008552033038951
 31
0.0
  0
ARC
  5
9AA1
  8
0
 10
-9.458859201053011
 20
4.5270154167598067
 30
0.0
 40
0.324109521939183
210
0.0
220
0.0
230
-1.0
 50
355.37033100000082
 51
6.7915170000004892
  0
LINE
  5
9AA2
  8
0
 10
9.1674435781737351
 20
4.458268352350383
 30
0.0
 11
9.1678074501721767
 21
4.4562321246471583
 31
0.0
  0
LINE
  5
9AA3
  8
0
 10
9.1678074501721767
 20
4.4562321246471583
 30
0.0
 11
9.1682746618181756
 21
4.454216273775728
 31
0.0
  0
LINE
  5
9AA4
  8
0
 10
9.1682746618181756
 20
4.454216273775728
 30
0.0
 11
9.1686603661365194
 21
4.452184412536436
 31
0.0
  0
ARC
  5
9AA5
  8
0
 10
-9.5516385554714542
 20
4.5270154167598067
 30
0.0
 40
0.3902971107115676
210
0.0
220
0.0
230
-1.0
 50
349.85491799999681
 51
4.559676999999855
  0
ARC
  5
9AA6
  8
0
 10
-9.4678635775264262
 20
4.5299358534191452
 30
0.0
 40
0.3333271274036853
210
0.0
220
0.0
230
-1.0
 50
346.0804279999968
 51
354.99492799999939
  0
ARC
  5
9AA7
  8
0
 10
-9.1243604058143504
 20
4.49855698776173
 30
0.0
 40
0.2303651789808797
210
0.0
220
0.0
230
-1.0
 50
190.07226000000131
 51
209.11230400000079
  0
ARC
  5
9AA8
  8
0
 10
-9.2588256641181594
 20
4.4176151171965321
 30
0.0
 40
0.08992950892665
210
0.0
220
0.0
230
-1.0
 50
226.4760059999989
 51
259.16177100000021
  0
ARC
  5
9AA9
  8
0
 10
-9.2599180078574754
 20
4.408380773620137
 30
0.0
 40
0.0658630149497754
210
0.0
220
0.0
230
-1.0
 50
244.85521399999951
 51
281.72511200000019
  0
ARC
  5
9AAA
  8
0
 10
-9.2599180078574754
 20
4.4217647134667004
 30
0.0
 40
0.0938178451019883
210
0.0
220
0.0
230
-1.0
 50
260.29334799999953
 51
279.70665200000002
  0
ARC
  5
9AAB
  8
0
 10
-9.2612905330355986
 20
4.4142573063949131
 30
0.0
 40
0.0718967404279208
210
0.0
220
0.0
230
-1.0
 50
281.84460100000052
 51
326.2472740000004
  0
ARC
  5
9AAC
  8
0
 10
-9.2507920981365821
 20
4.423589895410827
 30
0.0
 40
0.0835282727300794
210
0.0
220
0.0
230
-1.0
 50
206.37842099999841
 51
243.62157900000099
  0
ARC
  5
9AAD
  8
0
 10
-9.2006003224156601
 20
4.4768236410387772
 30
0.0
 40
0.1729636434828467
210
0.0
220
0.0
230
-1.0
 50
205.07776900000059
 51
225.9975869999983
  0
ARC
  5
9AAE
  8
0
 10
-9.0044383835442172
 20
4.5240724200363021
 30
0.0
 40
0.3529260009837038
210
0.0
220
0.0
230
-1.0
 50
181.39897300000311
 51
190.7459399999986
  0
ARC
  5
9AAF
  8
0
 10
-9.3025652615627354
 20
4.5906522628230251
 30
0.0
 40
0.1311722167179239
210
0.0
220
0.0
230
-1.0
 50
15.164220999999531
 51
52.215913999998691
  0
ARC
  5
9AB0
  8
0
 10
-9.2740326026769981
 20
4.6059836456054191
 30
0.0
 40
0.116869136203213
210
0.0
220
0.0
230
-1.0
 50
36.106316999998938
 51
68.885398000000023
  0
ARC
  5
9AB1
  8
0
 10
8.9662602057238132
 20
4.6301178197740001
 30
0.0
 40
0.128203021210647
 50
0.4164509999972098
 51
35.888960000001347
  0
ARC
  5
9AB2
  8
0
 10
-9.0402783199026437
 20
4.6644389544109091
 30
0.0
 40
0.0723952450657847
210
0.0
220
0.0
230
-1.0
 50
100.1933809999995
 51
161.82479299999909
  0
ARC
  5
9AB3
  8
0
 10
-8.9601813601178613
 20
4.6269645050355122
 30
0.0
 40
0.1605366869920965
210
0.0
220
0.0
230
-1.0
 50
158.03154799999879
 51
174.62583799999891
  0
ARC
  5
9AB4
  8
0
 10
8.7787082060794752
 20
4.6170562705178781
 30
0.0
 40
0.3160614010776694
 50
354.36622600000231
 51
2.537458999998476
  0
ARC
  5
9AB5
  8
0
 10
-8.8754413936329701
 20
4.6152310885736361
 30
0.0
 40
0.2460313240017499
210
0.0
220
0.0
230
-1.0
 50
173.7536839999984
 51
186.2463160000014
  0
ARC
  5
9AB6
  8
0
 10
-9.340224557913368
 20
4.5519595699968241
 30
0.0
 40
0.2022364180134121
210
0.0
220
0.0
230
-1.0
 50
21.161260000002539
 51
37.421465000000516
  0
ARC
  5
9AB7
  8
0
 10
9.0593193269655359
 20
4.819466871503777
 30
0.0
 40
0.0209711631319526
 50
269.94752660459
 51
300.19915416281572
  0
ARC
  5
9AB8
  8
0
 10
9.0322112776972023
 20
4.6723502594010142
 30
0.0
 40
0.0502121525528398
 50
40.969227999999809
 51
84.215621000000283
  0
ARC
  5
9AB9
  8
0
 10
-9.2597659093621321
 20
4.6368290749131802
 30
0.0
 40
0.0676387103021665
210
0.0
220
0.0
230
-1.0
 50
96.325964000000056
 51
130.53142199999971
  0
ARC
  5
9ABA
  8
0
 10
-9.2530313664149926
 20
4.6181828182251321
 30
0.0
 40
0.1018208458356953
210
0.0
220
0.0
230
-1.0
 50
102.88433400000039
 51
137.4627059999977
  0
ARC
  5
9ABB
  8
0
 10
-9.2552531688374717
 20
4.6434195245490164
 30
0.0
 40
0.0606931215959285
210
0.0
220
0.0
230
-1.0
 50
57.000210000000273
 51
78.239519999999928
  0
ARC
  5
9ABC
  8
0
 10
-9.2507920981365821
 20
4.6207066344062451
 30
0.0
 40
0.0858017449763375
210
0.0
220
0.0
230
-1.0
 50
128.08877299999921
 51
156.1612599999996
  0
ARC
  5
9ABD
  8
0
 10
-9.2247534179281594
 20
4.5823785413225551
 30
0.0
 40
0.1470428578019179
210
0.0
220
0.0
230
-1.0
 50
134.63121999999939
 51
150.23159600000031
  0
ARC
  5
9ABE
  8
0
 10
-9.1397747514122951
 20
4.5530992170959026
 30
0.0
 40
0.2153423596532529
210
0.0
220
0.0
230
-1.0
 50
151.64118499999981
 51
170.87613400000231
  0
ARC
  5
9ABF
  8
0
 10
-9.2587012198946912
 20
4.630440938108447
 30
0.0
 40
0.0741054434584564
210
0.0
220
0.0
230
-1.0
 50
77.675272999999422
 51
96.599917000000019
  0
ARC
  5
9AC0
  8
0
 10
-9.2584727082796761
 20
4.6327224155388631
 30
0.0
 40
0.0864581700615247
210
0.0
220
0.0
230
-1.0
 50
72.122851000000537
 51
101.5174889999993
  0
ARC
  5
9AC1
  8
0
 10
-9.0150772730346276
 20
5.2583843064899121
 30
0.0
 40
0.0136954142773148
210
0.0
220
0.0
230
-1.0
 50
112.1340119999995
 51
182.92360400000081
  0
ARC
  5
9AC2
  8
0
 10
-9.0354468275073412
 20
5.5381509312110211
 30
0.0
 40
0.2539593671037781
210
0.0
220
0.0
230
-1.0
 50
263.81138399999998
 51
272.6087950000001
  0
ARC
  5
9AC3
  8
0
 10
-8.9806920969259743
 20
5.1658196365505091
 30
0.0
 40
0.1196680396152196
210
0.0
220
0.0
230
-1.0
 50
103.8242999999996
 51
113.0455979999996
  0
LINE
  5
9AC4
  8
0
 10
9.0175283148161256
 20
5.2721721442546814
 30
0.0
 11
9.0302289030497001
 21
5.2747920226433962
 31
0.0
  0
ARC
  5
9AC5
  8
0
 10
8.9374657218994251
 20
5.2103114013685854
 30
0.0
 40
0.102788772510043
 50
319.99137528222752
 51
345.40900459038647
  0
LINE
  5
9AC6
  8
0
 10
9.0314733452843718
 20
5.0974844752433892
 30
0.0
 11
9.0258093137566409
 21
5.0900425651312844
 31
0.0
  0
LINE
  5
9AC7
  8
0
 10
9.0203039304202264
 20
5.0055456651413106
 30
0.0
 11
9.0315446641960673
 21
5.0064262353774884
 31
0.0
  0
LINE
  5
9AC8
  8
0
 10
9.0188346152905297
 20
4.895210214542085
 30
0.0
 11
9.033695147706851
 21
4.8762321065913721
 31
0.0
  0
LINE
  5
9AC9
  8
0
 10
9.0323648316805478
 20
4.9433155482238362
 30
0.0
 11
9.0207951576181262
 21
4.9413135244884643
 31
0.0
  0
ARC
  5
9ACA
  8
0
 10
9.0358996210660543
 20
5.2059741175449972
 30
0.0
 40
0.0309051368185447
 50
52.243595062829897
 51
126.0030158204668
  0
ARC
  5
9ACB
  8
0
 10
-9.0135453719211913
 20
5.2668115819737951
 30
0.0
 40
0.0177373044359952
210
0.0
220
0.0
230
-1.0
 50
210.96375700000019
 51
292.16634599999878
  0
LINE
  5
9ACC
  8
0
 10
9.0258093137566409
 20
5.0900425651312844
 30
0.0
 11
9.0220097623489206
 21
5.078640272188065
 31
0.0
  0
LINE
  5
9ACD
  8
0
 10
8.9880910701422625
 20
5.076716844804305
 30
0.0
 11
8.9895989557038014
 21
5.087419048022408
 31
0.0
  0
LINE
  5
9ACE
  8
0
 10
8.9453164612375549
 20
5.0810141731059231
 30
0.0
 11
8.9501101109450172
 21
5.0741413587993511
 31
0.0
  0
ARC
  5
9ACF
  8
0
 10
-8.9123321923228946
 20
5.0830795105689504
 30
0.0
 40
0.0179425282431159
210
0.0
220
0.0
230
-1.0
 50
158.10020099999781
 51
259.5213870000004
  0
ARC
  5
9AD0
  8
0
 10
2.3054944894973461
 20
3.6813608820154951
 30
0.0
 40
6.715989841685821
 50
12.020444000001859
 51
12.5091040000021
  0
ARC
  5
9AD1
  8
0
 10
8.8097362991305204
 20
5.213882033336513
 30
0.0
 40
0.1508496866496055
 50
236.18175400000169
 51
257.42106500000028
  0
ARC
  5
9AD2
  8
0
 10
-12.09179331713082
 20
8.8105151269168136
 30
0.0
 40
4.9720510540866432
210
0.0
220
0.0
230
-1.0
 50
311.0653919999998
 51
313.01071529566309
  0
ARC
  5
9AD3
  8
0
 10
9.2943148278700924
 20
5.3665867394342941
 30
0.0
 40
0.5254311657485152
 50
208.56810299999711
 51
214.64690200000121
  0
ARC
  5
9AD4
  8
0
 10
8.9460143677305624
 20
4.912122985029665
 30
0.0
 40
0.1667683588373936
 50
119.7448810000009
 51
125.19750300000059
  0
ARC
  5
9AD5
  8
0
 10
8.8632742417491048
 20
5.1420922712761667
 30
0.0
 40
0.09903795279162
 50
264.35945099999969
 51
280.61965500000008
  0
ARC
  5
9AD6
  8
0
 10
8.8534351429112697
 20
4.831837539549606
 30
0.0
 40
0.0267482306053832
 50
42.965933000000753
 51
89.7753119999999
  0
ARC
  5
9AD7
  8
0
 10
-8.7034041682581567
 20
4.8864358051716863
 30
0.0
 40
0.0882113053500125
210
0.0
220
0.0
230
-1.0
 50
121.046586
 51
146.4073529999998
  0
ARC
  5
9AD8
  8
0
 10
8.6880589583399122
 20
4.8677109521317981
 30
0.0
 40
0.1402260797831279
 50
28.789011999997768
 51
77.471192000000713
  0
ARC
  5
9AD9
  8
0
 10
8.7520036401139052
 20
4.8930073334633981
 30
0.0
 40
0.0188609411671804
 50
307.5507999999993
 51
29.82933499999946
  0
ARC
  5
9ADA
  8
0
 10
-8.7735979877333712
 20
4.8382649745300332
 30
0.0
 40
0.0053008872732856
210
0.0
220
0.0
230
-1.0
 50
211.86597799999711
 51
9.2461130000011398
  0
ARC
  5
9ADB
  8
0
 10
-8.7723600951946814
 20
4.8710440196376803
 30
0.0
 40
0.0112982255515869
210
0.0
220
0.0
230
-1.0
 50
297.46491099999861
 51
38.34557500000075
  0
ARC
  5
9ADC
  8
0
 10
8.7380200392138292
 20
4.9095191170088111
 30
0.0
 40
0.0148277839364626
 50
66.085250000001281
 51
142.9294577609416
  0
ARC
  5
9ADD
  8
0
 10
8.6838002004701575
 20
4.915164954936583
 30
0.0
 40
0.0198637723948833
 50
352.66540846050913
 51
62.650123999999352
  0
ARC
  5
9ADE
  8
0
 10
-8.6728498365490818
 20
4.9699196855178771
 30
0.0
 40
0.0741178151064034
210
0.0
220
0.0
230
-1.0
 50
223.97405474886031
 51
234.3529789999981
  0
ARC
  5
9ADF
  8
0
 10
-8.7105695356514552
 20
4.9145565609550159
 30
0.0
 40
0.0073261988166071
210
0.0
220
0.0
230
-1.0
 50
221.6335389999993
 51
344.74623610313921
  0
ARC
  5
9AE0
  8
0
 10
-8.7141682297160301
 20
4.8649506191517231
 30
0.0
 40
0.0168669226157249
210
0.0
220
0.0
230
-1.0
 50
67.093030000000098
 51
155.40798099999881
  0
ARC
  5
9AE1
  8
0
 10
8.6514803618246514
 20
4.7895337810109586
 30
0.0
 40
0.1624768524877828
 50
43.994913999999973
 51
55.276012999998258
  0
LINE
  5
9AE2
  8
0
 10
8.7695001766399532
 20
4.8349121755577471
 30
0.0
 11
8.7695001766399532
 21
4.8349121755577471
 31
0.0
  0
ARC
  5
9AE3
  8
0
 10
9.1316473064551236
 20
4.8640605882434311
 30
0.0
 40
0.4022204683564758
 50
178.8732990000031
 51
184.5981099999978
  0
ARC
  5
9AE4
  8
0
 10
-8.7858393695049202
 20
4.8510725411311979
 30
0.0
 40
0.0211722561012764
210
0.0
220
0.0
230
-1.0
 50
325.61965500000082
 51
28.02068400000239
  0
ARC
  5
9AE5
  8
0
 10
8.8214689878482435
 20
4.8791831084988626
 30
0.0
 40
0.0040855547984933
 50
1.2188750000012081
 51
141.91122700000059
  0
ARC
  5
9AE6
  8
0
 10
-8.7978726164933576
 20
4.9087768181319662
 30
0.0
 40
0.0338873992147917
210
0.0
220
0.0
230
-1.0
 50
233.0272379999993
 51
258.08485299999933
  0
ARC
  5
9AE7
  8
0
 10
8.8056434668920573
 20
4.8674344094130211
 30
0.0
 40
0.0082220516767683
 50
95.403790999999785
 51
190.8564130000025
  0
ARC
  5
9AE8
  8
0
 10
8.7714082060467575
 20
4.9285496225271572
 30
0.0
 40
0.0401074271561387
 50
337.71441199999703
 51
9.6052040000027841
  0
ARC
  5
9AE9
  8
0
 10
-8.6610560173356177
 20
4.8933566505820627
 30
0.0
 40
0.1231677604962232
210
0.0
220
0.0
230
-1.0
 50
160.11919100000131
 51
181.4587560000019
  0
ARC
  5
9AEA
  8
0
 10
-8.8669246056374682
 20
4.8961533707620211
 30
0.0
 40
0.060880879547124
210
0.0
220
0.0
230
-1.0
 50
357.85241499999842
 51
16.397617999997738
  0
LINE
  5
9AEB
  8
0
 10
8.7990105899535092
 20
4.8707959902292233
 30
0.0
 11
8.7990105899535092
 21
4.8707959902292233
 31
0.0
  0
LINE
  5
9AEC
  8
0
 10
8.7841837519120052
 20
4.890221529443461
 30
0.0
 11
8.7839952662168166
 21
4.8828225562272092
 31
0.0
  0
LINE
  5
9AED
  8
0
 10
8.7839952662168166
 20
4.8828225562272092
 30
0.0
 11
8.8063632057049759
 21
4.886475103347375
 31
0.0
  0
LINE
  5
9AEE
  8
0
 10
8.8063632057049759
 20
4.886475103347375
 30
0.0
 11
8.8060859352421605
 21
4.8938718933318324
 31
0.0
  0
ARC
  5
9AEF
  8
0
 10
8.8494332786724161
 20
4.7931841448993282
 30
0.0
 40
0.0829227897246739
 50
135.5201810000006
 51
149.34263499999781
  0
ARC
  5
9AF0
  8
0
 10
-8.7415969009584984
 20
4.8847459836108547
 30
0.0
 40
0.0590637027869106
210
0.0
220
0.0
230
-1.0
 50
198.6215790000025
 51
214.50852300000159
  0
ARC
  5
9AF1
  8
0
 10
-8.8705749695258262
 20
4.91090619706676
 30
0.0
 40
0.0550247236042178
210
0.0
220
0.0
230
-1.0
 50
288.03428599999961
 51
324.90418299999811
  0
ARC
  5
9AF2
  8
0
 10
-8.6876863534135076
 20
4.878809048084344
 30
0.0
 40
0.1032923441973898
210
0.0
220
0.0
230
-1.0
 50
96.29390800000013
 51
126.3419160000003
  0
ARC
  5
9AF3
  8
0
 10
8.8515277258954423
 20
5.0458270231126781
 30
0.0
 40
0.0030507028349277
 50
122.4711920000004
 51
311.26860299999788
  0
ARC
  5
9AF4
  8
0
 10
8.824540067515084
 20
5.0384644370961951
 30
0.0
 40
0.0168334463918683
 50
238.7994850000004
 51
269.30972299999951
  0
ARC
  5
9AF5
  8
0
 10
8.9008338371721631
 20
5.1042444892303802
 30
0.0
 40
0.1169215337709885
 50
203.8764569999976
 51
222.4805659999999
  0
ARC
  5
9AF6
  8
0
 10
-8.7707998120653663
 20
5.036233901745728
 30
0.0
 40
0.031021543355072
210
0.0
220
0.0
230
-1.0
 50
101.30993199999961
 51
138.1798300000018
  0
LINE
  5
9AF7
  8
0
 10
8.8243377546839543
 20
5.021632446192366
 30
0.0
 11
8.8318153242519095
 21
5.0215422059367212
 31
0.0
  0
LINE
  5
9AF8
  8
0
 10
8.8318153242519095
 20
5.0215422059367212
 30
0.0
 11
8.8369946782777191
 21
5.031445346246298
 31
0.0
  0
LINE
  5
9AF9
  8
0
 10
8.8292041787910982
 20
5.0581353573319321
 30
0.0
 11
8.827606780717943
 21
5.058774316561081
 31
0.0
  0
LINE
  5
9AFA
  8
0
 10
8.827606780717943
 20
5.058774316561081
 30
0.0
 11
8.8268513824491812
 21
5.060655534793109
 31
0.0
  0
LINE
  5
9AFB
  8
0
 10
8.8268513824491812
 20
5.060655534793109
 30
0.0
 11
8.8255538149027384
 21
5.061785721220299
 31
0.0
  0
LINE
  5
9AFC
  8
0
 10
8.8158202389444487
 20
5.024066022117835
 30
0.0
 11
8.8153297394905543
 21
5.0243629416686391
 31
0.0
  0
ARC
  5
9AFD
  8
0
 10
8.8231209667211665
 20
5.042925507797122
 30
0.0
 40
0.0163815173698048
 50
344.9315119999971
 51
68.198591000001144
  0
LINE
  5
9AFE
  8
0
 10
8.8369946782777191
 20
5.031445346246298
 30
0.0
 11
8.8389384824933881
 21
5.0386674776714226
 31
0.0
  0
ARC
  5
9AFF
  8
0
 10
8.9517329800580612
 20
4.9860850629206652
 30
0.0
 40
0.0529317318691863
 50
204.1325169999981
 51
243.07312100000109
  0
ARC
  5
9B00
  8
0
 10
8.9453014906967372
 20
4.8960323305483371
 30
0.0
 40
0.0237953004335853
 50
79.43378225686908
 51
114.5137970194357
  0
ARC
  5
9B01
  8
0
 10
8.9460143677305624
 20
4.9951673080016681
 30
0.0
 40
0.0591612204824928
 50
252.03086000000081
 51
277.0884759999995
  0
ARC
  5
9B02
  8
0
 10
8.9379182157652561
 20
4.9126382277794383
 30
0.0
 40
0.0056254610958948
 50
116.2683000299469
 51
232.4058030000005
  0
ARC
  5
9B03
  8
0
 10
-8.9244163813911062
 20
4.9072558331785059
 30
0.0
 40
0.0101120028366698
210
0.0
220
0.0
230
-1.0
 50
174.7547549999999
 51
226.21887499999909
  0
ARC
  5
9B04
  8
0
 10
-8.9016023348328712
 20
4.8774452558342301
 30
0.0
 40
0.0253043865155701
210
0.0
220
0.0
230
-1.0
 50
170.31121299999941
 51
207.18111099999879
  0
ARC
  5
9B05
  8
0
 10
-8.9174205783490912
 20
4.8786620437970161
 30
0.0
 40
0.009619320150781
210
0.0
220
0.0
230
-1.0
 50
124.6951540000011
 51
161.5650510000014
  0
ARC
  5
9B06
  8
0
 10
8.9338464881027075
 20
4.889004741480786
 30
0.0
 40
0.0112181737119299
 50
102.528807999999
 51
192.52880799999949
  0
ARC
  5
9B07
  8
0
 10
-8.9222870024562404
 20
4.844592708582919
 30
0.0
 40
0.0046335460281451
210
0.0
220
0.0
230
-1.0
 50
113.19859099999979
 51
203.1985909999978
  0
ARC
  5
9B08
  8
0
 10
-8.9802867435197093
 20
4.9451785728559772
 30
0.0
 40
0.1433692061056595
210
0.0
220
0.0
230
-1.0
 50
303.5776790000013
 51
318.44049499999818
  0
ARC
  5
9B09
  8
0
 10
8.9350632760654918
 20
4.8318164349736881
 30
0.0
 40
0.0138729838125539
 50
127.8749840000016
 51
195.25511900000041
  0
ARC
  5
9B0A
  8
0
 10
8.938105245972455
 20
4.8573682544481454
 30
0.0
 40
0.0163815173698048
 50
148.6713069999989
 51
211.3286930000009
  0
LINE
  5
9B0B
  8
0
 10
9.0149164416113194
 20
4.9152406403121631
 30
0.0
 11
9.0188346152905297
 21
4.895210214542085
 31
0.0
  0
LINE
  5
9B0C
  8
0
 10
9.0191213464252993
 20
4.9310850826122961
 30
0.0
 11
9.0149164416113194
 21
4.9152406403121631
 31
0.0
  0
LINE
  5
9B0D
  8
0
 10
9.0207951576181262
 20
4.9413135244884643
 30
0.0
 11
9.0191213464252993
 21
4.9310850826122961
 31
0.0
  0
ARC
  5
9B0E
  8
0
 10
-8.953923489488675
 20
4.932199986415525
 30
0.0
 40
0.0043016947655671
210
0.0
220
0.0
230
-1.0
 50
81.869897999999509
 51
261.86989799999952
  0
ARC
  5
9B0F
  8
0
 10
-8.9180289723304824
 20
4.943151078080632
 30
0.0
 40
0.0395448810465493
210
0.0
220
0.0
230
-1.0
 50
202.61986499999699
 51
216.86989799999981
  0
ARC
  5
9B10
  8
0
 10
-8.7648024737870571
 20
4.8640605882434311
 30
0.0
 40
0.2319858648619351
210
0.0
220
0.0
230
-1.0
 50
137.2165990000006
 51
143.83848199999801
  0
ARC
  5
9B11
  8
0
 10
8.8836547123817766
 20
4.9200321067876258
 30
0.0
 40
0.096254332003548
 50
47.689770000002021
 51
68.299463000000586
  0
ARC
  5
9B12
  8
0
 10
-8.9301961242143442
 20
5.017982082304
 30
0.0
 40
0.0060839398139302
210
0.0
220
0.0
230
-1.0
 50
90.0
 51
143.13010200000019
  0
ARC
  5
9B13
  8
0
 10
8.9125534264979471
 20
4.9930379290668681
 30
0.0
 40
0.0177373044359952
 50
67.833654000001147
 51
112.1663459999987
  0
ARC
  5
9B14
  8
0
 10
-8.8918680311305813
 20
5.016156900359757
 30
0.0
 40
0.0155111355495344
210
0.0
220
0.0
230
-1.0
 50
205.55996499999949
 51
244.4400350000011
  0
ARC
  5
9B15
  8
0
 10
-8.7908760857073318
 20
5.1439174532204071
 30
0.0
 40
0.1780170977971925
210
0.0
220
0.0
230
-1.0
 50
232.7776379999994
 51
239.84222700000129
  0
ARC
  5
9B16
  8
0
 10
-8.7385549310515351
 20
5.1609524846993491
 30
0.0
 40
0.2220812690643765
210
0.0
220
0.0
230
-1.0
 50
230.33510599999889
 51
233.91492699999921
  0
ARC
  5
9B17
  8
0
 10
8.9727829751678616
 20
5.1080229360620644
 30
0.0
 40
0.0975315227180751
 50
220.446232000002
 51
236.70643699999999
  0
ARC
  5
9B18
  8
0
 10
-8.9052526987212328
 20
5.102040880407908
 30
0.0
 40
0.0380377232290075
210
0.0
220
0.0
230
-1.0
 50
254.22244200000071
 51
324.657627999998
  0
ARC
  5
9B19
  8
0
 10
-8.8553651199910011
 20
5.061582680645186
 30
0.0
 40
0.0091819460086551
210
0.0
220
0.0
230
-1.0
 50
136.7899109999972
 51
210.5297060000018
  0
ARC
  5
9B1A
  8
0
 10
-8.8900428491864041
 20
5.032279340866693
 30
0.0
 40
0.0151028711672839
210
0.0
220
0.0
230
-1.0
 50
55.669783000000209
 51
124.33021699999939
  0
ARC
  5
9B1B
  8
0
 10
8.9271541543073791
 20
5.036233901745728
 30
0.0
 40
0.0125419400422575
 50
230.9061410000015
 51
284.03624299999922
  0
ARC
  5
9B1C
  8
0
 10
8.8736162116887929
 20
4.9842169440806812
 30
0.0
 40
0.0104889742270545
 50
253.1416009999995
 51
330.46121799999742
  0
ARC
  5
9B1D
  8
0
 10
-8.8551911891757449
 20
4.9549710960778812
 30
0.0
 40
0.0491576515013583
210
0.0
220
0.0
230
-1.0
 50
149.0362429999995
 51
168.888733999999
  0
ARC
  5
9B1E
  8
0
 10
8.8704228710304811
 20
4.977904492651759
 30
0.0
 40
0.0037296879840182
 50
106.5873389999995
 51
272.3373059999999
  0
ARC
  5
9B1F
  8
0
 10
-8.8979519709445096
 20
4.9760036253319404
 30
0.0
 40
0.0155111355495344
210
0.0
220
0.0
230
-1.0
 50
11.309932000002499
 51
48.179829999999427
  0
ARC
  5
9B20
  8
0
 10
-8.8778749695585422
 20
4.9644441396854964
 30
0.0
 40
0.0250846078285119
210
0.0
220
0.0
230
-1.0
 50
112.83365400000091
 51
140.90614099999971
  0
LINE
  5
9B21
  8
0
 10
9.0101366190397911
 20
5.006185352114584
 30
0.0
 11
9.0203039304202264
 21
5.0055456651413106
 31
0.0
  0
LINE
  5
9B22
  8
0
 10
9.0220097623489206
 20
5.078640272188065
 30
0.0
 11
9.0161878103738715
 21
5.068501342823537
 31
0.0
  0
ARC
  5
9B23
  8
0
 10
-8.9350632760654918
 20
4.9906050808851852
 30
0.0
 40
0.0199285416106057
210
0.0
220
0.0
230
-1.0
 50
148.73626799999801
 51
192.3384419719857
  0
ARC
  5
9B24
  8
0
 10
8.9393220339352411
 20
4.973570049406133
 30
0.0
 40
0.0198637723948833
 50
40.031624428020287
 51
62.650123999999352
  0
LINE
  5
9B25
  8
0
 10
8.9829903124681252
 20
5.0349225070634702
 30
0.0
 11
8.984901368203932
 21
5.0253504902723281
 31
0.0
  0
LINE
  5
9B26
  8
0
 10
8.984901368203932
 20
5.0253504902723281
 30
0.0
 11
8.9865780903727526
 21
5.015485920394549
 31
0.0
  0
LINE
  5
9B27
  8
0
 10
8.9865780903727526
 20
5.015485920394549
 30
0.0
 11
8.9993980286218136
 21
5.007186727854215
 31
0.0
  0
LINE
  5
9B28
  8
0
 10
8.9854391710176262
 20
5.0428854818773052
 30
0.0
 11
8.9829903124681252
 21
5.0349225070634702
 31
0.0
  0
LINE
  5
9B29
  8
0
 10
9.0046436073513352
 20
5.0663937962085583
 30
0.0
 11
8.9923330899000824
 21
5.0658785534586723
 31
0.0
  0
LINE
  5
9B2A
  8
0
 10
8.9923330899000824
 20
5.0658785534586723
 30
0.0
 11
8.9880910701422625
 21
5.076716844804305
 31
0.0
  0
LINE
  5
9B2B
  8
0
 10
8.9501101109450172
 20
5.0741413587993511
 30
0.0
 11
8.9516449230344382
 21
5.067732117418811
 31
0.0
  0
LINE
  5
9B2C
  8
0
 10
8.9516449230344382
 20
5.067732117418811
 30
0.0
 11
8.9558163516245664
 21
5.062457428929517
 31
0.0
  0
LINE
  5
9B2D
  8
0
 10
8.9558163516245664
 20
5.062457428929517
 30
0.0
 11
8.9603028933653377
 21
5.0572322270318164
 31
0.0
  0
LINE
  5
9B2E
  8
0
 10
8.9603028933653377
 20
5.0572322270318164
 30
0.0
 11
8.9689899734561127
 21
5.0586891705136141
 31
0.0
  0
LINE
  5
9B2F
  8
0
 10
8.9689899734561127
 20
5.0586891705136141
 30
0.0
 11
8.9755236590601193
 21
5.056179181468333
 31
0.0
  0
LINE
  5
9B30
  8
0
 10
8.9755236590601193
 20
5.056179181468333
 30
0.0
 11
8.9815719394181972
 21
5.0498609080872221
 31
0.0
  0
LINE
  5
9B31
  8
0
 10
8.9815719394181972
 20
5.0498609080872221
 30
0.0
 11
8.9854391710176262
 21
5.0428854818773052
 31
0.0
  0
LINE
  5
9B32
  8
0
 10
8.9993980286218136
 20
5.007186727854215
 30
0.0
 11
9.0101366190397911
 21
5.006185352114584
 31
0.0
  0
LINE
  5
9B33
  8
0
 10
9.0161878103738715
 20
5.068501342823537
 30
0.0
 11
9.0046436073513352
 21
5.0663937962085583
 31
0.0
  0
ARC
  5
9B34
  8
0
 10
8.8133866630188766
 20
5.3261292674155811
 30
0.0
 40
0.0476184729479537
 50
287.8562229999992
 51
355.23635800000221
  0
ARC
  5
9B35
  8
0
 10
-15.09617597440096
 20
6.5833557808763281
 30
0.0
 40
6.3999262573761611
210
0.0
220
0.0
230
-1.0
 50
346.92944999999759
 51
347.62183800000122
  0
ARC
  5
9B36
  8
0
 10
-8.7237366077870302
 20
5.1504358562004882
 30
0.0
 40
0.0979776297881636
210
0.0
220
0.0
230
-1.0
 50
127.19517800000079
 51
145.90113699999739
  0
ARC
  5
9B37
  8
0
 10
8.8060859352421605
 20
5.2077980935225661
 30
0.0
 40
0.0027210348043403
 50
243.4349489999997
 51
26.56505100000237
  0
ARC
  5
9B38
  8
0
 10
8.8270318629604052
 20
5.2249197265373351
 30
0.0
 40
0.0623159907089745
 50
180.0799099999989
 51
205.5286220000001
  0
ARC
  5
9B39
  8
0
 10
-8.6120111661537813
 20
5.216315609262093
 30
0.0
 40
0.0803087332878752
210
0.0
220
0.0
230
-1.0
 50
167.753667000002
 51
198.4295387765639
  0
ARC
  5
9B3A
  8
0
 10
-10.37024284585171
 20
4.9741784433877001
 30
0.0
 40
1.672735587200288
210
0.0
220
0.0
230
-1.0
 50
8.0156543690893525
 51
9.8425980000020008
  0
ARC
  5
9B3B
  8
0
 10
9.3384226637770862
 20
5.559140523568999
 30
0.0
 40
0.6727345559013166
 50
212.4612569999974
 51
221.27853800000011
  0
ARC
  5
9B3C
  8
0
 10
8.6660815221953502
 20
5.2130658932402412
 30
0.0
 40
0.04809957974728
 50
317.2386040915377
 51
353.272091005444
  0
LINE
  5
9B3D
  8
0
 10
8.825684650220424
 20
5.1692708639070561
 30
0.0
 11
8.8264969644896176
 21
5.1673003681640921
 31
0.0
  0
LINE
  5
9B3E
  8
0
 10
8.8201561120931231
 20
5.168527824967553
 30
0.0
 11
8.8194636962532655
 21
5.1701139976133801
 31
0.0
  0
LINE
  5
9B3F
  8
0
 10
8.8279289817918976
 20
5.1633289933665747
 30
0.0
 11
8.8285395155348976
 21
5.1614224936113251
 31
0.0
  0
LINE
  5
9B40
  8
0
 10
8.8280390878951103
 20
5.1517004954631602
 30
0.0
 11
8.8277527388733183
 21
5.1519780518590323
 31
0.0
  0
LINE
  5
9B41
  8
0
 10
8.8264969644896176
 20
5.1673003681640921
 30
0.0
 11
8.8272466032284562
 21
5.165304014767341
 31
0.0
  0
LINE
  5
9B42
  8
0
 10
8.8272466032284562
 20
5.165304014767341
 30
0.0
 11
8.8279289817918976
 21
5.1633289933665747
 31
0.0
  0
LINE
  5
9B43
  8
0
 10
8.8277527388733183
 20
5.1519780518590323
 30
0.0
 11
8.8274388436041455
 21
5.1523637180372361
 31
0.0
  0
LINE
  5
9B44
  8
0
 10
8.8274388436041455
 20
5.1523637180372361
 30
0.0
 11
8.8270917634929891
 21
5.1528760443622961
 31
0.0
  0
LINE
  5
9B45
  8
0
 10
8.8270917634929891
 20
5.1528760443622961
 30
0.0
 11
8.8267058599452461
 21
5.1535335811997811
 31
0.0
  0
LINE
  5
9B46
  8
0
 10
8.8267058599452461
 20
5.1535335811997811
 30
0.0
 11
8.8262754943663122
 21
5.1543548789143161
 31
0.0
  0
LINE
  5
9B47
  8
0
 10
8.8262754943663122
 20
5.1543548789143161
 30
0.0
 11
8.8257969080484813
 21
5.155351311704063
 31
0.0
  0
LINE
  5
9B48
  8
0
 10
8.8257969080484813
 20
5.155351311704063
 30
0.0
 11
8.8252738618315263
 21
5.156505549099049
 31
0.0
  0
LINE
  5
9B49
  8
0
 10
8.8252738618315263
 20
5.156505549099049
 30
0.0
 11
8.8247119964421064
 21
5.1577930844622371
 31
0.0
  0
LINE
  5
9B4A
  8
0
 10
8.8247119964421064
 20
5.1577930844622371
 30
0.0
 11
8.8241169526068983
 21
5.1591894111569427
 31
0.0
  0
LINE
  5
9B4B
  8
0
 10
8.8241169526068983
 20
5.1591894111569427
 30
0.0
 11
8.8234943710525542
 21
5.1606700225458972
 31
0.0
  0
LINE
  5
9B4C
  8
0
 10
8.8234943710525542
 20
5.1606700225458972
 30
0.0
 11
8.822849892505749
 21
5.1622104119923051
 31
0.0
  0
LINE
  5
9B4D
  8
0
 10
8.822849892505749
 20
5.1622104119923051
 30
0.0
 11
8.8221891576931224
 21
5.1637860728593523
 31
0.0
  0
LINE
  5
9B4E
  8
0
 10
8.8221891576931224
 20
5.1637860728593523
 30
0.0
 11
8.8215178073413671
 21
5.1653724985097771
 31
0.0
  0
LINE
  5
9B4F
  8
0
 10
8.8215178073413671
 20
5.1653724985097771
 30
0.0
 11
8.8208402683228861
 21
5.1669512082260081
 31
0.0
  0
LINE
  5
9B50
  8
0
 10
8.8208402683228861
 20
5.1669512082260081
 30
0.0
 11
8.8201561120931231
 21
5.168527824967553
 31
0.0
  0
LINE
  5
9B51
  8
0
 10
8.8223466353191622
 20
5.16322262560504
 30
0.0
 11
8.8223466353191622
 21
5.16322262560504
 31
0.0
  0
LINE
  5
9B52
  8
0
 10
8.8285395155348976
 20
5.1614224936113251
 30
0.0
 11
8.8290736198124122
 21
5.1596317051516962
 31
0.0
  0
LINE
  5
9B53
  8
0
 10
8.8290736198124122
 20
5.1596317051516962
 30
0.0
 11
8.8295267099793975
 21
5.1580038176372192
 31
0.0
  0
LINE
  5
9B54
  8
0
 10
8.8295267099793975
 20
5.1580038176372192
 30
0.0
 11
8.8298942013908093
 21
5.156586020718005
 31
0.0
  0
LINE
  5
9B55
  8
0
 10
8.8298942013908093
 20
5.156586020718005
 30
0.0
 11
8.830173692515153
 21
5.155412739385608
 31
0.0
  0
LINE
  5
9B56
  8
0
 10
8.830173692515153
 20
5.155412739385608
 30
0.0
 11
8.8303715142750985
 21
5.154467339998968
 31
0.0
  0
LINE
  5
9B57
  8
0
 10
8.8303715142750985
 20
5.154467339998968
 30
0.0
 11
8.830496180706854
 21
5.1537204242594052
 31
0.0
  0
LINE
  5
9B58
  8
0
 10
8.830496180706854
 20
5.1537204242594052
 30
0.0
 11
8.8305562058466371
 21
5.153142593867412
 31
0.0
  0
LINE
  5
9B59
  8
0
 10
8.8305562058466371
 20
5.153142593867412
 30
0.0
 11
8.8305601037306651
 21
5.1527044505245341
 31
0.0
  0
LINE
  5
9B5A
  8
0
 10
8.8305601037306651
 20
5.1527044505245341
 30
0.0
 11
8.8305163883951394
 21
5.152376595931627
 31
0.0
  0
LINE
  5
9B5B
  8
0
 10
8.8305163883951394
 20
5.152376595931627
 30
0.0
 11
8.8304335738762916
 21
5.1521296317895331
 31
0.0
  0
LINE
  5
9B5C
  8
0
 10
8.8304335738762916
 20
5.1521296317895331
 30
0.0
 11
8.8303201742103177
 21
5.1519341597992243
 31
0.0
  0
LINE
  5
9B5D
  8
0
 10
8.8303201742103177
 20
5.1519341597992243
 30
0.0
 11
8.8301836402449432
 21
5.1517659275133374
 31
0.0
  0
LINE
  5
9B5E
  8
0
 10
8.8301836402449432
 20
5.1517659275133374
 30
0.0
 11
8.8300271700739064
 21
5.1516212658888172
 31
0.0
  0
LINE
  5
9B5F
  8
0
 10
8.8300271700739064
 20
5.1516212658888172
 30
0.0
 11
8.8298528986024447
 21
5.1515016517344012
 31
0.0
  0
LINE
  5
9B60
  8
0
 10
8.8298528986024447
 20
5.1515016517344012
 30
0.0
 11
8.8296629607357993
 21
5.1514085618589442
 31
0.0
  0
LINE
  5
9B61
  8
0
 10
8.8296629607357993
 20
5.1514085618589442
 30
0.0
 11
8.8294594913792128
 21
5.1513434730705931
 31
0.0
  0
LINE
  5
9B62
  8
0
 10
8.8294594913792128
 20
5.1513434730705931
 30
0.0
 11
8.8292446254379264
 21
5.1513078621785509
 31
0.0
  0
LINE
  5
9B63
  8
0
 10
8.8292446254379264
 20
5.1513078621785509
 30
0.0
 11
8.8290204978171811
 21
5.1513032059909811
 31
0.0
  0
LINE
  5
9B64
  8
0
 10
8.8290204978171811
 20
5.1513032059909811
 30
0.0
 11
8.8287892434222108
 21
5.1513309813165051
 31
0.0
  0
LINE
  5
9B65
  8
0
 10
8.8287892434222108
 20
5.1513309813165051
 30
0.0
 11
8.8285517015749591
 21
5.151395510556763
 31
0.0
  0
LINE
  5
9B66
  8
0
 10
8.8285517015749591
 20
5.151395510556763
 30
0.0
 11
8.8283035292641241
 21
5.1515124984839531
 31
0.0
  0
LINE
  5
9B67
  8
0
 10
8.8283035292641241
 20
5.1515124984839531
 30
0.0
 11
8.8280390878951103
 21
5.1517004954631602
 31
0.0
  0
LINE
  5
9B68
  8
0
 10
8.8158202389444487
 20
5.183463062010901
 30
0.0
 11
8.8171519468522135
 21
5.1820638813136339
 31
0.0
  0
LINE
  5
9B69
  8
0
 10
8.8171519468522135
 20
5.1820638813136339
 30
0.0
 11
8.8184220743990522
 21
5.1806577301935004
 31
0.0
  0
LINE
  5
9B6A
  8
0
 10
8.8184220743990522
 20
5.1806577301935004
 30
0.0
 11
8.8196317750307713
 21
5.1792284277174732
 31
0.0
  0
LINE
  5
9B6B
  8
0
 10
8.8196317750307713
 20
5.1792284277174732
 30
0.0
 11
8.8207822021931843
 21
5.1777597929527692
 31
0.0
  0
LINE
  5
9B6C
  8
0
 10
8.8207822021931843
 20
5.1777597929527692
 30
0.0
 11
8.8218745093321012
 21
5.1762356449661411
 31
0.0
  0
LINE
  5
9B6D
  8
0
 10
8.8218745093321012
 20
5.1762356449661411
 30
0.0
 11
8.8229098498933247
 21
5.1746398028246841
 31
0.0
  0
LINE
  5
9B6E
  8
0
 10
8.8229098498933247
 20
5.1746398028246841
 30
0.0
 11
8.8238893773226543
 21
5.1729560855957262
 31
0.0
  0
LINE
  5
9B6F
  8
0
 10
8.8238893773226543
 20
5.1729560855957262
 30
0.0
 11
8.8248142450659124
 21
5.1711683123462491
 31
0.0
  0
LINE
  5
9B70
  8
0
 10
8.8248142450659124
 20
5.1711683123462491
 30
0.0
 11
8.825684650220424
 21
5.1692708639070561
 31
0.0
  0
LINE
  5
9B71
  8
0
 10
8.8194636962532655
 20
5.1701139976133801
 30
0.0
 11
8.8187613784045151
 21
5.1717213750417841
 31
0.0
  0
LINE
  5
9B72
  8
0
 10
8.8187613784045151
 20
5.1717213750417841
 30
0.0
 11
8.8180475161480611
 21
5.1733616061320591
 31
0.0
  0
LINE
  5
9B73
  8
0
 10
8.8180475161480611
 20
5.1733616061320591
 30
0.0
 11
8.8173204670851071
 21
5.1750463397626163
 31
0.0
  0
LINE
  5
9B74
  8
0
 10
8.8173204670851071
 20
5.1750463397626163
 30
0.0
 11
8.8165785888168351
 21
5.1767872248121831
 31
0.0
  0
LINE
  5
9B75
  8
0
 10
8.8165785888168351
 20
5.1767872248121831
 30
0.0
 11
8.8158202389444487
 21
5.1785959101597401
 31
0.0
  0
LINE
  5
9B76
  8
0
 10
8.8158202389444487
 20
5.183463062010901
 30
0.0
 11
8.8154697833045752
 21
5.183649036136444
 31
0.0
  0
LINE
  5
9B77
  8
0
 10
8.8154697833045752
 20
5.183649036136444
 30
0.0
 11
8.8152552253278706
 21
5.1834034893420231
 31
0.0
  0
LINE
  5
9B78
  8
0
 10
8.8152552253278706
 20
5.1834034893420231
 30
0.0
 11
8.8151586812741591
 21
5.1828287009298011
 31
0.0
  0
LINE
  5
9B79
  8
0
 10
8.8151586812741591
 20
5.1828287009298011
 30
0.0
 11
8.8151622674032701
 21
5.1820269502011342
 31
0.0
  0
LINE
  5
9B7A
  8
0
 10
8.8151622674032701
 20
5.1820269502011342
 30
0.0
 11
8.8152480999750296
 21
5.1811005164579411
 31
0.0
  0
LINE
  5
9B7B
  8
0
 10
8.8152480999750296
 20
5.1811005164579411
 30
0.0
 11
8.8153982952492616
 21
5.180151679002047
 31
0.0
  0
LINE
  5
9B7C
  8
0
 10
8.8153982952492616
 20
5.180151679002047
 30
0.0
 11
8.8155949694857956
 21
5.179282717135492
 31
0.0
  0
LINE
  5
9B7D
  8
0
 10
8.8155949694857956
 20
5.179282717135492
 30
0.0
 11
8.8158202389444487
 21
5.1785959101597401
 31
0.0
  0
ARC
  5
9B7E
  8
0
 10
8.6339126217399258
 20
4.7569847030063102
 30
0.0
 40
0.5272316043968001
 50
72.610478999999856
 51
75.498730000000094
  0
ARC
  5
9B7F
  8
0
 10
-8.7804554263469736
 20
5.538476850550861
 30
0.0
 40
0.2539593671037781
210
0.0
220
0.0
230
-1.0
 50
267.39120499999927
 51
275.78789220674309
  0
ARC
  5
9B80
  8
0
 10
8.8012047430790687
 20
5.4634382923984459
 30
0.0
 40
0.1847254657140809
 50
256.3929548767112
 51
277.39035656052778
  0
ARC
  5
9B81
  8
0
 10
8.7774914181166892
 20
5.2084064875041332
 30
0.0
 40
0.0208098395908294
 50
74.744880999999538
 51
127.8749840000016
  0
LINE
  5
9B82
  8
0
 10
8.7683662361397943
 20
5.2382170648482971
 30
0.0
 11
8.7716847487655691
 21
5.2335391264363107
 31
0.0
  0
LINE
  5
9B83
  8
0
 10
8.7593967913782276
 20
5.269109797515851
 30
0.0
 11
8.7659326602142151
 21
5.267419975955133
 31
0.0
  0
ARC
  5
9B84
  8
0
 10
-8.763933547454787
 20
5.249192172065249
 30
0.0
 40
0.0432090720708481
210
0.0
220
0.0
230
-1.0
 50
14.64864200000166
 51
48.391215914724903
  0
ARC
  5
9B85
  8
0
 10
8.7311421306992951
 20
5.244554987317084
 30
0.0
 40
0.0450866515828026
 50
73.03881876547284
 51
140.05411400000079
  0
ARC
  5
9B86
  8
0
 10
8.728820627349247
 20
5.2526154798265452
 30
0.0
 40
0.0384190610833734
 50
147.0648840000004
 51
176.06521800000141
  0
LINE
  5
9B87
  8
0
 10
8.6904925342654842
 20
5.255252096327351
 30
0.0
 11
8.6899918463956283
 21
5.2479688344063771
 31
0.0
  0
LINE
  5
9B88
  8
0
 10
8.6899918463956283
 20
5.2479688344063771
 30
0.0
 11
8.6889438950401221
 21
5.2404847151425411
 31
0.0
  0
LINE
  5
9B89
  8
0
 10
8.748897628735218
 20
5.256468884290026
 30
0.0
 11
8.7431513621358352
 21
5.2600115420668772
 31
0.0
  0
ARC
  5
9B8A
  8
0
 10
-8.7137636040537636
 20
5.1994836183581583
 30
0.0
 40
0.0669458980171353
210
0.0
220
0.0
230
-1.0
 50
121.6558269999997
 51
144.64895300000001
  0
ARC
  5
9B8B
  8
0
 10
8.7604170565408417
 20
5.34748280516453
 30
0.0
 40
0.0619218923190743
 50
254.92820235261081
 51
264.83689421914022
  0
ARC
  5
9B8C
  8
0
 10
8.7492145134186892
 20
5.2571642938527212
 30
0.0
 40
0.0280617059160143
 50
72.30057821114552
 51
119.8650034551282
  0
LINE
  5
9B8D
  8
0
 10
8.7431513621358352
 20
5.2600115420668772
 30
0.0
 11
8.7593967913782276
 21
5.269109797515851
 31
0.0
  0
LINE
  5
9B8E
  8
0
 10
8.6889438950401221
 20
5.2404847151425411
 30
0.0
 11
8.6904925342654842
 21
5.2333506407411452
 31
0.0
  0
ARC
  5
9B8F
  8
0
 10
-8.7872343616779212
 20
5.318762932708295
 30
0.0
 40
0.0343174959169487
210
0.0
220
0.0
230
-1.0
 50
211.95923899999781
 51
261.99302600000033
  0
ARC
  5
9B90
  8
0
 10
-8.8025425497213412
 20
5.2884983530808531
 30
0.0
 40
0.0304575417574887
210
0.0
220
0.0
230
-1.0
 50
223.8814911584208
 51
291.28884900000031
  0
LINE
  5
9B91
  8
0
 10
8.7716847487655691
 20
5.2335391264363107
 30
0.0
 11
8.7796921159632575
 21
5.2363394853363161
 31
0.0
  0
LINE
  5
9B92
  8
0
 10
8.7796921159632575
 20
5.2363394853363161
 30
0.0
 11
8.7854005398748036
 21
5.235783488922606
 31
0.0
  0
LINE
  5
9B93
  8
0
 10
8.8085195111677361
 20
5.2090148814852411
 30
0.0
 11
8.8075945485476996
 21
5.210864806725449
 31
0.0
  0
LINE
  5
9B94
  8
0
 10
8.8075945485476996
 20
5.210864806725449
 30
0.0
 11
8.8076200195875902
 21
5.2130553161561011
 31
0.0
  0
LINE
  5
9B95
  8
0
 10
8.8076200195875902
 20
5.2130553161561011
 30
0.0
 11
8.8073027232049448
 21
5.215098821299418
 31
0.0
  0
ARC
  5
9B96
  8
0
 10
8.7131435661684193
 20
5.1947882140904067
 30
0.0
 40
0.1329275352384024
 50
7.2000759999996893
 51
33.103049558948548
  0
ARC
  5
9B97
  8
0
 10
8.7830186337730041
 20
5.2113240131874363
 30
0.0
 40
0.0245759147746916
 50
8.8358109999969923
 51
84.437342999999785
  0
LINE
  5
9B98
  8
0
 10
8.9889643629385212
 20
5.2187360857957401
 30
0.0
 11
8.9716658881326481
 21
5.1784423561763324
 31
0.0
  0
LINE
  5
9B99
  8
0
 10
8.9504899933113862
 20
5.203040103270947
 30
0.0
 11
8.9556860854491234
 21
5.2342894304970251
 31
0.0
  0
LINE
  5
9B9A
  8
0
 10
8.9298606342317832
 20
5.215689749424766
 30
0.0
 11
8.9266905813813668
 21
5.198726764601469
 31
0.0
  0
ARC
  5
9B9B
  8
0
 10
10.33581546059122
 20
5.3233551072994461
 30
0.0
 40
1.4310015915001231
 50
182.19141899999821
 51
187.4244890000007
  0
LINE
  5
9B9C
  8
0
 10
8.9396648013577735
 20
5.1743815446737891
 30
0.0
 11
8.9418327507244832
 21
5.179573998091537
 31
0.0
  0
LINE
  5
9B9D
  8
0
 10
8.9266905813813668
 20
5.198726764601469
 30
0.0
 11
8.9256688288097497
 21
5.1929935973939774
 31
0.0
  0
LINE
  5
9B9E
  8
0
 10
8.9256688288097497
 20
5.1929935973939774
 30
0.0
 11
8.9253275168752086
 21
5.1867692029886712
 31
0.0
  0
LINE
  5
9B9F
  8
0
 10
8.9253275168752086
 20
5.1867692029886712
 30
0.0
 11
8.9253027735793111
 21
5.1863434727505364
 31
0.0
  0
LINE
  5
9BA0
  8
0
 10
8.9253027735793111
 20
5.1863434727505364
 30
0.0
 11
8.9252103500917102
 21
5.1850262561161991
 31
0.0
  0
LINE
  5
9BA1
  8
0
 10
8.9252103500917102
 20
5.1850262561161991
 30
0.0
 11
8.9253660873070437
 21
5.1841311309999583
 31
0.0
  0
LINE
  5
9BA2
  8
0
 10
8.9253660873070437
 20
5.1841311309999583
 30
0.0
 11
8.9253558988910822
 21
5.183237461371843
 31
0.0
  0
LINE
  5
9BA3
  8
0
 10
8.9253558988910822
 20
5.183237461371843
 30
0.0
 11
8.9252911296753652
 21
5.1776112725320891
 31
0.0
  0
LINE
  5
9BA4
  8
0
 10
8.9252911296753652
 20
5.1776112725320891
 30
0.0
 11
8.9396648013577735
 21
5.1743815446737891
 31
0.0
  0
ARC
  5
9BA5
  8
0
 10
-8.8955183950189411
 20
5.131141907355186
 30
0.0
 40
0.0225105773115417
210
0.0
220
0.0
230
-1.0
 50
161.07535599999699
 51
198.9246440000025
  0
ARC
  5
9BA6
  8
0
 10
8.937496851991062
 20
5.1189740277272859
 30
0.0
 40
0.0212501247089427
 50
166.759479999999
 51
203.62937799999861
  0
ARC
  5
9BA7
  8
0
 10
-8.853927097853159
 20
5.0632790519017581
 30
0.0
 40
0.0795911777069499
210
0.0
220
0.0
230
-1.0
 50
143.64770099999751
 51
160.55775699999791
  0
LINE
  5
9BA8
  8
0
 10
8.9672550317675501
 20
5.1469448682473731
 30
0.0
 11
8.9552130518511461
 21
5.1200634604905391
 31
0.0
  0
LINE
  5
9BA9
  8
0
 10
8.9716658881326481
 20
5.1784423561763324
 30
0.0
 11
8.9672550317675501
 21
5.1469448682473731
 31
0.0
  0
LINE
  5
9BAA
  8
0
 10
8.9418327507244832
 20
5.179573998091537
 30
0.0
 11
8.9466380443358915
 21
5.191082541658143
 31
0.0
  0
LINE
  5
9BAB
  8
0
 10
8.9466380443358915
 20
5.191082541658143
 30
0.0
 11
8.9504899933113862
 21
5.203040103270947
 31
0.0
  0
LINE
  5
9BAC
  8
0
 10
8.9895989557038014
 20
5.087419048022408
 30
0.0
 11
8.9931328805526611
 21
5.1010773473558393
 31
0.0
  0
LINE
  5
9BAD
  8
0
 10
8.9488394699264582
 20
5.0879677669961421
 30
0.0
 11
8.9408342859607686
 21
5.085318778847407
 31
0.0
  0
LINE
  5
9BAE
  8
0
 10
8.9408342859607686
 20
5.085318778847407
 30
0.0
 11
8.9453164612375549
 21
5.0810141731059231
 31
0.0
  0
LINE
  5
9BAF
  8
0
 10
8.9931328805526611
 20
5.1010773473558393
 30
0.0
 11
9.0028671842549528
 21
5.1137146218617282
 31
0.0
  0
LINE
  5
9BB0
  8
0
 10
8.9552130518511461
 20
5.1200634604905391
 30
0.0
 11
8.9488394699264582
 21
5.0879677669961421
 31
0.0
  0
LINE
  5
9BB1
  8
0
 10
9.0028671842549528
 20
5.1137146218617282
 30
0.0
 11
9.0161965433018274
 21
5.1442281999070483
 31
0.0
  0
LINE
  5
9BB2
  8
0
 10
8.9410991847756272
 20
5.31566430874045
 30
0.0
 11
8.939936249868607
 21
5.3158906371235171
 31
0.0
  0
ARC
  5
9BB3
  8
0
 10
-8.9186373663118772
 20
5.3276502523690361
 30
0.0
 40
0.0069368557782754
210
0.0
220
0.0
230
-1.0
 50
142.1250160000013
 51
195.25511900000041
  0
LINE
  5
9BB4
  8
0
 10
8.939936249868607
 20
5.3158906371235171
 30
0.0
 11
8.9382216850119551
 21
5.316483748481005
 31
0.0
  0
LINE
  5
9BB5
  8
0
 10
8.9382216850119551
 20
5.316483748481005
 30
0.0
 11
8.9375215952869542
 21
5.3160136258588873
 31
0.0
  0
LINE
  5
9BB6
  8
0
 10
8.9375215952869542
 20
5.3160136258588873
 30
0.0
 11
8.9354424306878677
 21
5.315882631939413
 31
0.0
  0
LINE
  5
9BB7
  8
0
 10
8.9354424306878677
 20
5.315882631939413
 30
0.0
 11
8.9340175079419701
 21
5.315932118531232
 31
0.0
  0
LINE
  5
9BB8
  8
0
 10
8.9340175079419701
 20
5.315932118531232
 30
0.0
 11
8.9319972906066312
 21
5.3154095983414882
 31
0.0
  0
LINE
  5
9BB9
  8
0
 10
8.9319972906066312
 20
5.3154095983414882
 30
0.0
 11
8.9319863744466712
 21
5.314384934794016
 31
0.0
  0
LINE
  5
9BBA
  8
0
 10
8.9319863744466712
 20
5.314384934794016
 30
0.0
 11
8.9311880392820981
 21
5.3124738790580732
 31
0.0
  0
LINE
  5
9BBB
  8
0
 10
8.9311880392820981
 20
5.3124738790580732
 30
0.0
 11
8.9307688587398903
 21
5.311128280407841
 31
0.0
  0
LINE
  5
9BBC
  8
0
 10
8.9307688587398903
 20
5.311128280407841
 30
0.0
 11
8.9293774122178551
 21
5.309021461536755
 31
0.0
  0
LINE
  5
9BBD
  8
0
 10
8.9293774122178551
 20
5.309021461536755
 30
0.0
 11
8.9301837525663981
 21
5.3077006061826051
 31
0.0
  0
LINE
  5
9BBE
  8
0
 10
8.9301837525663981
 20
5.3077006061826051
 30
0.0
 11
8.930632042868476
 21
5.295748866521758
 31
0.0
  0
LINE
  5
9BBF
  8
0
 10
8.930632042868476
 20
5.295748866521758
 30
0.0
 11
8.9313008396016151
 21
5.2849476901200161
 31
0.0
  0
LINE
  5
9BC0
  8
0
 10
8.9313008396016151
 20
5.2849476901200161
 30
0.0
 11
8.9326180562359703
 21
5.262264637481163
 31
0.0
  0
LINE
  5
9BC1
  8
0
 10
8.9326180562359703
 20
5.262264637481163
 30
0.0
 11
8.9329455410345666
 21
5.250345646300385
 31
0.0
  0
ARC
  5
9BC2
  8
0
 10
8.9216786084748456
 20
5.312440402834226
 30
0.0
 40
0.0138729838125539
 50
127.8749840000016
 51
164.74488099999951
  0
LINE
  5
9BC3
  8
0
 10
8.8619277282890696
 20
5.3247066359924702
 30
0.0
 11
8.8619277282890696
 21
5.3247066359924702
 31
0.0
  0
ARC
  5
9BC4
  8
0
 10
9.0968938918840454
 20
5.2826290977459349
 30
0.0
 40
0.1915444032112277
 50
169.93931000000191
 51
184.18934299999751
  0
ARC
  5
9BC5
  8
0
 10
8.9344548820840952
 20
5.248559762532067
 30
0.0
 40
0.0778016552186181
 50
96.736010999999706
 51
105.8838539999997
  0
LINE
  5
9BC6
  8
0
 10
8.9315322621926239
 20
5.2270396448002412
 30
0.0
 11
8.9298606342317832
 21
5.215689749424766
 31
0.0
  0
LINE
  5
9BC7
  8
0
 10
8.9329455410345666
 20
5.250345646300385
 30
0.0
 11
8.9315322621926239
 21
5.2270396448002412
 31
0.0
  0
LINE
  5
9BC8
  8
0
 10
9.0202369779725267
 20
5.2710703398435026
 30
0.0
 11
9.0175283148161256
 21
5.2721721442546814
 31
0.0
  0
ARC
  5
9BC9
  8
0
 10
-9.0183062731487915
 20
5.2935277918431849
 30
0.0
 40
0.0446369057927298
210
0.0
220
0.0
230
-1.0
 50
284.86799099999968
 51
353.02238199999681
  0
LINE
  5
9BCA
  8
0
 10
8.9995952472449652
 20
5.236739016790688
 30
0.0
 11
9.0037986965709607
 21
5.2410487167401243
 31
0.0
  0
ARC
  5
9BCB
  8
0
 10
8.997476939086388
 20
5.235474301170254
 30
0.0
 40
0.0084284474631688
 50
41.405285992195509
 51
165.1775633013595
  0
ARC
  5
9BCC
  8
0
 10
-8.9550296603639374
 20
5.3315211226884003
 30
0.0
 40
0.0348487490346723
210
0.0
220
0.0
230
-1.0
 50
200.56829398561311
 51
210.83899700000109
  0
ARC
  5
9BCD
  8
0
 10
9.1376987368866232
 20
5.3999625628798631
 30
0.0
 40
0.1703600562671887
 50
205.34315814419199
 51
215.8151843503623
  0
ARC
  5
9BCE
  8
0
 10
8.9804880429835521
 20
5.31385667701079
 30
0.0
 40
0.0044676210747466
 50
357.43450161877962
 51
129.43210283820571
  0
ARC
  5
9BCF
  8
0
 10
-8.9982139891388861
 20
5.299907923463933
 30
0.0
 40
0.0269374440445724
210
0.0
220
0.0
230
-1.0
 50
334.01367400000089
 51
40.236357999997693
  0
LINE
  5
9BD0
  8
0
 10
8.9552414338670232
 20
5.2536583369740111
 30
0.0
 11
8.9532335881796321
 21
5.2834281606545801
 31
0.0
  0
LINE
  5
9BD1
  8
0
 10
8.9532335881796321
 20
5.2834281606545801
 30
0.0
 11
8.9523581121513764
 21
5.294086699232933
 31
0.0
  0
LINE
  5
9BD2
  8
0
 10
8.9523581121513764
 20
5.294086699232933
 30
0.0
 11
8.9497273176026582
 21
5.304583678643894
 31
0.0
  0
LINE
  5
9BD3
  8
0
 10
8.9497273176026582
 20
5.304583678643894
 30
0.0
 11
8.9496821974748482
 21
5.3047685256191244
 31
0.0
  0
LINE
  5
9BD4
  8
0
 10
8.9496821974748482
 20
5.3047685256191244
 30
0.0
 11
8.9493350635883342
 21
5.3062058200129032
 31
0.0
  0
LINE
  5
9BD5
  8
0
 10
8.9493350635883342
 20
5.3062058200129032
 30
0.0
 11
8.9487055650310356
 21
5.307355655527882
 31
0.0
  0
LINE
  5
9BD6
  8
0
 10
8.9487055650310356
 20
5.307355655527882
 30
0.0
 11
8.9478002514989132
 21
5.309659693022013
 31
0.0
  0
LINE
  5
9BD7
  8
0
 10
8.9478002514989132
 20
5.309659693022013
 30
0.0
 11
8.9469160425426981
 21
5.3105293470985071
 31
0.0
  0
LINE
  5
9BD8
  8
0
 10
8.9469160425426981
 20
5.3105293470985071
 30
0.0
 11
8.9458455311232861
 21
5.312156582675355
 31
0.0
  0
LINE
  5
9BD9
  8
0
 10
8.9458455311232861
 20
5.312156582675355
 30
0.0
 11
8.9451920170140866
 21
5.3125997787695924
 31
0.0
  0
LINE
  5
9BDA
  8
0
 10
8.9451920170140866
 20
5.3125997787695924
 30
0.0
 11
8.9439024546516173
 21
5.313907534731924
 31
0.0
  0
LINE
  5
9BDB
  8
0
 10
8.9439024546516173
 20
5.313907534731924
 30
0.0
 11
8.9429076286078804
 21
5.3143943954657962
 31
0.0
  0
LINE
  5
9BDC
  8
0
 10
8.9429076286078804
 20
5.3143943954657962
 30
0.0
 11
8.9410991847756272
 21
5.31566430874045
 31
0.0
  0
LINE
  5
9BDD
  8
0
 10
8.9890356818502131
 20
5.233085014182393
 30
0.0
 11
8.9887838824272936
 21
5.225953850756806
 31
0.0
  0
LINE
  5
9BDE
  8
0
 10
8.9887838824272936
 20
5.225953850756806
 30
0.0
 11
8.9889643629385212
 21
5.2187360857957401
 31
0.0
  0
LINE
  5
9BDF
  8
0
 10
8.9893289626809612
 20
5.237630503186776
 30
0.0
 11
8.9890356818502131
 21
5.233085014182393
 31
0.0
  0
ARC
  5
9BE0
  8
0
 10
9.0022227824976326
 20
5.2324337515135531
 30
0.0
 40
0.0050437337964531
 50
121.39602558081189
 51
235.9605520503797
  0
LINE
  5
9BE1
  8
0
 10
8.9556860854491234
 20
5.2342894304970251
 30
0.0
 11
8.9552414338670232
 21
5.2536583369740111
 31
0.0
  0
ARC
  5
9BE2
  8
0
 10
-9.0286678921763937
 20
5.3184370133684524
 30
0.0
 40
0.0343174959169487
210
0.0
220
0.0
230
-1.0
 50
278.0069739999995
 51
328.04076100000208
  0
ARC
  5
9BE3
  8
0
 10
9.0161521509180194
 20
5.2974044841147361
 30
0.0
 40
0.0168458180398153
 50
170.1975030000022
 51
245.9474710000006
  0
ARC
  5
9BE4
  8
0
 10
9.0045826889811451
 20
5.256447246909711
 30
0.0
 40
0.0286654969245316
 50
259.58265735866331
 51
297.30588215302879
  0
ARC
  5
9BE5
  8
0
 10
9.1933709135506376
 20
4.9240827298742706
 30
0.0
 40
0.1781138877487778
 50
51.07805153336394
 51
74.69865720946278
  0
LINE
  5
9BE6
  8
0
 10
9.1086833446335191
 20
5.082134898861109
 30
0.0
 11
9.1193120457079822
 21
5.0789386472266642
 31
0.0
  0
LINE
  5
9BE7
  8
0
 10
9.0652159234437821
 20
5.0664410995683511
 30
0.0
 11
9.0959623795680322
 21
5.0816909750230881
 31
0.0
  0
LINE
  5
9BE8
  8
0
 10
9.1972527000300008
 20
5.073932496272163
 30
0.0
 11
9.17733507457935
 21
5.082945605673558
 31
0.0
  0
LINE
  5
9BE9
  8
0
 10
9.1948635164882422
 20
5.0347070948403134
 30
0.0
 11
9.1984622105528224
 21
5.0384600706322491
 31
0.0
  0
LINE
  5
9BEA
  8
0
 10
9.1966716426431816
 20
5.0044811021762099
 30
0.0
 11
9.1962480285954715
 21
5.0050402507257532
 31
0.0
  0
LINE
  5
9BEB
  8
0
 10
9.1962252268978233
 20
4.9865611344707732
 30
0.0
 11
9.1965036665600124
 21
4.9857819895269131
 31
0.0
  0
ARC
  5
9BEC
  8
0
 10
8.0401295565723032
 20
5.3264334644062492
 30
0.0
 40
1.231946870241077
 50
339.2022019999992
 51
340.34807899999799
  0
LINE
  5
9BED
  8
0
 10
9.1957465087474581
 20
4.9669154010000511
 30
0.0
 11
9.1970587993698754
 21
4.9653117007870833
 31
0.0
  0
LINE
  5
9BEE
  8
0
 10
9.1967873908944355
 20
4.952098189487625
 30
0.0
 11
9.1955937621051138
 21
4.953424897827289
 31
0.0
  0
LINE
  5
9BEF
  8
0
 10
9.1430292225663514
 20
4.9525986506481532
 30
0.0
 11
9.1513058550428834
 21
4.9444370017231432
 31
0.0
  0
LINE
  5
9BF0
  8
0
 10
9.107814418301249
 20
4.9469309804004524
 30
0.0
 11
9.0947754291091236
 21
4.953462482772462
 31
0.0
  0
LINE
  5
9BF1
  8
0
 10
9.0446520613239016
 20
4.9506206424646271
 30
0.0
 11
9.0519105799487996
 21
4.9542062371372131
 31
0.0
  0
LINE
  5
9BF2
  8
0
 10
9.0332614122847072
 20
4.9887646163172121
 30
0.0
 11
9.0353274774918582
 21
4.9504285180494172
 31
0.0
  0
LINE
  5
9BF3
  8
0
 10
9.1180879803052228
 20
4.940988222921872
 30
0.0
 11
9.107814418301249
 21
4.9469309804004524
 31
0.0
  0
ARC
  5
9BF4
  8
0
 10
-9.1073632170231811
 20
4.8649506191517231
 30
0.0
 40
0.0168669226157249
210
0.0
220
0.0
230
-1.0
 50
24.592019000001031
 51
112.9069699999996
  0
LINE
  5
9BF5
  8
0
 10
9.0936637768196462
 20
4.9240080844712111
 30
0.0
 11
9.0944603159584716
 21
4.924290864657447
 31
0.0
  0
LINE
  5
9BF6
  8
0
 10
9.0944603159584716
 20
4.924290864657447
 30
0.0
 11
9.0949112727600312
 21
4.9246025906713822
 31
0.0
  0
LINE
  5
9BF7
  8
0
 10
9.0949112727600312
 20
4.9246025906713822
 30
0.0
 11
9.0951545837314942
 21
4.9250756114770411
 31
0.0
  0
LINE
  5
9BF8
  8
0
 10
9.0951545837314942
 20
4.9250756114770411
 30
0.0
 11
9.0952296493876723
 21
4.925671660816529
 31
0.0
  0
LINE
  5
9BF9
  8
0
 10
9.0952296493876723
 20
4.925671660816529
 30
0.0
 11
9.095175870243402
 21
4.9263524724327681
 31
0.0
  0
LINE
  5
9BFA
  8
0
 10
9.095175870243402
 20
4.9263524724327681
 30
0.0
 11
9.0950326468135181
 21
4.9270797800672881
 31
0.0
  0
LINE
  5
9BFB
  8
0
 10
9.0950326468135181
 20
4.9270797800672881
 30
0.0
 11
9.0948393796128446
 21
4.927815317463339
 31
0.0
  0
LINE
  5
9BFC
  8
0
 10
9.0948393796128446
 20
4.927815317463339
 30
0.0
 11
9.0946354691562163
 21
4.9285208183630402
 31
0.0
  0
LINE
  5
9BFD
  8
0
 10
9.0946354691562163
 20
4.9285208183630402
 30
0.0
 11
9.0944603159584716
 21
4.9291580165087181
 31
0.0
  0
LINE
  5
9BFE
  8
0
 10
9.0944603159584716
 20
4.9291580165087181
 30
0.0
 11
9.0943168538560357
 21
4.9297600616815771
 31
0.0
  0
LINE
  5
9BFF
  8
0
 10
9.0943168538560357
 20
4.9297600616815771
 30
0.0
 11
9.0941859801612264
 21
4.930352396020794
 31
0.0
  0
LINE
  5
9C00
  8
0
 10
9.0941859801612264
 20
4.930352396020794
 30
0.0
 11
9.0940609412107776
 21
4.9309392267959984
 31
0.0
  0
LINE
  5
9C01
  8
0
 10
9.0940609412107776
 20
4.9309392267959984
 30
0.0
 11
9.0939349833413861
 21
4.931524761277271
 31
0.0
  0
LINE
  5
9C02
  8
0
 10
9.0939349833413861
 20
4.931524761277271
 30
0.0
 11
9.0938013528897841
 21
4.9321132067342432
 31
0.0
  0
LINE
  5
9C03
  8
0
 10
9.0938013528897841
 20
4.9321132067342432
 30
0.0
 11
9.093653296192679
 21
4.932708770437328
 31
0.0
  0
LINE
  5
9C04
  8
0
 10
9.093653296192679
 20
4.932708770437328
 30
0.0
 11
9.0934840595867872
 21
4.9333156596565004
 31
0.0
  0
LINE
  5
9C05
  8
0
 10
9.0934840595867872
 20
4.9333156596565004
 30
0.0
 11
9.0932868894088301
 21
4.9339380816614931
 31
0.0
  0
LINE
  5
9C06
  8
0
 10
9.0932868894088301
 20
4.9339380816614931
 30
0.0
 11
9.0930590613567368
 21
4.934577489571323
 31
0.0
  0
LINE
  5
9C07
  8
0
 10
9.0932426439004352
 20
4.9398965081410324
 30
0.0
 11
9.0936261394020477
 21
4.9401011655302201
 31
0.0
  0
LINE
  5
9C08
  8
0
 10
9.0936261394020477
 20
4.9401011655302201
 30
0.0
 11
9.0940118863616402
 21
4.9403230414560531
 31
0.0
  0
LINE
  5
9C09
  8
0
 10
9.0940118863616402
 20
4.9403230414560531
 30
0.0
 11
9.094382811222804
 21
4.940578139179701
 31
0.0
  0
LINE
  5
9C0A
  8
0
 10
9.094382811222804
 20
4.940578139179701
 30
0.0
 11
9.0947236349150344
 21
4.9408786251971151
 31
0.0
  0
LINE
  5
9C0B
  8
0
 10
9.0947236349150344
 20
4.9408786251971151
 30
0.0
 11
9.0950262563115434
 21
4.941221318945054
 31
0.0
  0
LINE
  5
9C0C
  8
0
 10
9.0950262563115434
 20
4.941221318945054
 30
0.0
 11
9.0952843687714982
 21
4.9415992030951612
 31
0.0
  0
LINE
  5
9C0D
  8
0
 10
9.0952843687714982
 20
4.9415992030951612
 30
0.0
 11
9.0954916656540554
 21
4.9420052603188651
 31
0.0
  0
LINE
  5
9C0E
  8
0
 10
9.0954916656540554
 20
4.9420052603188651
 30
0.0
 11
9.0956418403183434
 21
4.9424324732881351
 31
0.0
  0
LINE
  5
9C0F
  8
0
 10
9.0956418403183434
 20
4.9424324732881351
 30
0.0
 11
9.0957285861235366
 21
4.9428738246743906
 31
0.0
  0
LINE
  5
9C10
  8
0
 10
9.0957285861235366
 20
4.9428738246743906
 30
0.0
 11
9.0957455964287757
 21
4.9433222971493906
 31
0.0
  0
LINE
  5
9C11
  8
0
 10
9.0957455964287757
 20
4.9433222971493906
 30
0.0
 11
9.095686564593219
 21
4.943770873384663
 31
0.0
  0
LINE
  5
9C12
  8
0
 10
9.095686564593219
 20
4.943770873384663
 30
0.0
 11
9.095547977688561
 21
4.944211804517745
 31
0.0
  0
LINE
  5
9C13
  8
0
 10
9.095547977688561
 20
4.944211804517745
 30
0.0
 11
9.0953374976367112
 21
4.9446344155484212
 31
0.0
  0
LINE
  5
9C14
  8
0
 10
9.0953374976367112
 20
4.9446344155484212
 30
0.0
 11
9.0950655800721272
 21
4.945027299942466
 31
0.0
  0
LINE
  5
9C15
  8
0
 10
9.0950655800721272
 20
4.945027299942466
 30
0.0
 11
9.0947426806292633
 21
4.9453790511657871
 31
0.0
  0
LINE
  5
9C16
  8
0
 10
9.0947426806292633
 20
4.9453790511657871
 30
0.0
 11
9.0943792549425702
 21
4.945678262683713
 31
0.0
  0
LINE
  5
9C17
  8
0
 10
9.0943792549425702
 20
4.945678262683713
 30
0.0
 11
9.0939857586465092
 21
4.9459135279620332
 31
0.0
  0
LINE
  5
9C18
  8
0
 10
9.0939857586465092
 20
4.9459135279620332
 30
0.0
 11
9.0935726473755274
 21
4.9460734404664191
 31
0.0
  0
LINE
  5
9C19
  8
0
 10
9.0935726473755274
 20
4.9460734404664191
 30
0.0
 11
9.0931503767640791
 21
4.9461465936624291
 31
0.0
  0
LINE
  5
9C1A
  8
0
 10
9.0559422816915198
 20
4.9123806064044402
 30
0.0
 11
9.0566649314804248
 21
4.921322396894082
 31
0.0
  0
LINE
  5
9C1B
  8
0
 10
9.0702737442221117
 20
4.8573718931681906
 30
0.0
 11
9.0631294814047223
 21
4.8735154382510473
 31
0.0
  0
LINE
  5
9C1C
  8
0
 10
9.0631294814047223
 20
4.8735154382510473
 30
0.0
 11
9.0619971117455815
 21
4.8890331234966871
 31
0.0
  0
LINE
  5
9C1D
  8
0
 10
9.0619971117455815
 20
4.8890331234966871
 30
0.0
 11
9.0588743622549561
 21
4.9012090083082231
 31
0.0
  0
LINE
  5
9C1E
  8
0
 10
9.0588743622549561
 20
4.9012090083082231
 30
0.0
 11
9.0559422816915198
 21
4.9123806064044402
 31
0.0
  0
LINE
  5
9C1F
  8
0
 10
9.033695147706851
 20
4.8762321065913721
 30
0.0
 11
9.0516937122377286
 21
4.8572809251686522
 31
0.0
  0
LINE
  5
9C20
  8
0
 10
9.0566649314804248
 20
4.921322396894082
 30
0.0
 11
9.0602810914009329
 21
4.925165612941778
 31
0.0
  0
LINE
  5
9C21
  8
0
 10
9.0602810914009329
 20
4.925165612941778
 30
0.0
 11
9.0625972368389416
 21
4.9301461835625551
 31
0.0
  0
LINE
  5
9C22
  8
0
 10
9.062687740798621
 20
4.9301069946805001
 30
0.0
 11
9.054203701282967
 21
4.933780646376813
 31
0.0
  0
LINE
  5
9C23
  8
0
 10
9.054203701282967
 20
4.933780646376813
 30
0.0
 11
9.0448652903149895
 21
4.9320806364000873
 31
0.0
  0
LINE
  5
9C24
  8
0
 10
9.0448652903149895
 20
4.9320806364000873
 30
0.0
 11
9.036829541101417
 21
4.934574615077393
 31
0.0
  0
LINE
  5
9C25
  8
0
 10
9.036829541101417
 20
4.934574615077393
 30
0.0
 11
9.0374590396587209
 21
4.9446211209544781
 31
0.0
  0
LINE
  5
9C26
  8
0
 10
9.0374590396587209
 20
4.9446211209544781
 30
0.0
 11
9.0446520613239016
 21
4.9506206424646271
 31
0.0
  0
LINE
  5
9C27
  8
0
 10
9.0353274774918582
 20
4.9504285180494172
 30
0.0
 11
9.0319776718742073
 21
4.94910620720725
 31
0.0
  0
LINE
  5
9C28
  8
0
 10
9.0319776718742073
 20
4.94910620720725
 30
0.0
 11
9.0323648316805478
 21
4.9433155482238362
 31
0.0
  0
LINE
  5
9C29
  8
0
 10
9.0897132418668072
 20
4.943877730461506
 30
0.0
 11
9.0892635081584281
 21
4.943350373332688
 31
0.0
  0
LINE
  5
9C2A
  8
0
 10
9.0892635081584281
 20
4.943350373332688
 30
0.0
 11
9.088814256296164
 21
4.9427911973032179
 31
0.0
  0
LINE
  5
9C2B
  8
0
 10
9.088814256296164
 20
4.9427911973032179
 30
0.0
 11
9.0883732683081142
 21
4.942204236235284
 31
0.0
  0
LINE
  5
9C2C
  8
0
 10
9.0883732683081142
 20
4.942204236235284
 30
0.0
 11
9.0879483262223761
 21
4.9415935239913971
 31
0.0
  0
LINE
  5
9C2D
  8
0
 10
9.0879483262223761
 20
4.9415935239913971
 30
0.0
 11
9.0875472120670313
 21
4.9409630944333003
 31
0.0
  0
LINE
  5
9C2E
  8
0
 10
9.0875472120670313
 20
4.9409630944333003
 30
0.0
 11
9.0871777078701754
 21
4.9403169814238472
 31
0.0
  0
LINE
  5
9C2F
  8
0
 10
9.0871777078701754
 20
4.9403169814238472
 30
0.0
 11
9.0868475956599042
 21
4.9396592188247714
 31
0.0
  0
LINE
  5
9C30
  8
0
 10
9.0868475956599042
 20
4.9396592188247714
 30
0.0
 11
9.0865646574643044
 21
4.9389938404983651
 31
0.0
  0
LINE
  5
9C31
  8
0
 10
9.0865646574643044
 20
4.9389938404983651
 30
0.0
 11
9.0863341879052264
 21
4.938324207286084
 31
0.0
  0
LINE
  5
9C32
  8
0
 10
9.0863341879052264
 20
4.938324207286084
 30
0.0
 11
9.086151531979576
 21
4.9376509879447212
 31
0.0
  0
LINE
  5
9C33
  8
0
 10
9.086151531979576
 20
4.9376509879447212
 30
0.0
 11
9.0860095472779925
 21
4.936974178209991
 31
0.0
  0
LINE
  5
9C34
  8
0
 10
9.0860095472779925
 20
4.936974178209991
 30
0.0
 11
9.0859010913911504
 21
4.93629377381796
 31
0.0
  0
LINE
  5
9C35
  8
0
 10
9.0859010913911504
 20
4.93629377381796
 30
0.0
 11
9.0858190219096873
 21
4.935609770504584
 31
0.0
  0
LINE
  5
9C36
  8
0
 10
9.0858190219096873
 20
4.935609770504584
 30
0.0
 11
9.0857561964242688
 21
4.9349221640053411
 31
0.0
  0
LINE
  5
9C37
  8
0
 10
9.0857561964242688
 20
4.9349221640053411
 30
0.0
 11
9.0857054725255502
 21
4.934230950056528
 31
0.0
  0
LINE
  5
9C38
  8
0
 10
9.0857054725255502
 20
4.934230950056528
 30
0.0
 11
9.0856597078041794
 21
4.9335361243937532
 31
0.0
  0
LINE
  5
9C39
  8
0
 10
9.0856597078041794
 20
4.9335361243937532
 30
0.0
 11
9.085614301743103
 21
4.9328380546796771
 31
0.0
  0
LINE
  5
9C3A
  8
0
 10
9.085614301743103
 20
4.9328380546796771
 30
0.0
 11
9.0855748213943741
 21
4.9321385962819022
 31
0.0
  0
LINE
  5
9C3B
  8
0
 10
9.0855748213943741
 20
4.9321385962819022
 30
0.0
 11
9.0855493757023424
 21
4.931439976495537
 31
0.0
  0
LINE
  5
9C3C
  8
0
 10
9.0855493757023424
 20
4.931439976495537
 30
0.0
 11
9.0855460736113312
 21
4.930744422615132
 31
0.0
  0
LINE
  5
9C3D
  8
0
 10
9.0855460736113312
 20
4.930744422615132
 30
0.0
 11
9.0855730240656953
 21
4.9300541619352307
 31
0.0
  0
LINE
  5
9C3E
  8
0
 10
9.0855730240656953
 20
4.9300541619352307
 30
0.0
 11
9.0856383360097723
 21
4.929371421750143
 31
0.0
  0
LINE
  5
9C3F
  8
0
 10
9.0856383360097723
 20
4.929371421750143
 30
0.0
 11
9.0857501183879013
 21
4.9286984293548812
 31
0.0
  0
LINE
  5
9C40
  8
0
 10
9.0857501183879013
 20
4.9286984293548812
 30
0.0
 11
9.0859164801444123
 21
4.9280374120439747
 31
0.0
  0
LINE
  5
9C41
  8
0
 10
9.0859164801444123
 20
4.9280374120439747
 30
0.0
 11
9.086143395910657
 21
4.9273916550888499
 31
0.0
  0
LINE
  5
9C42
  8
0
 10
9.086143395910657
 20
4.9273916550888499
 30
0.0
 11
9.086428303065972
 21
4.9267686756679723
 31
0.0
  0
LINE
  5
9C43
  8
0
 10
9.086428303065972
 20
4.9267686756679723
 30
0.0
 11
9.0867665046766781
 21
4.9261770489366654
 31
0.0
  0
LINE
  5
9C44
  8
0
 10
9.0867665046766781
 20
4.9261770489366654
 30
0.0
 11
9.0871533038091172
 21
4.925625350050379
 31
0.0
  0
LINE
  5
9C45
  8
0
 10
9.0871533038091172
 20
4.925625350050379
 30
0.0
 11
9.0875840035296136
 21
4.9251221541644563
 31
0.0
  0
LINE
  5
9C46
  8
0
 10
9.0875840035296136
 20
4.9251221541644563
 30
0.0
 11
9.0880539069045057
 21
4.924676036433989
 31
0.0
  0
LINE
  5
9C47
  8
0
 10
9.0880539069045057
 20
4.924676036433989
 30
0.0
 11
9.0885583170001194
 21
4.9242955720145529
 31
0.0
  0
LINE
  5
9C48
  8
0
 10
9.0885583170001194
 20
4.9242955720145529
 30
0.0
 11
9.0890925368828022
 21
4.923989336061366
 31
0.0
  0
LINE
  5
9C49
  8
0
 10
9.0890925368828022
 20
4.923989336061366
 30
0.0
 11
9.0896530112198946
 21
4.9237640485985121
 31
0.0
  0
LINE
  5
9C4A
  8
0
 10
9.0896530112198946
 20
4.9237640485985121
 30
0.0
 11
9.0902407510827992
 21
4.923619009125332
 31
0.0
  0
LINE
  5
9C4B
  8
0
 10
9.0902407510827992
 20
4.923619009125332
 30
0.0
 11
9.0908579091439652
 21
4.9235516620092312
 31
0.0
  0
LINE
  5
9C4C
  8
0
 10
9.0908579091439652
 20
4.9235516620092312
 30
0.0
 11
9.0915066380757921
 21
4.923559451617959
 31
0.0
  0
LINE
  5
9C4D
  8
0
 10
9.0915066380757921
 20
4.923559451617959
 30
0.0
 11
9.0921890905507325
 21
4.923639822319271
 31
0.0
  0
LINE
  5
9C4E
  8
0
 10
9.0921890905507325
 20
4.923639822319271
 30
0.0
 11
9.0929074192412074
 21
4.9237902184812548
 31
0.0
  0
LINE
  5
9C4F
  8
0
 10
9.0928139685732763
 20
4.935224319901633
 30
0.0
 11
9.0925690335624392
 21
4.935866255016208
 31
0.0
  0
LINE
  5
9C50
  8
0
 10
9.0925690335624392
 20
4.935866255016208
 30
0.0
 11
9.0923416788282161
 21
4.9364909772798411
 31
0.0
  0
LINE
  5
9C51
  8
0
 10
9.0923416788282161
 20
4.9364909772798411
 30
0.0
 11
9.0921493268745941
 21
4.937086169056438
 31
0.0
  0
LINE
  5
9C52
  8
0
 10
9.0921493268745941
 20
4.937086169056438
 30
0.0
 11
9.0920094002055514
 21
4.937639512710688
 31
0.0
  0
LINE
  5
9C53
  8
0
 10
9.0920094002055514
 20
4.937639512710688
 30
0.0
 11
9.0919393213251016
 21
4.9381386906064781
 31
0.0
  0
LINE
  5
9C54
  8
0
 10
9.0919393213251016
 20
4.9381386906064781
 30
0.0
 11
9.0919565127371982
 21
4.9385713851081601
 31
0.0
  0
LINE
  5
9C55
  8
0
 10
9.0919565127371982
 20
4.9385713851081601
 30
0.0
 11
9.092072647602448
 21
4.9389299987299182
 31
0.0
  0
LINE
  5
9C56
  8
0
 10
9.092072647602448
 20
4.9389299987299182
 30
0.0
 11
9.0922764017078315
 21
4.939225814582981
 31
0.0
  0
LINE
  5
9C57
  8
0
 10
9.0922764017078315
 20
4.939225814582981
 30
0.0
 11
9.0925507014969096
 21
4.9394748359284204
 31
0.0
  0
LINE
  5
9C58
  8
0
 10
9.0925507014969096
 20
4.9394748359284204
 30
0.0
 11
9.0928784734132488
 21
4.9396930660275267
 31
0.0
  0
LINE
  5
9C59
  8
0
 10
9.0927274807476461
 20
4.9461247802943262
 30
0.0
 11
9.092304806465707
 21
4.9460125902184
 31
0.0
  0
LINE
  5
9C5A
  8
0
 10
9.092304806465707
 20
4.9460125902184
 30
0.0
 11
9.0918812793587716
 21
4.9458178125698851
 31
0.0
  0
LINE
  5
9C5B
  8
0
 10
9.0918812793587716
 20
4.9458178125698851
 30
0.0
 11
9.091455824867344
 21
4.9455482364835444
 31
0.0
  0
LINE
  5
9C5C
  8
0
 10
9.091455824867344
 20
4.9455482364835444
 30
0.0
 11
9.0910273684319343
 21
4.9452116510948372
 31
0.0
  0
LINE
  5
9C5D
  8
0
 10
9.0910273684319343
 20
4.9452116510948372
 30
0.0
 11
9.0905948354930324
 21
4.9448158455381854
 31
0.0
  0
LINE
  5
9C5E
  8
0
 10
9.0905948354930324
 20
4.9448158455381854
 30
0.0
 11
9.0901571514911623
 21
4.9443686089487073
 31
0.0
  0
LINE
  5
9C5F
  8
0
 10
9.0901571514911623
 20
4.9443686089487073
 30
0.0
 11
9.0897132418668072
 21
4.943877730461506
 31
0.0
  0
LINE
  5
9C60
  8
0
 10
9.0664849876836797
 20
4.9236326202122882
 30
0.0
 11
9.0661280211987503
 21
4.923350769605344
 31
0.0
  0
LINE
  5
9C61
  8
0
 10
9.0661280211987503
 20
4.923350769605344
 30
0.0
 11
9.0657980466249573
 21
4.923068114500321
 31
0.0
  0
LINE
  5
9C62
  8
0
 10
9.0657980466249573
 20
4.923068114500321
 30
0.0
 11
9.0654969600765352
 21
4.9227806778898131
 31
0.0
  0
LINE
  5
9C63
  8
0
 10
9.0654969600765352
 20
4.9227806778898131
 30
0.0
 11
9.0652266576677363
 21
4.9224844827665439
 31
0.0
  0
LINE
  5
9C64
  8
0
 10
9.0652266576677363
 20
4.9224844827665439
 30
0.0
 11
9.0649890355127951
 21
4.922175552123349
 31
0.0
  0
LINE
  5
9C65
  8
0
 10
9.0649890355127951
 20
4.922175552123349
 30
0.0
 11
9.0647859897259551
 21
4.9218499089529351
 31
0.0
  0
LINE
  5
9C66
  8
0
 10
9.0647859897259551
 20
4.9218499089529351
 30
0.0
 11
9.0646194164214648
 21
4.9215035762481412
 31
0.0
  0
LINE
  5
9C67
  8
0
 10
9.0646194164214648
 20
4.9215035762481412
 30
0.0
 11
9.0644912117135554
 21
4.9211325770016812
 31
0.0
  0
LINE
  5
9C68
  8
0
 10
9.0644912117135554
 20
4.9211325770016812
 30
0.0
 11
9.0644017913544168
 21
4.9207342056262151
 31
0.0
  0
LINE
  5
9C69
  8
0
 10
9.0644017913544168
 20
4.9207342056262151
 30
0.0
 11
9.0643456496480166
 21
4.920310842214346
 31
0.0
  0
LINE
  5
9C6A
  8
0
 10
9.0643456496480166
 20
4.920310842214346
 30
0.0
 11
9.0643158005362441
 21
4.9198661382782802
 31
0.0
  0
LINE
  5
9C6B
  8
0
 10
9.0643158005362441
 20
4.9198661382782802
 30
0.0
 11
9.0643052579610224
 21
4.91940374533044
 31
0.0
  0
LINE
  5
9C6C
  8
0
 10
9.0643052579610224
 20
4.91940374533044
 30
0.0
 11
9.0643070358642408
 21
4.918927314883148
 31
0.0
  0
LINE
  5
9C6D
  8
0
 10
9.0643070358642408
 20
4.918927314883148
 30
0.0
 11
9.0643141481878189
 21
4.918440498448831
 31
0.0
  0
LINE
  5
9C6E
  8
0
 10
9.0643141481878189
 20
4.918440498448831
 30
0.0
 11
9.0643196088736442
 21
4.9179469475395763
 31
0.0
  0
LINE
  5
9C6F
  8
0
 10
9.0643196088736442
 20
4.9179469475395763
 30
0.0
 11
9.0643164318636344
 21
4.9174503136680414
 31
0.0
  0
LINE
  5
9C70
  8
0
 10
9.0643164318636344
 20
4.9174503136680414
 30
0.0
 11
9.0643001751240408
 21
4.916954220629802
 31
0.0
  0
LINE
  5
9C71
  8
0
 10
9.0643001751240408
 20
4.916954220629802
 30
0.0
 11
9.0642765727184802
 21
4.9164621813530403
 31
0.0
  0
LINE
  5
9C72
  8
0
 10
9.0642765727184802
 20
4.9164621813530403
 30
0.0
 11
9.0642539027349081
 21
4.9159776810491831
 31
0.0
  0
LINE
  5
9C73
  8
0
 10
9.0642539027349081
 20
4.9159776810491831
 30
0.0
 11
9.0642404432612942
 21
4.915504204929789
 31
0.0
  0
LINE
  5
9C74
  8
0
 10
9.0642404432612942
 20
4.915504204929789
 30
0.0
 11
9.0642444723856102
 21
4.915045238206285
 31
0.0
  0
LINE
  5
9C75
  8
0
 10
9.0642444723856102
 20
4.915045238206285
 30
0.0
 11
9.0642742681958168
 21
4.9146042660902332
 31
0.0
  0
LINE
  5
9C76
  8
0
 10
9.0642742681958168
 20
4.9146042660902332
 30
0.0
 11
9.0643381087798751
 21
4.9141847737930631
 31
0.0
  0
LINE
  5
9C77
  8
0
 10
9.0643381087798751
 20
4.9141847737930631
 30
0.0
 11
9.0644442722257512
 21
4.9137902465263323
 31
0.0
  0
LINE
  5
9C78
  8
0
 10
9.0644442722257512
 20
4.9137902465263323
 30
0.0
 11
9.0645980249647025
 21
4.913422883631025
 31
0.0
  0
LINE
  5
9C79
  8
0
 10
9.0645980249647025
 20
4.913422883631025
 30
0.0
 11
9.064792586801099
 21
4.9130797409654861
 31
0.0
  0
LINE
  5
9C7A
  8
0
 10
9.064792586801099
 20
4.9130797409654861
 30
0.0
 11
9.0650181658826074
 21
4.912756588517933
 31
0.0
  0
LINE
  5
9C7B
  8
0
 10
9.0650181658826074
 20
4.912756588517933
 30
0.0
 11
9.065264970356905
 21
4.9124491962761532
 31
0.0
  0
LINE
  5
9C7C
  8
0
 10
9.065264970356905
 20
4.9124491962761532
 30
0.0
 11
9.065523208371653
 21
4.9121533342284911
 31
0.0
  0
LINE
  5
9C7D
  8
0
 10
9.065523208371653
 20
4.9121533342284911
 30
0.0
 11
9.0657830880745252
 21
4.9118647723627182
 31
0.0
  0
LINE
  5
9C7E
  8
0
 10
9.0657830880745252
 20
4.9118647723627182
 30
0.0
 11
9.0660348176131702
 21
4.911579280666956
 31
0.0
  0
LINE
  5
9C7F
  8
0
 10
9.0660348176131702
 20
4.911579280666956
 30
0.0
 11
9.0662686051352743
 21
4.9112926291290879
 31
0.0
  0
LINE
  5
9C80
  8
0
 10
9.0662686051352743
 20
4.9112926291290879
 30
0.0
 11
9.0664778317712713
 21
4.9110029749366451
 31
0.0
  0
LINE
  5
9C81
  8
0
 10
9.0664778317712713
 20
4.9110029749366451
 30
0.0
 11
9.0666685705827224
 21
4.91071802407407
 31
0.0
  0
LINE
  5
9C82
  8
0
 10
9.0666685705827224
 20
4.91071802407407
 30
0.0
 11
9.0668500676139665
 21
4.910447869725199
 31
0.0
  0
LINE
  5
9C83
  8
0
 10
9.0668500676139665
 20
4.910447869725199
 30
0.0
 11
9.067031568909341
 21
4.910202605073775
 31
0.0
  0
LINE
  5
9C84
  8
0
 10
9.067031568909341
 20
4.910202605073775
 30
0.0
 11
9.0672223205131655
 21
4.9099923233037499
 31
0.0
  0
LINE
  5
9C85
  8
0
 10
9.0672223205131655
 20
4.9099923233037499
 30
0.0
 11
9.0674315684697842
 21
4.9098271175989749
 31
0.0
  0
LINE
  5
9C86
  8
0
 10
9.0674315684697842
 20
4.9098271175989749
 30
0.0
 11
9.0676685588235433
 21
4.9097170811430706
 31
0.0
  0
LINE
  5
9C87
  8
0
 10
9.0676685588235433
 20
4.9097170811430706
 30
0.0
 11
9.0679425376187641
 21
4.9096723071202151
 31
0.0
  0
LINE
  5
9C88
  8
0
 10
9.0679425376187641
 20
4.9096723071202151
 30
0.0
 11
9.0682600616583038
 21
4.9096989801693081
 31
0.0
  0
LINE
  5
9C89
  8
0
 10
9.0682600616583038
 20
4.9096989801693081
 30
0.0
 11
9.0686169307790472
 21
4.9097876507532883
 31
0.0
  0
LINE
  5
9C8A
  8
0
 10
9.0686169307790472
 20
4.9097876507532883
 30
0.0
 11
9.0690062555763973
 21
4.909924960789338
 31
0.0
  0
LINE
  5
9C8B
  8
0
 10
9.0690062555763973
 20
4.909924960789338
 30
0.0
 11
9.0694211466457624
 21
4.910097552195678
 31
0.0
  0
LINE
  5
9C8C
  8
0
 10
9.0694211466457624
 20
4.910097552195678
 30
0.0
 11
9.0698547145825508
 21
4.9102920668897232
 31
0.0
  0
LINE
  5
9C8D
  8
0
 10
9.0698547145825508
 20
4.9102920668897232
 30
0.0
 11
9.0703000699821636
 21
4.9104951467894571
 31
0.0
  0
LINE
  5
9C8E
  8
0
 10
9.0703000699821636
 20
4.9104951467894571
 30
0.0
 11
9.0707503234400022
 21
4.9106934338128641
 31
0.0
  0
LINE
  5
9C8F
  8
0
 10
9.0707503234400022
 20
4.9106934338128641
 30
0.0
 11
9.0711985855514801
 21
4.9108735698775901
 31
0.0
  0
LINE
  5
9C90
  8
0
 10
9.0711985855514801
 20
4.9108735698775901
 30
0.0
 11
9.0716380737520126
 21
4.9110268218187212
 31
0.0
  0
LINE
  5
9C91
  8
0
 10
9.0716380737520126
 20
4.9110268218187212
 30
0.0
 11
9.0720624328371127
 21
4.9111629561408572
 31
0.0
  0
LINE
  5
9C92
  8
0
 10
9.0720624328371127
 20
4.9111629561408572
 30
0.0
 11
9.0724654144423038
 21
4.9112963642658061
 31
0.0
  0
LINE
  5
9C93
  8
0
 10
9.0724654144423038
 20
4.9112963642658061
 30
0.0
 11
9.0728407702031113
 21
4.9114414376151672
 31
0.0
  0
LINE
  5
9C94
  8
0
 10
9.0728407702031113
 20
4.9114414376151672
 30
0.0
 11
9.0731822517550693
 21
4.9116125676109723
 31
0.0
  0
LINE
  5
9C95
  8
0
 10
9.0731822517550693
 20
4.9116125676109723
 30
0.0
 11
9.0734836107336942
 21
4.9118241456749283
 31
0.0
  0
LINE
  5
9C96
  8
0
 10
9.0734836107336942
 20
4.9118241456749283
 30
0.0
 11
9.0737385987745114
 21
4.9120905632290706
 31
0.0
  0
LINE
  5
9C97
  8
0
 10
9.0737385987745114
 20
4.9120905632290706
 30
0.0
 11
9.0739409675130656
 21
4.912426211694874
 31
0.0
  0
LINE
  5
9C98
  8
0
 10
9.0739409675130656
 20
4.912426211694874
 30
0.0
 11
9.0740862232722872
 21
4.9128406848800514
 31
0.0
  0
LINE
  5
9C99
  8
0
 10
9.0740862232722872
 20
4.9128406848800514
 30
0.0
 11
9.0741768911248801
 21
4.913324386134259
 31
0.0
  0
LINE
  5
9C9A
  8
0
 10
9.0741768911248801
 20
4.913324386134259
 30
0.0
 11
9.0742172508309444
 21
4.9138629211928411
 31
0.0
  0
LINE
  5
9C9B
  8
0
 10
9.0742172508309444
 20
4.9138629211928411
 30
0.0
 11
9.0742115821505696
 21
4.914441895791807
 31
0.0
  0
LINE
  5
9C9C
  8
0
 10
9.0742115821505696
 20
4.914441895791807
 30
0.0
 11
9.0741641648438751
 21
4.9150469156658092
 31
0.0
  0
LINE
  5
9C9D
  8
0
 10
9.0741641648438751
 20
4.9150469156658092
 30
0.0
 11
9.0740792786709736
 21
4.9156635865506324
 31
0.0
  0
LINE
  5
9C9E
  8
0
 10
9.0740792786709736
 20
4.9156635865506324
 30
0.0
 11
9.0739612033919528
 21
4.9162775141817283
 31
0.0
  0
LINE
  5
9C9F
  8
0
 10
9.0739612033919528
 20
4.9162775141817283
 30
0.0
 11
9.0738142187669357
 21
4.9168743042945371
 31
0.0
  0
LINE
  5
9CA0
  8
0
 10
9.0738142187669357
 20
4.9168743042945371
 30
0.0
 11
9.0736434102387555
 21
4.9174433605385266
 31
0.0
  0
LINE
  5
9CA1
  8
0
 10
9.0736434102387555
 20
4.9174433605385266
 30
0.0
 11
9.0734570859811363
 21
4.9179892782190091
 31
0.0
  0
LINE
  5
9CA2
  8
0
 10
9.0734570859811363
 20
4.9179892782190091
 30
0.0
 11
9.0732643598505476
 21
4.918520450555091
 31
0.0
  0
LINE
  5
9CA3
  8
0
 10
9.0732643598505476
 20
4.918520450555091
 30
0.0
 11
9.0730743457034428
 21
4.9190452707665591
 31
0.0
  0
LINE
  5
9CA4
  8
0
 10
9.0730743457034428
 20
4.9190452707665591
 30
0.0
 11
9.0728961573962916
 21
4.9195721320725161
 31
0.0
  0
LINE
  5
9CA5
  8
0
 10
9.0728961573962916
 20
4.9195721320725161
 30
0.0
 11
9.0727389087855492
 21
4.9201094276921804
 31
0.0
  0
LINE
  5
9CA6
  8
0
 10
9.0727389087855492
 20
4.9201094276921804
 30
0.0
 11
9.0726117137276727
 21
4.9206655508451131
 31
0.0
  0
LINE
  5
9CA7
  8
0
 10
9.0726117137276727
 20
4.9206655508451131
 30
0.0
 11
9.0725236860791352
 21
4.9212488947505291
 31
0.0
  0
LINE
  5
9CA8
  8
0
 10
9.0725236860791352
 20
4.9212488947505291
 30
0.0
 11
9.0724805416625731
 21
4.9218652361132591
 31
0.0
  0
LINE
  5
9CA9
  8
0
 10
9.0724805416625731
 20
4.9218652361132591
 30
0.0
 11
9.0724744041653516
 21
4.9225098855804381
 31
0.0
  0
LINE
  5
9CAA
  8
0
 10
9.0724744041653516
 20
4.9225098855804381
 30
0.0
 11
9.0724939992410114
 21
4.9231755372845747
 31
0.0
  0
LINE
  5
9CAB
  8
0
 10
9.0724939992410114
 20
4.9231755372845747
 30
0.0
 11
9.0725280525431167
 21
4.923854885357966
 31
0.0
  0
LINE
  5
9CAC
  8
0
 10
9.0725280525431167
 20
4.923854885357966
 30
0.0
 11
9.0725652897252136
 21
4.9245406239333507
 31
0.0
  0
LINE
  5
9CAD
  8
0
 10
9.0725652897252136
 20
4.9245406239333507
 30
0.0
 11
9.0725944364408342
 21
4.9252254471433581
 31
0.0
  0
LINE
  5
9CAE
  8
0
 10
9.0725944364408342
 20
4.9252254471433581
 30
0.0
 11
9.0726042183435425
 21
4.9259020491205092
 31
0.0
  0
LINE
  5
9CAF
  8
0
 10
9.0726042183435425
 20
4.9259020491205092
 30
0.0
 11
9.0725833610868793
 21
4.9265631239969681
 31
0.0
  0
LINE
  5
9CB0
  8
0
 10
9.0725833610868793
 20
4.9265631239969681
 30
0.0
 11
9.0725243993724902
 21
4.9272029850886812
 31
0.0
  0
LINE
  5
9CB1
  8
0
 10
9.0725243993724902
 20
4.9272029850886812
 30
0.0
 11
9.0724351040943514
 21
4.9278224224429961
 31
0.0
  0
LINE
  5
9CB2
  8
0
 10
9.0724351040943514
 20
4.9278224224429961
 30
0.0
 11
9.0723270551945419
 21
4.9284238452909204
 31
0.0
  0
LINE
  5
9CB3
  8
0
 10
9.0723270551945419
 20
4.9284238452909204
 30
0.0
 11
9.0722118326151353
 21
4.9290096628625371
 31
0.0
  0
LINE
  5
9CB4
  8
0
 10
9.0722118326151353
 20
4.9290096628625371
 30
0.0
 11
9.0721010162982214
 21
4.9295822843888564
 31
0.0
  0
LINE
  5
9CB5
  8
0
 10
9.0721010162982214
 20
4.9295822843888564
 30
0.0
 11
9.0720061861858561
 21
4.9301441191001913
 31
0.0
  0
LINE
  5
9CB6
  8
0
 10
9.0720061861858561
 20
4.9301441191001913
 30
0.0
 11
9.0719389222201201
 21
4.9306975762273151
 31
0.0
  0
LINE
  5
9CB7
  8
0
 10
9.0719389222201201
 20
4.9306975762273151
 30
0.0
 11
9.071910804343096
 21
4.931245065001006
 31
0.0
  0
LINE
  5
9CB8
  8
0
 10
9.071910804343096
 20
4.931245065001006
 30
0.0
 11
9.0719289079226044
 21
4.9317883351334331
 31
0.0
  0
LINE
  5
9CB9
  8
0
 10
9.0719289079226044
 20
4.9317883351334331
 30
0.0
 11
9.0719822900294567
 21
4.932326498265863
 31
0.0
  0
LINE
  5
9CBA
  8
0
 10
9.0719822900294567
 20
4.932326498265863
 30
0.0
 11
9.072055503160227
 21
4.9328580065204051
 31
0.0
  0
LINE
  5
9CBB
  8
0
 10
9.072055503160227
 20
4.9328580065204051
 30
0.0
 11
9.0721330998114702
 21
4.9333813120198311
 31
0.0
  0
LINE
  5
9CBC
  8
0
 10
9.0721330998114702
 20
4.9333813120198311
 30
0.0
 11
9.0721996324797747
 21
4.9338948668869271
 31
0.0
  0
LINE
  5
9CBD
  8
0
 10
9.0721996324797747
 20
4.9338948668869271
 30
0.0
 11
9.0722396536616792
 21
4.9343971232440254
 31
0.0
  0
LINE
  5
9CBE
  8
0
 10
9.0722396536616792
 20
4.9343971232440254
 30
0.0
 11
9.0722377158537757
 21
4.9348865332140122
 31
0.0
  0
LINE
  5
9CBF
  8
0
 10
9.0722377158537757
 20
4.9348865332140122
 30
0.0
 11
9.0721783715526154
 21
4.93536154891944
 31
0.0
  0
LINE
  5
9CC0
  8
0
 10
9.0721783715526154
 20
4.93536154891944
 30
0.0
 11
9.0720505688569357
 21
4.9358188803508911
 31
0.0
  0
LINE
  5
9CC1
  8
0
 10
9.0720505688569357
 20
4.9358188803508911
 30
0.0
 11
9.0718608382741444
 21
4.9362482689714371
 31
0.0
  0
LINE
  5
9CC2
  8
0
 10
9.0718608382741444
 20
4.9362482689714371
 30
0.0
 11
9.0716201059138246
 21
4.9366377141118392
 31
0.0
  0
LINE
  5
9CC3
  8
0
 10
9.0716201059138246
 20
4.9366377141118392
 30
0.0
 11
9.0713392978855492
 21
4.9369752151030752
 31
0.0
  0
LINE
  5
9CC4
  8
0
 10
9.0713392978855492
 20
4.9369752151030752
 30
0.0
 11
9.0710293402988942
 21
4.9372487712761268
 31
0.0
  0
LINE
  5
9CC5
  8
0
 10
9.0710293402988942
 20
4.9372487712761268
 30
0.0
 11
9.070701159263443
 21
4.937446381961875
 31
0.0
  0
LINE
  5
9CC6
  8
0
 10
9.070701159263443
 20
4.937446381961875
 30
0.0
 11
9.0703656808887754
 21
4.9375560464912951
 31
0.0
  0
LINE
  5
9CC7
  8
0
 10
9.0703656808887754
 20
4.9375560464912951
 30
0.0
 11
9.0700338312844764
 21
4.9375657641952531
 31
0.0
  0
LINE
  5
9CC8
  8
0
 10
9.0700338312844764
 20
4.9375657641952531
 30
0.0
 11
9.0697144120635826
 21
4.937468495051573
 31
0.0
  0
LINE
  5
9CC9
  8
0
 10
9.0697144120635826
 20
4.937468495051573
 30
0.0
 11
9.0694077268530648
 21
4.9372770416256291
 31
0.0
  0
LINE
  5
9CCA
  8
0
 10
9.0694077268530648
 20
4.9372770416256291
 30
0.0
 11
9.0691119547833665
 21
4.9370091671299852
 31
0.0
  0
LINE
  5
9CCB
  8
0
 10
9.0691119547833665
 20
4.9370091671299852
 30
0.0
 11
9.0688252749849276
 21
4.936682634776953
 31
0.0
  0
LINE
  5
9CCC
  8
0
 10
9.0688252749849276
 20
4.936682634776953
 30
0.0
 11
9.0685458665881793
 21
4.9363152077786481
 31
0.0
  0
LINE
  5
9CCD
  8
0
 10
9.0685458665881793
 20
4.9363152077786481
 30
0.0
 11
9.0682719087235757
 21
4.9359246493473821
 31
0.0
  0
LINE
  5
9CCE
  8
0
 10
9.0682719087235757
 20
4.9359246493473821
 30
0.0
 11
9.0680015805215461
 21
4.9355287226958353
 31
0.0
  0
LINE
  5
9CCF
  8
0
 10
9.0680015805215461
 20
4.9355287226958353
 30
0.0
 11
9.0677330611125289
 21
4.9351451910360948
 31
0.0
  0
LINE
  5
9CD0
  8
0
 10
9.0677330611125289
 20
4.9351451910360948
 30
0.0
 11
9.0674661600028799
 21
4.934787521045334
 31
0.0
  0
LINE
  5
9CD1
  8
0
 10
9.0674661600028799
 20
4.934787521045334
 30
0.0
 11
9.0672072082026141
 21
4.9344519932577642
 31
0.0
  0
LINE
  5
9CD2
  8
0
 10
9.0672072082026141
 20
4.9344519932577642
 30
0.0
 11
9.0669641670976393
 21
4.93413059167312
 31
0.0
  0
LINE
  5
9CD3
  8
0
 10
9.0669641670976393
 20
4.93413059167312
 30
0.0
 11
9.066744998073883
 21
4.933815300290461
 31
0.0
  0
LINE
  5
9CD4
  8
0
 10
9.066744998073883
 20
4.933815300290461
 30
0.0
 11
9.0665576625172584
 21
4.933498103109172
 31
0.0
  0
LINE
  5
9CD5
  8
0
 10
9.0665576625172584
 20
4.933498103109172
 30
0.0
 11
9.0664101218136945
 21
4.9331709841286511
 31
0.0
  0
LINE
  5
9CD6
  8
0
 10
9.0664101218136945
 20
4.9331709841286511
 30
0.0
 11
9.0663103373491012
 21
4.9328259273477171
 31
0.0
  0
LINE
  5
9CD7
  8
0
 10
9.0663103373491012
 20
4.9328259273477171
 30
0.0
 11
9.0662662705094021
 21
4.932454916766118
 31
0.0
  0
LINE
  5
9CD8
  8
0
 10
9.0662662705094021
 20
4.932454916766118
 30
0.0
 11
9.0662834027667554
 21
4.932052470272648
 31
0.0
  0
LINE
  5
9CD9
  8
0
 10
9.0662834027667554
 20
4.932052470272648
 30
0.0
 11
9.0663572959382535
 21
4.9316232413169692
 31
0.0
  0
LINE
  5
9CDA
  8
0
 10
9.0663572959382535
 20
4.9316232413169692
 30
0.0
 11
9.0664810319272124
 21
4.931174417237794
 31
0.0
  0
LINE
  5
9CDB
  8
0
 10
9.0664810319272124
 20
4.931174417237794
 30
0.0
 11
9.0666476926369661
 21
4.930713185374314
 31
0.0
  0
LINE
  5
9CDC
  8
0
 10
9.0666476926369661
 20
4.930713185374314
 30
0.0
 11
9.0668503599708377
 21
4.9302467330658111
 31
0.0
  0
LINE
  5
9CDD
  8
0
 10
9.0668503599708377
 20
4.9302467330658111
 30
0.0
 11
9.0670821158321502
 21
4.9297822476513602
 31
0.0
  0
LINE
  5
9CDE
  8
0
 10
9.0670821158321502
 20
4.9297822476513602
 30
0.0
 11
9.0673360421242375
 21
4.929326916469563
 31
0.0
  0
LINE
  5
9CDF
  8
0
 10
9.0673360421242375
 20
4.929326916469563
 30
0.0
 11
9.0676052207504085
 21
4.9288879268602841
 31
0.0
  0
LINE
  5
9CE0
  8
0
 10
9.0676052207504085
 20
4.9288879268602841
 30
0.0
 11
9.0678816868301197
 21
4.9284708792411021
 31
0.0
  0
LINE
  5
9CE1
  8
0
 10
9.0678816868301197
 20
4.9284708792411021
 30
0.0
 11
9.0681532883472542
 21
4.9280750263465043
 31
0.0
  0
LINE
  5
9CE2
  8
0
 10
9.0681532883472542
 20
4.9280750263465043
 30
0.0
 11
9.0684068265017928
 21
4.927698033989599
 31
0.0
  0
LINE
  5
9CE3
  8
0
 10
9.0684068265017928
 20
4.927698033989599
 30
0.0
 11
9.0686291024937624
 21
4.9273375679833844
 31
0.0
  0
LINE
  5
9CE4
  8
0
 10
9.0686291024937624
 20
4.9273375679833844
 30
0.0
 11
9.0688069175231512
 21
4.9269912941415441
 31
0.0
  0
LINE
  5
9CE5
  8
0
 10
9.0688069175231512
 20
4.9269912941415441
 30
0.0
 11
9.0689270727899558
 21
4.9266568782769582
 31
0.0
  0
LINE
  5
9CE6
  8
0
 10
9.0689270727899558
 20
4.9266568782769582
 30
0.0
 11
9.0689763694941767
 21
4.9263319862029631
 31
0.0
  0
LINE
  5
9CE7
  8
0
 10
9.0689763694941767
 20
4.9263319862029631
 30
0.0
 11
9.0689416088358161
 21
4.926014283732794
 31
0.0
  0
LINE
  5
9CE8
  8
0
 10
9.0689416088358161
 20
4.926014283732794
 30
0.0
 11
9.0688143408140292
 21
4.9257017906498932
 31
0.0
  0
LINE
  5
9CE9
  8
0
 10
9.0688143408140292
 20
4.9257017906498932
 30
0.0
 11
9.0686051106245902
 21
4.9253939426206399
 31
0.0
  0
LINE
  5
9CEA
  8
0
 10
9.0686051106245902
 20
4.9253939426206399
 30
0.0
 11
9.0683292122624408
 21
4.9250905292814151
 31
0.0
  0
LINE
  5
9CEB
  8
0
 10
9.0683292122624408
 20
4.9250905292814151
 30
0.0
 11
9.0680019397225156
 21
4.92479134026871
 31
0.0
  0
LINE
  5
9CEC
  8
0
 10
9.0680019397225156
 20
4.92479134026871
 30
0.0
 11
9.0676385869997382
 21
4.9244961652188941
 31
0.0
  0
LINE
  5
9CED
  8
0
 10
9.0676385869997382
 20
4.9244961652188941
 30
0.0
 11
9.0672544480890434
 21
4.9242047937685811
 31
0.0
  0
LINE
  5
9CEE
  8
0
 10
9.0672544480890434
 20
4.9242047937685811
 30
0.0
 11
9.0668648169853832
 21
4.923917015554248
 31
0.0
  0
LINE
  5
9CEF
  8
0
 10
9.0668648169853832
 20
4.923917015554248
 30
0.0
 11
9.0664849876836797
 21
4.9236326202122882
 31
0.0
  0
LINE
  5
9CF0
  8
0
 10
9.0929074192412074
 20
4.9237902184812548
 30
0.0
 11
9.0936637768196462
 21
4.9240080844712111
 31
0.0
  0
LINE
  5
9CF1
  8
0
 10
9.0930590613567368
 20
4.934577489571323
 30
0.0
 11
9.0928139685732763
 21
4.935224319901633
 31
0.0
  0
LINE
  5
9CF2
  8
0
 10
9.0928784734132488
 20
4.9396930660275267
 30
0.0
 11
9.0932426439004352
 21
4.9398965081410324
 31
0.0
  0
LINE
  5
9CF3
  8
0
 10
9.0931503767640791
 20
4.9461465936624291
 30
0.0
 11
9.0927274807476461
 21
4.9461247802943262
 31
0.0
  0
LINE
  5
9CF4
  8
0
 10
9.0786420724422552
 20
4.83425001089915
 30
0.0
 11
9.079925812852748
 21
4.8391935758700111
 31
0.0
  0
LINE
  5
9CF5
  8
0
 10
9.079925812852748
 20
4.8391935758700111
 30
0.0
 11
9.0804170400506496
 21
4.848402448406655
 31
0.0
  0
LINE
  5
9CF6
  8
0
 10
9.0639299998012923
 20
4.8409707267104523
 30
0.0
 11
9.0683357619584122
 21
4.8333483360871661
 31
0.0
  0
LINE
  5
9CF7
  8
0
 10
9.0683357619584122
 20
4.8333483360871661
 30
0.0
 11
9.0702555506221891
 21
4.8280605482059364
 31
0.0
  0
LINE
  5
9CF8
  8
0
 10
9.0702555506221891
 20
4.8280605482059364
 30
0.0
 11
9.0740165315980725
 21
4.8262622927894627
 31
0.0
  0
LINE
  5
9CF9
  8
0
 10
9.0740165315980725
 20
4.8262622927894627
 30
0.0
 11
9.0754974906317241
 21
4.8279280987983331
 31
0.0
  0
LINE
  5
9CFA
  8
0
 10
9.0754974906317241
 20
4.8279280987983331
 30
0.0
 11
9.076208496516676
 21
4.829382859048108
 31
0.0
  0
LINE
  5
9CFB
  8
0
 10
9.076208496516676
 20
4.829382859048108
 30
0.0
 11
9.0770046484492664
 21
4.8310122778570941
 31
0.0
  0
LINE
  5
9CFC
  8
0
 10
9.0770046484492664
 20
4.8310122778570941
 30
0.0
 11
9.0781865047002022
 21
4.8324939646347502
 31
0.0
  0
LINE
  5
9CFD
  8
0
 10
9.0781865047002022
 20
4.8324939646347502
 30
0.0
 11
9.0786420724422552
 21
4.83425001089915
 31
0.0
  0
ARC
  5
9CFE
  8
0
 10
8.6898841402840894
 20
4.8640605882434311
 30
0.0
 40
0.4022204683564758
 50
355.40189000000191
 51
1.126700999996852
  0
LINE
  5
9CFF
  8
0
 10
9.0804170400506496
 20
4.848402448406655
 30
0.0
 11
9.0702737442221117
 21
4.8573718931681906
 31
0.0
  0
LINE
  5
9D00
  8
0
 10
9.0516937122377286
 20
4.8572809251686522
 30
0.0
 11
9.0639299998012923
 21
4.8409707267104523
 31
0.0
  0
LINE
  5
9D01
  8
0
 10
9.1813020071063463
 20
4.9249225464467372
 30
0.0
 11
9.1915661084383729
 21
4.9175963476302513
 31
0.0
  0
LINE
  5
9D02
  8
0
 10
9.1915661084383729
 20
4.9175963476302513
 30
0.0
 11
9.1865701458997826
 21
4.9096530219042052
 31
0.0
  0
ARC
  5
9D03
  8
0
 10
9.1994461204366047
 20
5.2149663718918164
 30
0.0
 40
0.3452388411446434
 50
255.65818500000009
 51
263.46686500000021
  0
LINE
  5
9D04
  8
0
 10
9.1513058550428834
 20
4.9444370017231432
 30
0.0
 11
9.1674202903658326
 21
4.9341095866633351
 31
0.0
  0
LINE
  5
9D05
  8
0
 10
9.1767419632218914
 20
4.9047603990129529
 30
0.0
 11
9.1752384441243358
 21
4.900299328312256
 31
0.0
  0
LINE
  5
9D06
  8
0
 10
9.1752384441243358
 20
4.900299328312256
 30
0.0
 11
9.1694572458131081
 21
4.901642743730461
 31
0.0
  0
LINE
  5
9D07
  8
0
 10
9.1694572458131081
 20
4.901642743730461
 30
0.0
 11
9.1595657494074914
 21
4.9003648252720451
 31
0.0
  0
LINE
  5
9D08
  8
0
 10
9.1595657494074914
 20
4.9003648252720451
 30
0.0
 11
9.1479342171053304
 21
4.904466390438297
 31
0.0
  0
LINE
  5
9D09
  8
0
 10
9.1479342171053304
 20
4.904466390438297
 30
0.0
 11
9.1286904825957915
 21
4.9141126371171131
 31
0.0
  0
LINE
  5
9D0A
  8
0
 10
9.1286904825957915
 20
4.9141126371171131
 30
0.0
 11
9.1258348151520341
 21
4.9293304918357981
 31
0.0
  0
LINE
  5
9D0B
  8
0
 10
9.1258348151520341
 20
4.9293304918357981
 30
0.0
 11
9.1180879803052228
 21
4.940988222921872
 31
0.0
  0
LINE
  5
9D0C
  8
0
 10
9.1601661382049215
 20
4.8719697100017321
 30
0.0
 11
9.1633893163671072
 21
4.8716007437951694
 31
0.0
  0
LINE
  5
9D0D
  8
0
 10
9.1633893163671072
 20
4.8716007437951694
 30
0.0
 11
9.1666641643530742
 21
4.871733193202771
 31
0.0
  0
LINE
  5
9D0E
  8
0
 10
9.1666641643530742
 20
4.871733193202771
 30
0.0
 11
9.169899714163213
 21
4.8719697100017321
 31
0.0
  0
ARC
  5
9D0F
  8
0
 10
9.168074532219034
 20
4.896913135494855
 30
0.0
 40
0.0250103779408299
 50
274.18491599999982
 51
341.56505100000112
  0
LINE
  5
9D10
  8
0
 10
9.1674202903658326
 20
4.9341095866633351
 30
0.0
 11
9.1813020071063463
 21
4.9249225464467372
 31
0.0
  0
LINE
  5
9D11
  8
0
 10
9.1865701458997826
 20
4.9096530219042052
 30
0.0
 11
9.1767419632218914
 21
4.9047603990129529
 31
0.0
  0
LINE
  5
9D12
  8
0
 10
9.1105216259696462
 20
4.994364606373205
 30
0.0
 11
9.1388541552562437
 21
4.9981328647891132
 31
0.0
  0
LINE
  5
9D13
  8
0
 10
9.1173187549005252
 20
5.0630985713906931
 30
0.0
 11
9.1102843814266627
 21
5.0558145817258211
 31
0.0
  0
LINE
  5
9D14
  8
0
 10
9.1039057052940002
 20
4.9573129762599111
 30
0.0
 11
9.1128380351117197
 21
4.9629842852276624
 31
0.0
  0
LINE
  5
9D15
  8
0
 10
9.1102843814266627
 20
5.0558145817258211
 30
0.0
 11
9.1018039806310043
 21
5.0586207625778981
 31
0.0
  0
LINE
  5
9D16
  8
0
 10
9.1018039806310043
 20
5.0586207625778981
 30
0.0
 11
9.1019393410144236
 21
5.0511431930100299
 31
0.0
  0
LINE
  5
9D17
  8
0
 10
9.1019393410144236
 20
5.0511431930100299
 30
0.0
 11
9.0952870331389288
 21
5.047035805891368
 31
0.0
  0
LINE
  5
9D18
  8
0
 10
9.0326188143354553
 20
5.040898740765666
 30
0.0
 11
9.0368142584774862
 21
5.0443031271832961
 31
0.0
  0
LINE
  5
9D19
  8
0
 10
9.0856225928603394
 20
5.0411847441566771
 30
0.0
 11
9.0749152954342236
 21
5.0328295153284399
 31
0.0
  0
LINE
  5
9D1A
  8
0
 10
9.0368142584774862
 20
5.0443031271832961
 30
0.0
 11
9.0409471166357758
 21
5.0461057490636003
 31
0.0
  0
LINE
  5
9D1B
  8
0
 10
9.0409471166357758
 20
5.0461057490636003
 30
0.0
 11
9.0473585412483022
 21
5.051174486001738
 31
0.0
  0
LINE
  5
9D1C
  8
0
 10
9.0473585412483022
 20
5.051174486001738
 30
0.0
 11
9.0652159234437821
 21
5.0664410995683511
 31
0.0
  0
LINE
  5
9D1D
  8
0
 10
9.0315446641960673
 20
5.0064262353774884
 30
0.0
 11
9.0370129325886328
 21
5.0100176520020332
 31
0.0
  0
LINE
  5
9D1E
  8
0
 10
9.0370129325886328
 20
5.0100176520020332
 30
0.0
 11
9.0415416834812241
 21
5.019661715448934
 31
0.0
  0
LINE
  5
9D1F
  8
0
 10
9.0415416834812241
 20
5.019661715448934
 30
0.0
 11
9.0353231110278749
 21
5.0263955306518211
 31
0.0
  0
LINE
  5
9D20
  8
0
 10
9.0353231110278749
 20
5.0263955306518211
 30
0.0
 11
9.0330460000616313
 21
5.034938517431212
 31
0.0
  0
LINE
  5
9D21
  8
0
 10
9.0330460000616313
 20
5.034938517431212
 30
0.0
 11
9.0326188143354553
 21
5.040898740765666
 31
0.0
  0
LINE
  5
9D22
  8
0
 10
9.0749152954342236
 20
5.0328295153284399
 30
0.0
 11
9.0616739934109631
 21
5.0265519956111531
 31
0.0
  0
LINE
  5
9D23
  8
0
 10
9.0616739934109631
 20
5.0265519956111531
 30
0.0
 11
9.0546891065288904
 21
5.0122736583923571
 31
0.0
  0
LINE
  5
9D24
  8
0
 10
9.0546891065288904
 20
5.0122736583923571
 30
0.0
 11
9.0435262413607234
 21
5.006117671922766
 31
0.0
  0
LINE
  5
9D25
  8
0
 10
9.0435262413607234
 20
5.006117671922766
 30
0.0
 11
9.0348944698137128
 21
5.0032692819190734
 31
0.0
  0
LINE
  5
9D26
  8
0
 10
9.0348944698137128
 20
5.0032692819190734
 30
0.0
 11
9.0350465683090633
 21
4.9951818628817364
 31
0.0
  0
LINE
  5
9D27
  8
0
 10
9.0350465683090633
 20
4.9951818628817364
 30
0.0
 11
9.0332614122847072
 21
4.9887646163172121
 31
0.0
  0
LINE
  5
9D28
  8
0
 10
9.0952870331389288
 20
5.047035805891368
 30
0.0
 11
9.0856225928603394
 21
5.0411847441566771
 31
0.0
  0
LINE
  5
9D29
  8
0
 10
9.0947754291091236
 20
4.953462482772462
 30
0.0
 11
9.1039057052940002
 21
4.9573129762599111
 31
0.0
  0
LINE
  5
9D2A
  8
0
 10
9.0519105799487996
 20
4.9542062371372131
 30
0.0
 11
9.0609295113021489
 21
4.9620862491356084
 31
0.0
  0
LINE
  5
9D2B
  8
0
 10
9.0609295113021489
 20
4.9620862491356084
 30
0.0
 11
9.0649401084689636
 21
4.9674708269684471
 31
0.0
  0
LINE
  5
9D2C
  8
0
 10
9.0649401084689636
 20
4.9674708269684471
 30
0.0
 11
9.0831380748549861
 21
4.9803446182731932
 31
0.0
  0
LINE
  5
9D2D
  8
0
 10
9.0831380748549861
 20
4.9803446182731932
 30
0.0
 11
9.1105216259696462
 21
4.994364606373205
 31
0.0
  0
LINE
  5
9D2E
  8
0
 10
9.1820537666551303
 20
5.0310327154000971
 30
0.0
 11
9.1886784202587464
 21
5.0312757818950331
 31
0.0
  0
LINE
  5
9D2F
  8
0
 10
9.1886784202587464
 20
5.0312757818950331
 30
0.0
 11
9.1948635164882422
 21
5.0347070948403134
 31
0.0
  0
LINE
  5
9D30
  8
0
 10
9.1786274569498154
 20
4.9808302092455961
 30
0.0
 11
9.1788466017036257
 21
4.981059245347863
 31
0.0
  0
LINE
  5
9D31
  8
0
 10
9.1788466017036257
 20
4.981059245347863
 30
0.0
 11
9.1790590091399622
 21
4.9812908370823843
 31
0.0
  0
LINE
  5
9D32
  8
0
 10
9.1790590091399622
 20
4.9812908370823843
 30
0.0
 11
9.1792651056713304
 21
4.9815253511641231
 31
0.0
  0
LINE
  5
9D33
  8
0
 10
9.1792651056713304
 20
4.9815253511641231
 30
0.0
 11
9.1794653177102248
 21
4.9817631543074841
 31
0.0
  0
LINE
  5
9D34
  8
0
 10
9.1794653177102248
 20
4.9817631543074841
 30
0.0
 11
9.1796600716691366
 21
4.9820046132272164
 31
0.0
  0
LINE
  5
9D35
  8
0
 10
9.1796600716691366
 20
4.9820046132272164
 30
0.0
 11
9.1798497939605745
 21
4.9822500946383981
 31
0.0
  0
LINE
  5
9D36
  8
0
 10
9.1798497939605745
 20
4.9822500946383981
 30
0.0
 11
9.1800356387410265
 21
4.9824977066906513
 31
0.0
  0
LINE
  5
9D37
  8
0
 10
9.1800356387410265
 20
4.9824977066906513
 30
0.0
 11
9.1802216711429843
 21
4.982736523274407
 31
0.0
  0
LINE
  5
9D38
  8
0
 10
9.1802216711429843
 20
4.982736523274407
 30
0.0
 11
9.1804126840429117
 21
4.982953359715224
 31
0.0
  0
LINE
  5
9D39
  8
0
 10
9.1804126840429117
 20
4.982953359715224
 30
0.0
 11
9.1806134703173043
 21
4.983135031338743
 31
0.0
  0
LINE
  5
9D3A
  8
0
 10
9.1806134703173043
 20
4.983135031338743
 30
0.0
 11
9.180828822842626
 21
4.9832683534701792
 31
0.0
  0
LINE
  5
9D3B
  8
0
 10
9.180828822842626
 20
4.9832683534701792
 30
0.0
 11
9.1810635344953724
 21
4.9833401414357441
 31
0.0
  0
LINE
  5
9D3C
  8
0
 10
9.1810635344953724
 20
4.9833401414357441
 30
0.0
 11
9.1813223981520125
 21
4.983337210560534
 31
0.0
  0
LINE
  5
9D3D
  8
0
 10
9.1813223981520125
 20
4.983337210560534
 30
0.0
 11
9.181610206689033
 21
4.9832463761702002
 31
0.0
  0
LINE
  5
9D3E
  8
0
 10
9.181610206689033
 20
4.9832463761702002
 30
0.0
 11
9.1819301996569305
 21
4.983058772911928
 31
0.0
  0
LINE
  5
9D3F
  8
0
 10
9.1819301996569305
 20
4.983058772911928
 30
0.0
 11
9.1822794033023332
 21
4.9827828127198472
 31
0.0
  0
LINE
  5
9D40
  8
0
 10
9.1822794033023332
 20
4.9827828127198472
 30
0.0
 11
9.1826532905458755
 21
4.982431226850049
 31
0.0
  0
LINE
  5
9D41
  8
0
 10
9.1826532905458755
 20
4.982431226850049
 30
0.0
 11
9.1830473343082062
 21
4.982016746558199
 31
0.0
  0
LINE
  5
9D42
  8
0
 10
9.1830473343082062
 20
4.982016746558199
 30
0.0
 11
9.1834570075099755
 21
4.9815521030999426
 31
0.0
  0
LINE
  5
9D43
  8
0
 10
9.1834570075099755
 20
4.9815521030999426
 30
0.0
 11
9.1838777830718161
 21
4.9810500277310412
 31
0.0
  0
LINE
  5
9D44
  8
0
 10
9.1962480285954715
 20
5.0050402507257532
 30
0.0
 11
9.195883944575268
 21
5.0054203799376147
 31
0.0
  0
LINE
  5
9D45
  8
0
 10
9.195883944575268
 20
5.0054203799376147
 30
0.0
 11
9.195585802405148
 21
5.0055776858771379
 31
0.0
  0
LINE
  5
9D46
  8
0
 10
9.195585802405148
 20
5.0055776858771379
 30
0.0
 11
9.1953572602305602
 21
5.005481220946649
 31
0.0
  0
LINE
  5
9D47
  8
0
 10
9.1953572602305602
 20
5.005481220946649
 30
0.0
 11
9.1951909614883363
 21
5.0051514628955811
 31
0.0
  0
LINE
  5
9D48
  8
0
 10
9.1951909614883363
 20
5.0051514628955811
 30
0.0
 11
9.1950767959381423
 21
5.0046217458104811
 31
0.0
  0
LINE
  5
9D49
  8
0
 10
9.1950767959381423
 20
5.0046217458104811
 30
0.0
 11
9.1950046533396357
 21
5.003925403777429
 31
0.0
  0
LINE
  5
9D4A
  8
0
 10
9.1950046533396357
 20
5.003925403777429
 30
0.0
 11
9.1949644234524968
 21
5.0030957708830783
 31
0.0
  0
LINE
  5
9D4B
  8
0
 10
9.1949644234524968
 20
5.0030957708830783
 30
0.0
 11
9.1949459960363864
 21
5.0021661812136227
 31
0.0
  0
LINE
  5
9D4C
  8
0
 10
9.1949459960363864
 20
5.0021661812136227
 30
0.0
 11
9.1949392608509797
 21
5.00116996885549
 31
0.0
  0
LINE
  5
9D4D
  8
0
 10
9.1949392608509797
 20
5.00116996885549
 30
0.0
 11
9.1949341076559392
 21
5.000140467895104
 31
0.0
  0
LINE
  5
9D4E
  8
0
 10
9.1949341076559392
 20
5.000140467895104
 30
0.0
 11
9.1949230318281945
 21
4.9991057395911831
 31
0.0
  0
LINE
  5
9D4F
  8
0
 10
9.1949230318281945
 20
4.9991057395911831
 30
0.0
 11
9.1949089512137121
 21
4.9980727538929832
 31
0.0
  0
LINE
  5
9D50
  8
0
 10
9.1949089512137121
 20
4.9980727538929832
 30
0.0
 11
9.1948973892757202
 21
4.9970432079222711
 31
0.0
  0
LINE
  5
9D51
  8
0
 10
9.1948973892757202
 20
4.9970432079222711
 30
0.0
 11
9.1948938694774434
 21
4.9960187988006011
 31
0.0
  0
LINE
  5
9D52
  8
0
 10
9.1948938694774434
 20
4.9960187988006011
 30
0.0
 11
9.1949039152821115
 21
4.9950012236503181
 31
0.0
  0
LINE
  5
9D53
  8
0
 10
9.1949039152821115
 20
4.9950012236503181
 30
0.0
 11
9.1949330501529403
 21
4.9939921795923921
 31
0.0
  0
LINE
  5
9D54
  8
0
 10
9.1949330501529403
 20
4.9939921795923921
 30
0.0
 11
9.1949867975531721
 21
4.992993363749175
 31
0.0
  0
LINE
  5
9D55
  8
0
 10
9.1949867975531721
 20
4.992993363749175
 30
0.0
 11
9.1950706809460154
 21
4.9920064732419851
 31
0.0
  0
LINE
  5
9D56
  8
0
 10
9.1950706809460154
 20
4.9920064732419851
 30
0.0
 11
9.1951888769234582
 21
4.991033809513965
 31
0.0
  0
LINE
  5
9D57
  8
0
 10
9.1951888769234582
 20
4.991033809513965
 30
0.0
 11
9.1953401745924452
 21
4.9900800912934073
 31
0.0
  0
LINE
  5
9D58
  8
0
 10
9.1953401745924452
 20
4.9900800912934073
 30
0.0
 11
9.1955220161886793
 21
4.9891506416292941
 31
0.0
  0
LINE
  5
9D59
  8
0
 10
9.1955220161886793
 20
4.9891506416292941
 30
0.0
 11
9.1957318439478541
 21
4.988250783571285
 31
0.0
  0
LINE
  5
9D5A
  8
0
 10
9.1957318439478541
 20
4.988250783571285
 30
0.0
 11
9.1959671001056673
 21
4.987385840168824
 31
0.0
  0
LINE
  5
9D5B
  8
0
 10
9.1959671001056673
 20
4.987385840168824
 30
0.0
 11
9.1962252268978233
 21
4.9865611344707732
 31
0.0
  0
LINE
  5
9D5C
  8
0
 10
9.1193120457079822
 20
5.0789386472266642
 30
0.0
 11
9.1250554013313696
 21
5.0690966374129403
 31
0.0
  0
LINE
  5
9D5D
  8
0
 10
9.1250554013313696
 20
5.0690966374129403
 30
0.0
 11
9.1173187549005252
 21
5.0630985713906931
 31
0.0
  0
LINE
  5
9D5E
  8
0
 10
9.1388541552562437
 20
4.9981328647891132
 30
0.0
 11
9.1571023359780508
 21
5.0010707673043271
 31
0.0
  0
LINE
  5
9D5F
  8
0
 10
9.1571023359780508
 20
5.0010707673043271
 30
0.0
 11
9.1640188149244146
 21
4.9999893397250572
 31
0.0
  0
LINE
  5
9D60
  8
0
 10
9.1640188149244146
 20
4.9999893397250572
 30
0.0
 11
9.1665207987856885
 21
5.0049634699436174
 31
0.0
  0
LINE
  5
9D61
  8
0
 10
9.1665207987856885
 20
5.0049634699436174
 30
0.0
 11
9.1698182068355596
 21
5.013286678036021
 31
0.0
  0
LINE
  5
9D62
  8
0
 10
9.1698182068355596
 20
5.013286678036021
 30
0.0
 11
9.1756059548427586
 21
5.0252740771527442
 31
0.0
  0
LINE
  5
9D63
  8
0
 10
9.1552989863537757
 20
4.9839127470899021
 30
0.0
 11
9.1540967532709274
 21
4.9837220781627121
 31
0.0
  0
LINE
  5
9D64
  8
0
 10
9.1540967532709274
 20
4.9837220781627121
 30
0.0
 11
9.1541920877345184
 21
4.98076816527941
 31
0.0
  0
LINE
  5
9D65
  8
0
 10
9.1552989863537757
 20
4.9839127470899021
 30
0.0
 11
9.1557620032852718
 21
4.983977006742629
 31
0.0
  0
LINE
  5
9D66
  8
0
 10
9.1557620032852718
 20
4.983977006742629
 30
0.0
 11
9.1562265965216323
 21
4.9840231992980071
 31
0.0
  0
LINE
  5
9D67
  8
0
 10
9.1562265965216323
 20
4.9840231992980071
 30
0.0
 11
9.1566921591357406
 21
4.9840508599660307
 31
0.0
  0
LINE
  5
9D68
  8
0
 10
9.1566921591357406
 20
4.9840508599660307
 30
0.0
 11
9.1571580842004767
 21
4.984059523957284
 31
0.0
  0
LINE
  5
9D69
  8
0
 10
9.1571580842004767
 20
4.984059523957284
 30
0.0
 11
9.1576237647887062
 21
4.984048726482226
 31
0.0
  0
LINE
  5
9D6A
  8
0
 10
9.1576237647887062
 20
4.984048726482226
 30
0.0
 11
9.1580885939733196
 21
4.9840180027509851
 31
0.0
  0
LINE
  5
9D6B
  8
0
 10
9.1580885939733196
 20
4.9840180027509851
 30
0.0
 11
9.1585519648271916
 21
4.983966887974133
 31
0.0
  0
LINE
  5
9D6C
  8
0
 10
9.1585519648271916
 20
4.983966887974133
 30
0.0
 11
9.159013270423193
 21
4.9838949173620204
 31
0.0
  0
LINE
  5
9D6D
  8
0
 10
9.159013270423193
 20
4.9838949173620204
 30
0.0
 11
9.1594724074747447
 21
4.9838017988220091
 31
0.0
  0
LINE
  5
9D6E
  8
0
 10
9.1594724074747447
 20
4.9838017988220091
 30
0.0
 11
9.159931287257427
 21
4.9836879310499826
 31
0.0
  0
LINE
  5
9D6F
  8
0
 10
9.159931287257427
 20
4.9836879310499826
 30
0.0
 11
9.1603923246873471
 21
4.9835538854383641
 31
0.0
  0
LINE
  5
9D70
  8
0
 10
9.1603923246873471
 20
4.9835538854383641
 30
0.0
 11
9.1608579346806192
 21
4.9834002333801664
 31
0.0
  0
LINE
  5
9D71
  8
0
 10
9.1608579346806192
 20
4.9834002333801664
 30
0.0
 11
9.1613305321533662
 21
4.9832275462680391
 31
0.0
  0
LINE
  5
9D72
  8
0
 10
9.1613305321533662
 20
4.9832275462680391
 30
0.0
 11
9.1618125320216954
 21
4.9830363954947643
 31
0.0
  0
LINE
  5
9D73
  8
0
 10
9.1618125320216954
 20
4.9830363954947643
 30
0.0
 11
9.1623063492017263
 21
4.9828273524531124
 31
0.0
  0
LINE
  5
9D74
  8
0
 10
9.1623063492017263
 20
4.9828273524531124
 30
0.0
 11
9.1628143986095676
 21
4.9826009885355234
 31
0.0
  0
LINE
  5
9D75
  8
0
 10
9.1628143986095676
 20
4.9826009885355234
 30
0.0
 11
9.1633379978598484
 21
4.9823584053081031
 31
0.0
  0
LINE
  5
9D76
  8
0
 10
9.1633379978598484
 20
4.9823584053081031
 30
0.0
 11
9.1638740753611998
 21
4.9821028250277051
 31
0.0
  0
LINE
  5
9D77
  8
0
 10
9.1638740753611998
 20
4.9821028250277051
 30
0.0
 11
9.1644184622207554
 21
4.9818380001244122
 31
0.0
  0
LINE
  5
9D78
  8
0
 10
9.1644184622207554
 20
4.9818380001244122
 30
0.0
 11
9.1649669895456825
 21
4.9815676830279472
 31
0.0
  0
LINE
  5
9D79
  8
0
 10
9.1649669895456825
 20
4.9815676830279472
 30
0.0
 11
9.165515488443102
 21
4.981295626168726
 31
0.0
  0
LINE
  5
9D7A
  8
0
 10
9.165515488443102
 20
4.981295626168726
 30
0.0
 11
9.1660597900201672
 21
4.9810255819762652
 31
0.0
  0
LINE
  5
9D7B
  8
0
 10
9.1660597900201672
 20
4.9810255819762652
 30
0.0
 11
9.1665957253840151
 21
4.9807613028809747
 31
0.0
  0
LINE
  5
9D7C
  8
0
 10
9.1756059548427586
 20
5.0252740771527442
 30
0.0
 11
9.1820537666551303
 21
5.0310327154000971
 31
0.0
  0
LINE
  5
9D7D
  8
0
 10
9.187175429735694
 20
4.9644817226858322
 30
0.0
 11
9.187175429735694
 21
4.9644817226858322
 31
0.0
  0
LINE
  5
9D7E
  8
0
 10
9.1843051339143802
 20
4.9805232517078331
 30
0.0
 11
9.1847345329583039
 21
4.9799845062856321
 31
0.0
  0
LINE
  5
9D7F
  8
0
 10
9.1847345329583039
 20
4.9799845062856321
 30
0.0
 11
9.1851644140852553
 21
4.9794421564931772
 31
0.0
  0
LINE
  5
9D80
  8
0
 10
9.1851644140852553
 20
4.9794421564931772
 30
0.0
 11
9.1856050550209112
 21
4.978887102451151
 31
0.0
  0
LINE
  5
9D81
  8
0
 10
9.1856050550209112
 20
4.978887102451151
 30
0.0
 11
9.1860696944519624
 21
4.9783058780528791
 31
0.0
  0
LINE
  5
9D82
  8
0
 10
9.1860696944519624
 20
4.9783058780528791
 30
0.0
 11
9.1865715710651035
 21
4.9776850171913321
 31
0.0
  0
LINE
  5
9D83
  8
0
 10
9.1865715710651035
 20
4.9776850171913321
 30
0.0
 11
9.187123923547027
 21
4.977011053760064
 31
0.0
  0
LINE
  5
9D84
  8
0
 10
9.187123923547027
 20
4.977011053760064
 30
0.0
 11
9.187739990584431
 21
4.976270521652391
 31
0.0
  0
LINE
  5
9D85
  8
0
 10
9.187739990584431
 20
4.976270521652391
 30
0.0
 11
9.1884330108640064
 21
4.9754499547616433
 31
0.0
  0
LINE
  5
9D86
  8
0
 10
9.1884330108640064
 20
4.9754499547616433
 30
0.0
 11
9.1892162230724423
 21
4.9745358869806751
 31
0.0
  0
LINE
  5
9D87
  8
0
 10
9.1892162230724423
 20
4.9745358869806751
 30
0.0
 11
9.1900991418939491
 21
4.9735175445247242
 31
0.0
  0
LINE
  5
9D88
  8
0
 10
9.1900991418939491
 20
4.9735175445247242
 30
0.0
 11
9.1910763860028002
 21
4.9723949228922484
 31
0.0
  0
LINE
  5
9D89
  8
0
 10
9.1910763860028002
 20
4.9723949228922484
 30
0.0
 11
9.192138850070787
 21
4.971170709903272
 31
0.0
  0
LINE
  5
9D8A
  8
0
 10
9.192138850070787
 20
4.971170709903272
 30
0.0
 11
9.193277428769699
 21
4.9698475933781721
 31
0.0
  0
LINE
  5
9D8B
  8
0
 10
9.193277428769699
 20
4.9698475933781721
 30
0.0
 11
9.1944830167713274
 21
4.96842826113709
 31
0.0
  0
LINE
  5
9D8C
  8
0
 10
9.1944830167713274
 20
4.96842826113709
 30
0.0
 11
9.1957465087474581
 21
4.9669154010000511
 31
0.0
  0
LINE
  5
9D8D
  8
0
 10
9.1955937621051138
 20
4.953424897827289
 30
0.0
 11
9.1944078940232554
 21
4.954787453244303
 31
0.0
  0
LINE
  5
9D8E
  8
0
 10
9.1944078940232554
 20
4.954787453244303
 30
0.0
 11
9.1932503184106533
 21
4.9561615658614073
 31
0.0
  0
LINE
  5
9D8F
  8
0
 10
9.1932503184106533
 20
4.9561615658614073
 30
0.0
 11
9.1921415670290916
 21
4.9575229458012
 31
0.0
  0
LINE
  5
9D90
  8
0
 10
9.1921415670290916
 20
4.9575229458012
 30
0.0
 11
9.191102171640356
 21
4.958847303186757
 31
0.0
  0
LINE
  5
9D91
  8
0
 10
9.191102171640356
 20
4.958847303186757
 30
0.0
 11
9.1901470483905285
 21
4.960115050522627
 31
0.0
  0
LINE
  5
9D92
  8
0
 10
9.1901470483905285
 20
4.960115050522627
 30
0.0
 11
9.1892686509628803
 21
4.9613254098434227
 31
0.0
  0
LINE
  5
9D93
  8
0
 10
9.1892686509628803
 20
4.9613254098434227
 30
0.0
 11
9.1884538174249606
 21
4.962482305564885
 31
0.0
  0
LINE
  5
9D94
  8
0
 10
9.1884538174249606
 20
4.962482305564885
 30
0.0
 11
9.1876893858443172
 21
4.9635896621037991
 31
0.0
  0
LINE
  5
9D95
  8
0
 10
9.1876893858443172
 20
4.9635896621037991
 30
0.0
 11
9.1869621942885118
 21
4.9646514038762461
 31
0.0
  0
LINE
  5
9D96
  8
0
 10
9.1869621942885118
 20
4.9646514038762461
 30
0.0
 11
9.1862590808251117
 21
4.9656714552988861
 31
0.0
  0
LINE
  5
9D97
  8
0
 10
9.1862590808251117
 20
4.9656714552988861
 30
0.0
 11
9.1855668835216608
 21
4.966653740788046
 31
0.0
  0
LINE
  5
9D98
  8
0
 10
9.1855668835216608
 20
4.966653740788046
 30
0.0
 11
9.1848724404457194
 21
4.9676021847598122
 31
0.0
  0
LINE
  5
9D99
  8
0
 10
9.1848724404457194
 20
4.9676021847598122
 30
0.0
 11
9.1841653587402305
 21
4.9685193850142451
 31
0.0
  0
LINE
  5
9D9A
  8
0
 10
9.1841653587402305
 20
4.9685193850142451
 30
0.0
 11
9.1834463218496634
 21
4.9694026328839982
 31
0.0
  0
LINE
  5
9D9B
  8
0
 10
9.1834463218496634
 20
4.9694026328839982
 30
0.0
 11
9.1827187822938878
 21
4.970247893085566
 31
0.0
  0
LINE
  5
9D9C
  8
0
 10
9.1827187822938878
 20
4.970247893085566
 30
0.0
 11
9.1819861925927526
 21
4.9710511303356952
 31
0.0
  0
LINE
  5
9D9D
  8
0
 10
9.1819861925927526
 20
4.9710511303356952
 30
0.0
 11
9.1812520052661313
 21
4.9718083093504211
 31
0.0
  0
LINE
  5
9D9E
  8
0
 10
9.1812520052661313
 20
4.9718083093504211
 30
0.0
 11
9.1805196728338672
 21
4.972515394846253
 31
0.0
  0
LINE
  5
9D9F
  8
0
 10
9.1805196728338672
 20
4.972515394846253
 30
0.0
 11
9.1797926478158374
 21
4.9731683515395826
 31
0.0
  0
LINE
  5
9DA0
  8
0
 10
9.1797926478158374
 20
4.9731683515395826
 30
0.0
 11
9.1790743827319012
 21
4.9737631441468002
 31
0.0
  0
LINE
  5
9DA1
  8
0
 10
9.1790743827319012
 20
4.9737631441468002
 30
0.0
 11
9.1783668414484936
 21
4.9742971533106539
 31
0.0
  0
LINE
  5
9DA2
  8
0
 10
9.1671191256417863
 20
4.9805065413124803
 30
0.0
 11
9.1676273899141592
 21
4.9802645974668831
 31
0.0
  0
LINE
  5
9DA3
  8
0
 10
9.1676273899141592
 20
4.9802645974668831
 30
0.0
 11
9.1681241893758205
 21
4.9800369626033181
 31
0.0
  0
LINE
  5
9DA4
  8
0
 10
9.1681241893758205
 20
4.9800369626033181
 30
0.0
 11
9.1686147632150075
 21
4.9798246757470652
 31
0.0
  0
LINE
  5
9DA5
  8
0
 10
9.1686147632150075
 20
4.9798246757470652
 30
0.0
 11
9.1691043506199517
 21
4.9796287759229472
 31
0.0
  0
LINE
  5
9DA6
  8
0
 10
9.1691043506199517
 20
4.9796287759229472
 30
0.0
 11
9.1695981907788742
 21
4.9794503021563523
 31
0.0
  0
LINE
  5
9DA7
  8
0
 10
9.1695981907788742
 20
4.9794503021563523
 30
0.0
 11
9.170101522880012
 21
4.9792902934723271
 31
0.0
  0
LINE
  5
9DA8
  8
0
 10
9.170101522880012
 20
4.9792902934723271
 30
0.0
 11
9.170619586111588
 21
4.9791497888959331
 31
0.0
  0
LINE
  5
9DA9
  8
0
 10
9.170619586111588
 20
4.9791497888959331
 30
0.0
 11
9.1711576196618214
 21
4.9790298274521083
 31
0.0
  0
LINE
  5
9DAA
  8
0
 10
9.1711576196618214
 20
4.9790298274521083
 30
0.0
 11
9.1717184729137955
 21
4.9789314540889791
 31
0.0
  0
LINE
  5
9DAB
  8
0
 10
9.1717184729137955
 20
4.9789314540889791
 30
0.0
 11
9.1722954360299394
 21
4.9788557374430411
 31
0.0
  0
LINE
  5
9DAC
  8
0
 10
9.1722954360299394
 20
4.9788557374430411
 30
0.0
 11
9.1728794093675674
 21
4.9788037520739854
 31
0.0
  0
LINE
  5
9DAD
  8
0
 10
9.1728794093675674
 20
4.9788037520739854
 30
0.0
 11
9.1734612932839497
 21
4.978776572541161
 31
0.0
  0
LINE
  5
9DAE
  8
0
 10
9.1734612932839497
 20
4.978776572541161
 30
0.0
 11
9.1740319881363757
 21
4.9787752734044943
 31
0.0
  0
LINE
  5
9DAF
  8
0
 10
9.1740319881363757
 20
4.9787752734044943
 30
0.0
 11
9.1745823942821474
 21
4.97880092922321
 31
0.0
  0
LINE
  5
9DB0
  8
0
 10
9.1745823942821474
 20
4.97880092922321
 30
0.0
 11
9.1751034120785366
 21
4.9788546145568899
 31
0.0
  0
LINE
  5
9DB1
  8
0
 10
9.1751034120785366
 20
4.9788546145568899
 30
0.0
 11
9.1755859418828454
 21
4.978937403964661
 31
0.0
  0
LINE
  5
9DB2
  8
0
 10
9.1755859418828454
 20
4.978937403964661
 30
0.0
 11
9.1760232250569747
 21
4.9790495945143212
 31
0.0
  0
LINE
  5
9DB3
  8
0
 10
9.1760232250569747
 20
4.9790495945143212
 30
0.0
 11
9.1764178669812821
 21
4.979188373304396
 31
0.0
  0
LINE
  5
9DB4
  8
0
 10
9.1764178669812821
 20
4.979188373304396
 30
0.0
 11
9.1767748140407512
 21
4.9793501499422064
 31
0.0
  0
LINE
  5
9DB5
  8
0
 10
9.1767748140407512
 20
4.9793501499422064
 30
0.0
 11
9.1770990126203653
 21
4.979531334034049
 31
0.0
  0
LINE
  5
9DB6
  8
0
 10
9.1770990126203653
 20
4.979531334034049
 30
0.0
 11
9.1773954091050918
 21
4.9797283351869011
 31
0.0
  0
LINE
  5
9DB7
  8
0
 10
9.1773954091050918
 20
4.9797283351869011
 30
0.0
 11
9.1776689498799193
 21
4.9799375630074092
 31
0.0
  0
LINE
  5
9DB8
  8
0
 10
9.1776689498799193
 20
4.9799375630074092
 30
0.0
 11
9.177924581329826
 21
4.9801554271024306
 31
0.0
  0
LINE
  5
9DB9
  8
0
 10
9.177924581329826
 20
4.9801554271024306
 30
0.0
 11
9.1781672498397882
 21
4.9803783370784913
 31
0.0
  0
LINE
  5
9DBA
  8
0
 10
9.1776660332184292
 20
4.9747734233794692
 30
0.0
 11
9.1769664786411198
 21
4.9751964146280434
 31
0.0
  0
LINE
  5
9DBB
  8
0
 10
9.1769664786411198
 20
4.9751964146280434
 30
0.0
 11
9.1762626983159432
 21
4.9755705873310481
 31
0.0
  0
LINE
  5
9DBC
  8
0
 10
9.1762626983159432
 20
4.9755705873310481
 30
0.0
 11
9.1755492128423164
 21
4.9759004017631661
 31
0.0
  0
LINE
  5
9DBD
  8
0
 10
9.1755492128423164
 20
4.9759004017631661
 30
0.0
 11
9.1748205428196226
 21
4.9761903181995422
 31
0.0
  0
LINE
  5
9DBE
  8
0
 10
9.1748205428196226
 20
4.9761903181995422
 30
0.0
 11
9.1740712088472751
 21
4.9764447969141612
 31
0.0
  0
LINE
  5
9DBF
  8
0
 10
9.1740712088472751
 20
4.9764447969141612
 30
0.0
 11
9.173295731524659
 21
4.9766682981824033
 31
0.0
  0
LINE
  5
9DC0
  8
0
 10
9.173295731524659
 20
4.9766682981824033
 30
0.0
 11
9.1724902473176488
 21
4.976865165252204
 31
0.0
  0
LINE
  5
9DC1
  8
0
 10
9.1724902473176488
 20
4.976865165252204
 30
0.0
 11
9.1716573561580166
 21
4.9770392732654001
 31
0.0
  0
LINE
  5
9DC2
  8
0
 10
9.1716573561580166
 20
4.9770392732654001
 30
0.0
 11
9.1708012738439741
 21
4.9771943803378882
 31
0.0
  0
LINE
  5
9DC3
  8
0
 10
9.1708012738439741
 20
4.9771943803378882
 30
0.0
 11
9.1699262161737636
 21
4.9773342445848812
 31
0.0
  0
LINE
  5
9DC4
  8
0
 10
9.1699262161737636
 20
4.9773342445848812
 30
0.0
 11
9.1690363989456181
 21
4.9774626241218112
 31
0.0
  0
LINE
  5
9DC5
  8
0
 10
9.1690363989456181
 20
4.9774626241218112
 30
0.0
 11
9.1681360379577672
 21
4.9775832770644639
 31
0.0
  0
LINE
  5
9DC6
  8
0
 10
9.1681360379577672
 20
4.9775832770644639
 30
0.0
 11
9.1672293490084442
 21
4.977699961527942
 31
0.0
  0
LINE
  5
9DC7
  8
0
 10
9.1672293490084442
 20
4.977699961527942
 30
0.0
 11
9.1663205478958751
 21
4.9778164356281378
 31
0.0
  0
LINE
  5
9DC8
  8
0
 10
9.1663205478958751
 20
4.9778164356281378
 30
0.0
 11
9.1654140768907233
 21
4.9779358904698912
 31
0.0
  0
LINE
  5
9DC9
  8
0
 10
9.1654140768907233
 20
4.9779358904698912
 30
0.0
 11
9.1645152841532784
 21
4.978059249118358
 31
0.0
  0
LINE
  5
9DCA
  8
0
 10
9.1645152841532784
 20
4.978059249118358
 30
0.0
 11
9.1636297443162888
 21
4.9781868676274099
 31
0.0
  0
LINE
  5
9DCB
  8
0
 10
9.1636297443162888
 20
4.9781868676274099
 30
0.0
 11
9.162763032012462
 21
4.9783191020519553
 31
0.0
  0
LINE
  5
9DCC
  8
0
 10
9.162763032012462
 20
4.9783191020519553
 30
0.0
 11
9.1619207218745284
 21
4.9784563084460842
 31
0.0
  0
LINE
  5
9DCD
  8
0
 10
9.1619207218745284
 20
4.9784563084460842
 30
0.0
 11
9.1611083885352151
 21
4.9785988428643551
 31
0.0
  0
LINE
  5
9DCE
  8
0
 10
9.1611083885352151
 20
4.9785988428643551
 30
0.0
 11
9.1603316066272473
 21
4.9787470613615561
 31
0.0
  0
LINE
  5
9DCF
  8
0
 10
9.1603316066272473
 20
4.9787470613615561
 30
0.0
 11
9.1595959507833609
 21
4.9789013199915599
 31
0.0
  0
LINE
  5
9DD0
  8
0
 10
9.1595959507833609
 20
4.9789013199915599
 30
0.0
 11
9.158905899519258
 21
4.9790617146973082
 31
0.0
  0
LINE
  5
9DD1
  8
0
 10
9.158905899519258
 20
4.9790617146973082
 30
0.0
 11
9.1582615468825797
 21
4.979227300975249
 31
0.0
  0
LINE
  5
9DD2
  8
0
 10
9.1582615468825797
 20
4.979227300975249
 30
0.0
 11
9.1576618908039666
 21
4.9793968742100061
 31
0.0
  0
LINE
  5
9DD3
  8
0
 10
9.1576618908039666
 20
4.9793968742100061
 30
0.0
 11
9.1571059292140315
 21
4.9795692297866481
 31
0.0
  0
LINE
  5
9DD4
  8
0
 10
9.1571059292140315
 20
4.9795692297866481
 30
0.0
 11
9.1565926600434189
 21
4.9797431630892071
 31
0.0
  0
LINE
  5
9DD5
  8
0
 10
9.1565926600434189
 20
4.9797431630892071
 30
0.0
 11
9.1561210812227518
 21
4.9799174695028761
 31
0.0
  0
LINE
  5
9DD6
  8
0
 10
9.1561210812227518
 20
4.9799174695028761
 30
0.0
 11
9.1556901906826589
 21
4.9800909444121499
 31
0.0
  0
LINE
  5
9DD7
  8
0
 10
9.1556901906826589
 20
4.9800909444121499
 30
0.0
 11
9.1552989863537757
 21
4.9802623832016462
 31
0.0
  0
LINE
  5
9DD8
  8
0
 10
9.1393468379421314
 20
4.9567715347262711
 30
0.0
 11
9.1430292225663514
 21
4.9525986506481532
 31
0.0
  0
LINE
  5
9DD9
  8
0
 10
9.1128380351117197
 20
4.9629842852276624
 30
0.0
 11
9.1221240485119335
 21
4.9651995379541631
 31
0.0
  0
LINE
  5
9DDA
  8
0
 10
9.1221240485119335
 20
4.9651995379541631
 30
0.0
 11
9.1280573453185063
 21
4.9649899476829651
 31
0.0
  0
LINE
  5
9DDB
  8
0
 10
9.1280573453185063
 20
4.9649899476829651
 30
0.0
 11
9.1309632270980554
 21
4.9644441396854964
 31
0.0
  0
LINE
  5
9DDC
  8
0
 10
9.1393468379421314
 20
4.9567715347262711
 30
0.0
 11
9.1368404876168672
 21
4.9596119195462052
 31
0.0
  0
LINE
  5
9DDD
  8
0
 10
9.1368404876168672
 20
4.9596119195462052
 30
0.0
 11
9.1346863653860968
 21
4.9637447777043882
 31
0.0
  0
LINE
  5
9DDE
  8
0
 10
9.1346863653860968
 20
4.9637447777043882
 30
0.0
 11
9.1309632270980554
 21
4.9644441396854964
 31
0.0
  0
LINE
  5
9DDF
  8
0
 10
9.1781672498397882
 20
4.9803783370784913
 30
0.0
 11
9.1784011484660351
 21
4.9806033620604921
 31
0.0
  0
LINE
  5
9DE0
  8
0
 10
9.1783668414484936
 20
4.9742971533106539
 30
0.0
 11
9.1776660332184292
 21
4.9747734233794692
 31
0.0
  0
LINE
  5
9DE1
  8
0
 10
9.1541920877345184
 20
4.98076816527941
 30
0.0
 11
9.1552989863537757
 21
4.9802623832015342
 31
0.0
  0
LINE
  5
9DE2
  8
0
 10
9.1665957253840151
 20
4.9807613028809747
 30
0.0
 11
9.1671191256417863
 21
4.9805065413124803
 31
0.0
  0
LINE
  5
9DE3
  8
0
 10
9.1784011484660351
 20
4.9806033620604921
 30
0.0
 11
9.1786274569498154
 21
4.9808302092455961
 31
0.0
  0
LINE
  5
9DE4
  8
0
 10
9.1838777830718161
 20
4.9810500277310412
 30
0.0
 11
9.1843051339143802
 21
4.9805232517078331
 31
0.0
  0
LINE
  5
9DE5
  8
0
 10
9.2065026427231995
 20
4.9530413558940163
 30
0.0
 11
9.2076754445785287
 21
4.9515563509165741
 31
0.0
  0
ARC
  5
9DE6
  8
0
 10
9.2474459312389232
 20
5.008706257319659
 30
0.0
 40
0.0802330479121995
 50
282.4976340000004
 51
5.3357755839129419
  0
ARC
  5
9DE7
  8
0
 10
9.2170473098180796
 20
5.0018276265617452
 30
0.0
 40
0.0791953397685937
 50
270.3585265090901
 51
281.74765214791682
  0
ARC
  5
9DE8
  8
0
 10
9.2175448188019224
 20
4.9032627583474051
 30
0.0
 40
0.0193710790214988
 50
90.005767445201499
 51
152.781041066928
  0
LINE
  5
9DE9
  8
0
 10
9.2031696276837724
 20
4.9464027587890751
 30
0.0
 11
9.2031696276837724
 21
4.9464027587890751
 31
0.0
  0
LINE
  5
9DEA
  8
0
 10
9.2076754445785287
 20
4.9515563509165741
 30
0.0
 11
9.2087482654954105
 21
4.9502522827113991
 31
0.0
  0
LINE
  5
9DEB
  8
0
 10
9.2087482654954105
 20
4.9502522827113991
 30
0.0
 11
9.2097058297198942
 21
4.9491565404646281
 31
0.0
  0
LINE
  5
9DEC
  8
0
 10
9.2097058297198942
 20
4.9491565404646281
 30
0.0
 11
9.210546369298374
 21
4.948253840841172
 31
0.0
  0
LINE
  5
9DED
  8
0
 10
9.210546369298374
 20
4.948253840841172
 30
0.0
 11
9.2112714932273434
 21
4.9475182323762921
 31
0.0
  0
LINE
  5
9DEE
  8
0
 10
9.2112714932273434
 20
4.9475182323762921
 30
0.0
 11
9.2118828105033153
 21
4.9469237636056951
 31
0.0
  0
LINE
  5
9DEF
  8
0
 10
9.2118828105033153
 20
4.9469237636056951
 30
0.0
 11
9.2123819301227616
 21
4.9464444830647372
 31
0.0
  0
LINE
  5
9DF0
  8
0
 10
9.2123819301227616
 20
4.9464444830647372
 30
0.0
 11
9.2127704610821741
 21
4.9460544392884431
 31
0.0
  0
LINE
  5
9DF1
  8
0
 10
9.2127704610821741
 20
4.9460544392884431
 30
0.0
 11
9.2130500123780621
 21
4.9457276808125199
 31
0.0
  0
LINE
  5
9DF2
  8
0
 10
9.2130500123780621
 20
4.9457276808125199
 30
0.0
 11
9.21322219300691
 21
4.9454382561722241
 31
0.0
  0
LINE
  5
9DF3
  8
0
 10
9.21322219300691
 20
4.9454382561722241
 30
0.0
 11
9.2132897713334074
 21
4.945164871985523
 31
0.0
  0
LINE
  5
9DF4
  8
0
 10
9.2132897713334074
 20
4.945164871985523
 30
0.0
 11
9.2132601531950744
 21
4.9449048672015561
 31
0.0
  0
LINE
  5
9DF5
  8
0
 10
9.2132601531950744
 20
4.9449048672015561
 30
0.0
 11
9.2131419037976272
 21
4.944660238852407
 31
0.0
  0
LINE
  5
9DF6
  8
0
 10
9.2131419037976272
 20
4.944660238852407
 30
0.0
 11
9.2129435883467714
 21
4.9444329839697021
 31
0.0
  0
LINE
  5
9DF7
  8
0
 10
9.2129435883467714
 20
4.9444329839697021
 30
0.0
 11
9.2126737720482161
 21
4.944225099585533
 31
0.0
  0
LINE
  5
9DF8
  8
0
 10
9.2126737720482161
 20
4.944225099585533
 30
0.0
 11
9.2123410201076794
 21
4.9440385827316451
 31
0.0
  0
LINE
  5
9DF9
  8
0
 10
9.2123410201076794
 20
4.9440385827316451
 30
0.0
 11
9.2119538977308864
 21
4.9438754304397881
 31
0.0
  0
LINE
  5
9DFA
  8
0
 10
9.2119538977308864
 20
4.9438754304397881
 30
0.0
 11
9.2115209701235301
 21
4.9437376397421531
 31
0.0
  0
LINE
  5
9DFB
  8
0
 10
9.2115209701235301
 20
4.9437376397421531
 30
0.0
 11
9.2110497326697605
 21
4.943627591204514
 31
0.0
  0
LINE
  5
9DFC
  8
0
 10
9.2110497326697605
 20
4.943627591204514
 30
0.0
 11
9.2105434014673833
 21
4.9435491995308212
 31
0.0
  0
LINE
  5
9DFD
  8
0
 10
9.2105434014673833
 20
4.9435491995308212
 30
0.0
 11
9.2100041227926521
 21
4.9435067629592551
 31
0.0
  0
LINE
  5
9DFE
  8
0
 10
9.2100041227926521
 20
4.9435067629592551
 30
0.0
 11
9.2094340429218065
 21
4.9435045797271151
 31
0.0
  0
LINE
  5
9DFF
  8
0
 10
9.2094340429218065
 20
4.9435045797271151
 30
0.0
 11
9.2088353081310821
 21
4.9435469480729344
 31
0.0
  0
LINE
  5
9E00
  8
0
 10
9.2088353081310821
 20
4.9435469480729344
 30
0.0
 11
9.2082100646967167
 21
4.9436381662344484
 31
0.0
  0
LINE
  5
9E01
  8
0
 10
9.2082100646967167
 20
4.9436381662344484
 30
0.0
 11
9.2075604588949602
 21
4.9437825324498563
 31
0.0
  0
LINE
  5
9E02
  8
0
 10
9.2075604588949602
 20
4.9437825324498563
 30
0.0
 11
9.2068886370020451
 21
4.9439843449570171
 31
0.0
  0
LINE
  5
9E03
  8
0
 10
9.2068886370020451
 20
4.9439843449570171
 30
0.0
 11
9.2061952564039125
 21
4.9442486702471342
 31
0.0
  0
LINE
  5
9E04
  8
0
 10
9.2061952564039125
 20
4.9442486702471342
 30
0.0
 11
9.2054750189252701
 21
4.9445836478240572
 31
0.0
  0
LINE
  5
9E05
  8
0
 10
9.2054750189252701
 20
4.9445836478240572
 30
0.0
 11
9.2047211375005205
 21
4.9449981854447724
 31
0.0
  0
LINE
  5
9E06
  8
0
 10
9.2047211375005205
 20
4.9449981854447724
 30
0.0
 11
9.2039268250640678
 21
4.945501190866592
 31
0.0
  0
LINE
  5
9E07
  8
0
 10
9.2039268250640678
 20
4.945501190866592
 30
0.0
 11
9.2030852945503234
 21
4.9461015718463841
 31
0.0
  0
LINE
  5
9E08
  8
0
 10
9.2030852945503234
 20
4.9461015718463841
 30
0.0
 11
9.2021897588936792
 21
4.94680823614146
 31
0.0
  0
LINE
  5
9E09
  8
0
 10
9.2021897588936792
 20
4.94680823614146
 30
0.0
 11
9.2012334310285517
 21
4.9476300915088132
 31
0.0
  0
LINE
  5
9E0A
  8
0
 10
9.2012334310285517
 20
4.9476300915088132
 30
0.0
 11
9.2002095238893347
 21
4.9485760457054084
 31
0.0
  0
LINE
  5
9E0B
  8
0
 10
9.2002095238893347
 20
4.9485760457054084
 30
0.0
 11
9.1991158035483345
 21
4.9496494735493561
 31
0.0
  0
LINE
  5
9E0C
  8
0
 10
9.1991158035483345
 20
4.9496494735493561
 30
0.0
 11
9.1979682486294312
 21
4.9508316181024812
 31
0.0
  0
LINE
  5
9E0D
  8
0
 10
9.1979682486294312
 20
4.9508316181024812
 30
0.0
 11
9.1967873908944355
 21
4.952098189487625
 31
0.0
  0
ARC
  5
9E0E
  8
0
 10
9.2109655801632453
 20
5.1250579675410082
 30
0.0
 40
0.2019911682864631
 50
276.3116059999997
 51
285.4594479999999
  0
LINE
  5
9E0F
  8
0
 10
9.2805662882809994
 20
5.0294324063510194
 30
0.0
 11
9.2828790587030916
 21
5.0404198852157833
 31
0.0
  0
LINE
  5
9E10
  8
0
 10
9.2828790587030916
 20
5.0404198852157833
 30
0.0
 11
9.2708348955547049
 21
5.0513877149928703
 31
0.0
  0
LINE
  5
9E11
  8
0
 10
9.2658825976559225
 20
5.0110939853734591
 30
0.0
 11
9.2696748716236712
 21
5.0068737979355511
 31
0.0
  0
LINE
  5
9E12
  8
0
 10
9.2696748716236712
 20
5.0068737979355511
 30
0.0
 11
9.2746278972664467
 21
5.011080158237518
 31
0.0
  0
LINE
  5
9E13
  8
0
 10
9.2746278972664467
 20
5.011080158237518
 30
0.0
 11
9.2806892770164744
 21
5.0176451368333801
 31
0.0
  0
LINE
  5
9E14
  8
0
 10
9.2806892770164744
 20
5.0176451368333801
 30
0.0
 11
9.2805662882809994
 21
5.0294324063510194
 31
0.0
  0
LINE
  5
9E15
  8
0
 10
9.2164054665399355
 20
5.0333447580781012
 30
0.0
 11
9.2241049980269381
 21
5.0326934272010231
 31
0.0
  0
LINE
  5
9E16
  8
0
 10
9.2241049980269381
 20
5.0326934272010231
 30
0.0
 11
9.2393985381214101
 21
5.0267688633223271
 31
0.0
  0
LINE
  5
9E17
  8
0
 10
9.2393985381214101
 20
5.0267688633223271
 30
0.0
 11
9.2516857677647586
 21
5.0203734490778471
 31
0.0
  0
LINE
  5
9E18
  8
0
 10
9.2516857677647586
 20
5.0203734490778471
 30
0.0
 11
9.2585993357351288
 21
5.0161758217036532
 31
0.0
  0
LINE
  5
9E19
  8
0
 10
9.2101912605505625
 20
5.0376566412597841
 30
0.0
 11
9.2107720002600715
 21
5.0324772872338572
 31
0.0
  0
LINE
  5
9E1A
  8
0
 10
9.2206867844735836
 20
5.069969930209254
 30
0.0
 11
9.1972527000300008
 21
5.073932496272163
 31
0.0
  0
LINE
  5
9E1B
  8
0
 10
9.2634402888023821
 20
5.0556370121906831
 30
0.0
 11
9.2500825477396234
 21
5.0647767490473772
 31
0.0
  0
LINE
  5
9E1C
  8
0
 10
9.2500825477396234
 20
5.0647767490473772
 30
0.0
 11
9.2206867844735836
 21
5.069969930209254
 31
0.0
  0
LINE
  5
9E1D
  8
0
 10
9.2043132722877434
 20
5.0378873361067891
 30
0.0
 11
9.2101912605505625
 21
5.0376566412597841
 31
0.0
  0
LINE
  5
9E1E
  8
0
 10
9.1984622105528224
 20
5.0384600706322491
 30
0.0
 11
9.2043132722877434
 21
5.0378873361067891
 31
0.0
  0
LINE
  5
9E1F
  8
0
 10
9.2107720002600715
 20
5.0324772872338572
 30
0.0
 11
9.2164054665399355
 21
5.0333447580781012
 31
0.0
  0
LINE
  5
9E20
  8
0
 10
9.2215782765552632
 20
4.9807493747018707
 30
0.0
 11
9.2213097293076931
 21
4.9817342911561582
 31
0.0
  0
LINE
  5
9E21
  8
0
 10
9.2213097293076931
 20
4.9817342911561582
 30
0.0
 11
9.2209765478750114
 21
4.9826829810258451
 31
0.0
  0
LINE
  5
9E22
  8
0
 10
9.2209765478750114
 20
4.9826829810258451
 30
0.0
 11
9.2205723569166
 21
4.9835902790342734
 31
0.0
  0
LINE
  5
9E23
  8
0
 10
9.2205723569166
 20
4.9835902790342734
 30
0.0
 11
9.2200932467036321
 21
4.9844611571513679
 31
0.0
  0
LINE
  5
9E24
  8
0
 10
9.2200932467036321
 20
4.9844611571513679
 30
0.0
 11
9.2195359239102501
 21
4.9853031216584851
 31
0.0
  0
LINE
  5
9E25
  8
0
 10
9.2195359239102501
 20
4.9853031216584851
 30
0.0
 11
9.2188970952105862
 21
4.9861236788365186
 31
0.0
  0
LINE
  5
9E26
  8
0
 10
9.2188970952105862
 20
4.9861236788365186
 30
0.0
 11
9.2181734672787972
 21
4.9869303349670391
 31
0.0
  0
LINE
  5
9E27
  8
0
 10
9.2181734672787972
 20
4.9869303349670391
 30
0.0
 11
9.2173617467890008
 21
4.9877305963317431
 31
0.0
  0
LINE
  5
9E28
  8
0
 10
9.2173617467890008
 20
4.9877305963317431
 30
0.0
 11
9.2164586404153521
 21
4.988531969211631
 31
0.0
  0
LINE
  5
9E29
  8
0
 10
9.2164586404153521
 20
4.988531969211631
 30
0.0
 11
9.2154608548319814
 21
4.9893419598880611
 31
0.0
  0
LINE
  5
9E2A
  8
0
 10
9.2154608548319814
 20
4.9893419598880611
 30
0.0
 11
9.2143695543819089
 21
4.9901653055669604
 31
0.0
  0
LINE
  5
9E2B
  8
0
 10
9.2143695543819089
 20
4.9901653055669604
 30
0.0
 11
9.2132037340836508
 21
4.9909956671530109
 31
0.0
  0
LINE
  5
9E2C
  8
0
 10
9.2132037340836508
 20
4.9909956671530109
 30
0.0
 11
9.2119868466246153
 21
4.991823936474816
 31
0.0
  0
LINE
  5
9E2D
  8
0
 10
9.2119868466246153
 20
4.991823936474816
 30
0.0
 11
9.2107423446922017
 21
4.9926410053618611
 31
0.0
  0
LINE
  5
9E2E
  8
0
 10
9.2107423446922017
 20
4.9926410053618611
 30
0.0
 11
9.2094936809738055
 21
4.993437765642966
 31
0.0
  0
LINE
  5
9E2F
  8
0
 10
9.2094936809738055
 20
4.993437765642966
 30
0.0
 11
9.2082643081568154
 21
4.9942051091471722
 31
0.0
  0
LINE
  5
9E30
  8
0
 10
9.2082643081568154
 20
4.9942051091471722
 30
0.0
 11
9.2070776789286555
 21
4.9949339277036371
 31
0.0
  0
LINE
  5
9E31
  8
0
 10
9.2070776789286555
 20
4.9949339277036371
 30
0.0
 11
9.2059572459767072
 21
4.9956151131410671
 31
0.0
  0
LINE
  5
9E32
  8
0
 10
9.2059572459767072
 20
4.9956151131410671
 30
0.0
 11
9.2049211242514755
 21
4.9962440033498252
 31
0.0
  0
LINE
  5
9E33
  8
0
 10
9.2049211242514755
 20
4.9962440033498252
 30
0.0
 11
9.2039660777559007
 21
4.9968337204639921
 31
0.0
  0
LINE
  5
9E34
  8
0
 10
9.2039660777559007
 20
4.9968337204639921
 30
0.0
 11
9.2030835327560183
 21
4.9974018326779506
 31
0.0
  0
LINE
  5
9E35
  8
0
 10
9.2030835327560183
 20
4.9974018326779506
 30
0.0
 11
9.2022649155178566
 21
4.997965908187096
 31
0.0
  0
LINE
  5
9E36
  8
0
 10
9.2022649155178566
 20
4.997965908187096
 30
0.0
 11
9.2015016523074635
 21
4.998543515186153
 31
0.0
  0
LINE
  5
9E37
  8
0
 10
9.2015016523074635
 20
4.998543515186153
 30
0.0
 11
9.2007851693908638
 21
4.9991522218699611
 31
0.0
  0
LINE
  5
9E38
  8
0
 10
9.2007851693908638
 20
4.9991522218699611
 30
0.0
 11
9.200106893034107
 21
4.9998095964336891
 31
0.0
  0
LINE
  5
9E39
  8
0
 10
9.200106893034107
 20
4.9998095964336891
 30
0.0
 11
9.1994582495032198
 21
5.0005332070719524
 31
0.0
  0
LINE
  5
9E3A
  8
0
 10
9.1994582495032198
 20
5.0005332070719524
 30
0.0
 11
9.198833162657003
 21
5.0013303932919362
 31
0.0
  0
LINE
  5
9E3B
  8
0
 10
9.198833162657003
 20
5.0013303932919362
 30
0.0
 11
9.1982355467252876
 21
5.0021675798467404
 31
0.0
  0
LINE
  5
9E3C
  8
0
 10
9.1982355467252876
 20
5.0021675798467404
 30
0.0
 11
9.1976718135306896
 21
5.003000962802159
 31
0.0
  0
LINE
  5
9E3D
  8
0
 10
9.1976718135306896
 20
5.003000962802159
 30
0.0
 11
9.1971483748957841
 21
5.0037867382234227
 31
0.0
  0
LINE
  5
9E3E
  8
0
 10
9.1971483748957841
 20
5.0037867382234227
 30
0.0
 11
9.1966716426431816
 21
5.0044811021762099
 31
0.0
  0
LINE
  5
9E3F
  8
0
 10
9.1965036665600124
 20
4.9857819895269131
 30
0.0
 11
9.1967998613279445
 21
4.985053728386446
 31
0.0
  0
LINE
  5
9E40
  8
0
 10
9.1967998613279445
 20
4.985053728386446
 30
0.0
 11
9.1971114221071364
 21
4.9843804645086012
 31
0.0
  0
LINE
  5
9E41
  8
0
 10
9.1971114221071364
 20
4.9843804645086012
 30
0.0
 11
9.1974366344824627
 21
4.9837614729921134
 31
0.0
  0
LINE
  5
9E42
  8
0
 10
9.1974366344824627
 20
4.9837614729921134
 30
0.0
 11
9.1977739527086158
 21
4.9831948193458393
 31
0.0
  0
LINE
  5
9E43
  8
0
 10
9.1977739527086158
 20
4.9831948193458393
 30
0.0
 11
9.1981218310402753
 21
4.982678569077958
 31
0.0
  0
LINE
  5
9E44
  8
0
 10
9.1981218310402753
 20
4.982678569077958
 30
0.0
 11
9.1984787237321513
 21
4.9822107876974542
 31
0.0
  0
LINE
  5
9E45
  8
0
 10
9.1984787237321513
 20
4.9822107876974542
 30
0.0
 11
9.1988430850389342
 21
4.9817895407129491
 31
0.0
  0
LINE
  5
9E46
  8
0
 10
9.1988430850389342
 20
4.9817895407129491
 30
0.0
 11
9.1992133692153182
 21
4.981412893632978
 31
0.0
  0
LINE
  5
9E47
  8
0
 10
9.1992133692153182
 20
4.981412893632978
 30
0.0
 11
9.1995880305159972
 21
4.9810789119660512
 31
0.0
  0
LINE
  5
9E48
  8
0
 10
9.2585993357351288
 20
5.0161758217036532
 30
0.0
 11
9.2658825976559225
 21
5.0110939853734591
 31
0.0
  0
LINE
  5
9E49
  8
0
 10
9.2708348955547049
 20
5.0513877149928703
 30
0.0
 11
9.2634402888023821
 21
5.0556370121906831
 31
0.0
  0
LINE
  5
9E4A
  8
0
 10
9.2027529891584336
 20
4.9766120193132783
 30
0.0
 11
9.2017727179946327
 21
4.9781511978666231
 31
0.0
  0
LINE
  5
9E4B
  8
0
 10
9.2017727179946327
 20
4.9781511978666231
 30
0.0
 11
9.2009903931979871
 21
4.979911610595078
 31
0.0
  0
LINE
  5
9E4C
  8
0
 10
9.1970587993698754
 20
4.9653117007870833
 30
0.0
 11
9.1984107833103756
 21
4.963619848318328
 31
0.0
  0
LINE
  5
9E4D
  8
0
 10
9.1984107833103756
 20
4.963619848318328
 30
0.0
 11
9.1997917640114313
 21
4.9618484263297651
 31
0.0
  0
LINE
  5
9E4E
  8
0
 10
9.1997917640114313
 20
4.9618484263297651
 30
0.0
 11
9.2011846799983221
 21
4.960029597221137
 31
0.0
  0
LINE
  5
9E4F
  8
0
 10
9.2316269599787049
 20
4.961493137778004
 30
0.0
 11
9.2259330909471071
 21
4.959503485690675
 31
0.0
  0
LINE
  5
9E50
  8
0
 10
9.2259330909471071
 20
4.959503485690675
 30
0.0
 11
9.2274038615648024
 21
4.9647621638118791
 31
0.0
  0
LINE
  5
9E51
  8
0
 10
9.2274038615648024
 20
4.9647621638118791
 30
0.0
 11
9.2270880206701609
 21
4.966877715610849
 31
0.0
  0
LINE
  5
9E52
  8
0
 10
9.2270880206701609
 20
4.966877715610849
 30
0.0
 11
9.2270880206701609
 21
4.9680945035737523
 31
0.0
  0
LINE
  5
9E53
  8
0
 10
9.2300259231855684
 20
4.9692421558568141
 30
0.0
 11
9.2290864056855924
 21
4.9697144617108471
 31
0.0
  0
LINE
  5
9E54
  8
0
 10
9.2290864056855924
 20
4.9697144617108471
 30
0.0
 11
9.2270880206701609
 21
4.969146093649325
 31
0.0
  0
LINE
  5
9E55
  8
0
 10
9.2270880206701609
 20
4.969146093649325
 30
0.0
 11
9.2270880206701609
 21
4.9680945035737523
 31
0.0
  0
LINE
  5
9E56
  8
0
 10
9.2011846799983221
 20
4.960029597221137
 30
0.0
 11
9.2025708785669842
 21
4.95820141830779
 31
0.0
  0
LINE
  5
9E57
  8
0
 10
9.2025708785669842
 20
4.95820141830779
 30
0.0
 11
9.2039317070133837
 21
4.9564019469052001
 31
0.0
  0
LINE
  5
9E58
  8
0
 10
9.2039317070133837
 20
4.9564019469052001
 30
0.0
 11
9.2052485126334691
 21
4.954669240328708
 31
0.0
  0
LINE
  5
9E59
  8
0
 10
9.2052485126334691
 20
4.954669240328708
 30
0.0
 11
9.2065026427231995
 21
4.9530413558940163
 31
0.0
  0
LINE
  5
9E5A
  8
0
 10
9.2027529891584336
 20
4.9766120193132783
 30
0.0
 11
9.2032907612941202
 21
4.9757877056779281
 31
0.0
  0
LINE
  5
9E5B
  8
0
 10
9.2032907612941202
 20
4.9757877056779281
 30
0.0
 11
9.2038409711716884
 21
4.9749869555971591
 31
0.0
  0
LINE
  5
9E5C
  8
0
 10
9.2038409711716884
 20
4.9749869555971591
 30
0.0
 11
9.2044054473900712
 21
4.974208703040059
 31
0.0
  0
LINE
  5
9E5D
  8
0
 10
9.2044054473900712
 20
4.974208703040059
 30
0.0
 11
9.2049860185481993
 21
4.9734518819747091
 31
0.0
  0
LINE
  5
9E5E
  8
0
 10
9.2049860185481993
 20
4.9734518819747091
 30
0.0
 11
9.2055845132449914
 21
4.9727154263705371
 31
0.0
  0
LINE
  5
9E5F
  8
0
 10
9.2055845132449914
 20
4.9727154263705371
 30
0.0
 11
9.2062027600794032
 21
4.9719982701960781
 31
0.0
  0
LINE
  5
9E60
  8
0
 10
9.2062027600794032
 20
4.9719982701960781
 30
0.0
 11
9.2068425876503355
 21
4.971299347419853
 31
0.0
  0
LINE
  5
9E61
  8
0
 10
9.2068425876503355
 20
4.971299347419853
 30
0.0
 11
9.2075058245567352
 21
4.9706175920109663
 31
0.0
  0
LINE
  5
9E62
  8
0
 10
9.2075058245567352
 20
4.9706175920109663
 30
0.0
 11
9.2081927001137593
 21
4.9699527748907713
 31
0.0
  0
LINE
  5
9E63
  8
0
 10
9.2081927001137593
 20
4.9699527748907713
 30
0.0
 11
9.2088970465015265
 21
4.9693080147933371
 31
0.0
  0
LINE
  5
9E64
  8
0
 10
9.2088970465015265
 20
4.9693080147933371
 30
0.0
 11
9.2096110966163671
 21
4.9686872674049001
 31
0.0
  0
LINE
  5
9E65
  8
0
 10
9.2096110966163671
 20
4.9686872674049001
 30
0.0
 11
9.2103270833546471
 21
4.968094488412361
 31
0.0
  0
LINE
  5
9E66
  8
0
 10
9.2103270833546471
 20
4.968094488412361
 30
0.0
 11
9.2110372396126952
 21
4.967533633502053
 31
0.0
  0
LINE
  5
9E67
  8
0
 10
9.2110372396126952
 20
4.967533633502053
 30
0.0
 11
9.2117337982868648
 21
4.9670086583608963
 31
0.0
  0
LINE
  5
9E68
  8
0
 10
9.2117337982868648
 20
4.9670086583608963
 30
0.0
 11
9.2124089922735077
 21
4.966523518675217
 31
0.0
  0
LINE
  5
9E69
  8
0
 10
9.2124089922735077
 20
4.966523518675217
 30
0.0
 11
9.213055054468958
 21
4.9660821701316991
 31
0.0
  0
LINE
  5
9E6A
  8
0
 10
9.213055054468958
 20
4.9660821701316991
 30
0.0
 11
9.2136665700267368
 21
4.9656884393086731
 31
0.0
  0
LINE
  5
9E6B
  8
0
 10
9.2136665700267368
 20
4.9656884393086731
 30
0.0
 11
9.2142475331290168
 21
4.9653456363519091
 31
0.0
  0
LINE
  5
9E6C
  8
0
 10
9.2142475331290168
 20
4.9653456363519091
 30
0.0
 11
9.2148042902151488
 21
4.9650569422981281
 31
0.0
  0
LINE
  5
9E6D
  8
0
 10
9.2148042902151488
 20
4.9650569422981281
 30
0.0
 11
9.2153431877244838
 21
4.9648255381850941
 31
0.0
  0
LINE
  5
9E6E
  8
0
 10
9.2153431877244838
 20
4.9648255381850941
 30
0.0
 11
9.2158705720963674
 21
4.964654605049641
 31
0.0
  0
LINE
  5
9E6F
  8
0
 10
9.2158705720963674
 20
4.964654605049641
 30
0.0
 11
9.2163927897701541
 21
4.9645473239293052
 31
0.0
  0
LINE
  5
9E70
  8
0
 10
9.2163927897701541
 20
4.9645473239293052
 30
0.0
 11
9.2169161871851841
 21
4.9645068758610451
 31
0.0
  0
LINE
  5
9E71
  8
0
 10
9.2169161871851841
 20
4.9645068758610451
 30
0.0
 11
9.2174471107808067
 21
4.9645364418822711
 31
0.0
  0
LINE
  5
9E72
  8
0
 10
9.2174471107808067
 20
4.9645364418822711
 30
0.0
 11
9.2179891329461672
 21
4.964638720710238
 31
0.0
  0
LINE
  5
9E73
  8
0
 10
9.2179891329461672
 20
4.964638720710238
 30
0.0
 11
9.2185347298696421
 21
4.9648144817828062
 31
0.0
  0
LINE
  5
9E74
  8
0
 10
9.2185347298696421
 20
4.9648144817828062
 30
0.0
 11
9.2190736036893988
 21
4.9650640122174492
 31
0.0
  0
LINE
  5
9E75
  8
0
 10
9.2190736036893988
 20
4.9650640122174492
 30
0.0
 11
9.2195954565435994
 21
4.965387599131982
 31
0.0
  0
LINE
  5
9E76
  8
0
 10
9.2195954565435994
 20
4.965387599131982
 30
0.0
 11
9.2200899905704183
 21
4.9657855296442204
 31
0.0
  0
LINE
  5
9E77
  8
0
 10
9.2200899905704183
 20
4.9657855296442204
 30
0.0
 11
9.2205469079080231
 21
4.9662580908718601
 31
0.0
  0
LINE
  5
9E78
  8
0
 10
9.2205469079080231
 20
4.9662580908718601
 30
0.0
 11
9.2209559106945793
 21
4.9668055699328271
 31
0.0
  0
LINE
  5
9E79
  8
0
 10
9.2209559106945793
 20
4.9668055699328271
 30
0.0
 11
9.2213067010682632
 21
4.9674282539446031
 31
0.0
  0
LINE
  5
9E7A
  8
0
 10
9.2213067010682632
 20
4.9674282539446031
 30
0.0
 11
9.2215917978586877
 21
4.9681251775566571
 31
0.0
  0
LINE
  5
9E7B
  8
0
 10
9.2215917978586877
 20
4.9681251775566571
 30
0.0
 11
9.2218149866612542
 21
4.9688903655459171
 31
0.0
  0
LINE
  5
9E7C
  8
0
 10
9.2218149866612542
 20
4.9688903655459171
 30
0.0
 11
9.2219828697628028
 21
4.9697165902198321
 31
0.0
  0
LINE
  5
9E7D
  8
0
 10
9.2219828697628028
 20
4.9697165902198321
 30
0.0
 11
9.2221020494501893
 21
4.970596623886987
 31
0.0
  0
LINE
  5
9E7E
  8
0
 10
9.2221020494501893
 20
4.970596623886987
 30
0.0
 11
9.2221791280102554
 21
4.9715232388554114
 31
0.0
  0
LINE
  5
9E7F
  8
0
 10
9.2221791280102554
 20
4.9715232388554114
 30
0.0
 11
9.2222207077298481
 21
4.9724892074333402
 31
0.0
  0
LINE
  5
9E80
  8
0
 10
9.2222207077298481
 20
4.9724892074333402
 30
0.0
 11
9.2222333908958163
 21
4.9734873019290244
 31
0.0
  0
LINE
  5
9E81
  8
0
 10
9.2222333908958163
 20
4.9734873019290244
 30
0.0
 11
9.2222237797950051
 21
4.9745102946502531
 31
0.0
  0
LINE
  5
9E82
  8
0
 10
9.2222237797950051
 20
4.9745102946502531
 30
0.0
 11
9.2221962110425206
 21
4.9755508792561587
 31
0.0
  0
LINE
  5
9E83
  8
0
 10
9.2221962110425206
 20
4.9755508792561587
 30
0.0
 11
9.2221459585665055
 21
4.976601434807546
 31
0.0
  0
LINE
  5
9E84
  8
0
 10
9.2221459585665055
 20
4.976601434807546
 30
0.0
 11
9.2220660306233633
 21
4.977654261715994
 31
0.0
  0
LINE
  5
9E85
  8
0
 10
9.2220660306233633
 20
4.977654261715994
 30
0.0
 11
9.2219494354695115
 21
4.97870166039365
 31
0.0
  0
LINE
  5
9E86
  8
0
 10
9.2219494354695115
 20
4.97870166039365
 30
0.0
 11
9.2217891813613448
 21
4.9797359312517511
 31
0.0
  0
LINE
  5
9E87
  8
0
 10
9.2300259231855684
 20
4.9692421558568141
 30
0.0
 11
9.2316917291944343
 21
4.96840379477237
 31
0.0
  0
LINE
  5
9E88
  8
0
 10
9.2316917291944343
 20
4.96840379477237
 30
0.0
 11
9.2337308678736942
 21
4.9667867476111951
 31
0.0
  0
LINE
  5
9E89
  8
0
 10
9.2337308678736942
 20
4.9667867476111951
 30
0.0
 11
9.2352809625870531
 21
4.9626196854851523
 31
0.0
  0
LINE
  5
9E8A
  8
0
 10
9.2352809625870531
 20
4.9626196854851523
 30
0.0
 11
9.2316269599787049
 21
4.961493137778004
 31
0.0
  0
LINE
  5
9E8B
  8
0
 10
9.2009903931979871
 20
4.979911610595078
 30
0.0
 11
9.1995880305159972
 21
4.9810789119660512
 31
0.0
  0
LINE
  5
9E8C
  8
0
 10
9.2217891813613448
 20
4.9797359312517511
 30
0.0
 11
9.2215782765552632
 21
4.9807493747018707
 31
0.0
  0
ARC
  5
9E8D
  8
0
 10
9.2687063168200154
 20
5.017771695027136
 30
0.0
 40
0.0578938690744898
 50
26.136799622363959
 51
50.830632613623422
  0
ARC
  5
9E8E
  8
0
 10
9.2459012723876448
 20
5.0105574564371391
 30
0.0
 40
0.0816230507791899
 50
3.9409786127344719
 51
23.630412125361509
  0
ARC
  5
9E8F
  8
0
 10
9.1681095486303672
 20
5.1332168391768391
 30
0.0
 40
0.0515410130911455
 50
3.061415527924586
 51
61.359892000001032
  0
ARC
  5
9E90
  8
0
 10
9.1833042889046954
 20
5.131893885772568
 30
0.0
 40
0.0164321649311505
 50
5.5567561112016941
 51
42.59127294653382
  0
ARC
  5
9E91
  8
0
 10
9.1608902434818162
 20
5.1113014227680651
 30
0.0
 40
0.0468696243751626
 50
42.568796895839697
 51
104.4247059999998
  0
ARC
  5
9E92
  8
0
 10
-9.2092394561021251
 20
5.2210388014883611
 30
0.0
 40
0.0803087332878752
210
0.0
220
0.0
230
-1.0
 50
344.17384599999849
 51
6.6578431552748611
  0
ARC
  5
9E93
  8
0
 10
9.067824692037453
 20
5.2043864371410091
 30
0.0
 40
0.0290892554076178
 50
116.54869068684521
 51
184.0757524361704
  0
ARC
  5
9E94
  8
0
 10
7.4127220822881581
 20
5.0341910943957364
 30
0.0
 40
1.7100608533173001
 50
5.4171073892208561
 51
7.2630351398035851
  0
LINE
  5
9E95
  8
0
 10
9.1023163124048061
 20
5.1137604697335011
 30
0.0
 11
9.1138750703072802
 21
5.1195453067647332
 31
0.0
  0
LINE
  5
9E96
  8
0
 10
9.114544594784407
 20
5.154697525046231
 30
0.0
 11
9.1059026348214402
 21
5.161551418008683
 31
0.0
  0
LINE
  5
9E97
  8
0
 10
9.1198178277858108
 20
5.09058182343301
 30
0.0
 11
9.1075269594224828
 21
5.0889480381598551
 31
0.0
  0
LINE
  5
9E98
  8
0
 10
9.1059026348214402
 20
5.161551418008683
 30
0.0
 11
9.1033322430244557
 21
5.1524102256638562
 31
0.0
  0
LINE
  5
9E99
  8
0
 10
9.0698566701576482
 20
5.1918025744587331
 30
0.0
 11
9.0696678973447078
 21
5.1912933448359091
 31
0.0
  0
LINE
  5
9E9A
  8
0
 10
9.0696678973447078
 20
5.1912933448359091
 30
0.0
 11
9.0695493077648397
 21
5.1907820163161187
 31
0.0
  0
LINE
  5
9E9B
  8
0
 10
9.0695493077648397
 20
5.1907820163161187
 30
0.0
 11
9.0694899298244707
 21
5.1902699302030442
 31
0.0
  0
LINE
  5
9E9C
  8
0
 10
9.0694899298244707
 20
5.1902699302030442
 30
0.0
 11
9.0694743700324132
 21
5.1897562151946159
 31
0.0
  0
LINE
  5
9E9D
  8
0
 10
9.0694743700324132
 20
5.1897562151946159
 30
0.0
 11
9.0694872348974851
 21
5.189239999987417
 31
0.0
  0
LINE
  5
9E9E
  8
0
 10
9.0694872348974851
 20
5.189239999987417
 30
0.0
 11
9.0695131309284953
 21
5.188720413278701
 31
0.0
  0
LINE
  5
9E9F
  8
0
 10
9.0695131309284953
 20
5.188720413278701
 30
0.0
 11
9.0695366646342634
 21
5.1881965837657162
 31
0.0
  0
LINE
  5
9EA0
  8
0
 10
9.0695366646342634
 20
5.1881965837657162
 30
0.0
 11
9.0695424425236197
 21
5.1876676401454871
 31
0.0
  0
LINE
  5
9EA1
  8
0
 10
9.0695424425236197
 20
5.1876676401454871
 30
0.0
 11
9.0695150711053572
 21
5.1871327111152814
 31
0.0
  0
LINE
  5
9EA2
  8
0
 10
9.0695150711053572
 20
5.1871327111152814
 30
0.0
 11
9.0694417992244247
 21
5.1865926786379051
 31
0.0
  0
LINE
  5
9EA3
  8
0
 10
9.0694417992244247
 20
5.1865926786379051
 30
0.0
 11
9.0693204450701952
 21
5.1860554377411692
 31
0.0
  0
LINE
  5
9EA4
  8
0
 10
9.0693204450701952
 20
5.1860554377411692
 30
0.0
 11
9.0691514691681725
 21
5.1855306367183402
 31
0.0
  0
LINE
  5
9EA5
  8
0
 10
9.0691514691681725
 20
5.1855306367183402
 30
0.0
 11
9.0689353320438464
 21
5.1850279238628891
 31
0.0
  0
LINE
  5
9EA6
  8
0
 10
9.0689353320438464
 20
5.1850279238628891
 30
0.0
 11
9.0686724942227208
 21
5.184556947468308
 31
0.0
  0
LINE
  5
9EA7
  8
0
 10
9.0686724942227208
 20
5.184556947468308
 30
0.0
 11
9.0683634162302962
 21
5.1841273558279672
 31
0.0
  0
LINE
  5
9EA8
  8
0
 10
9.0683634162302962
 20
5.1841273558279672
 30
0.0
 11
9.068008558592064
 21
5.1837487972355802
 31
0.0
  0
LINE
  5
9EA9
  8
0
 10
9.068008558592064
 20
5.1837487972355802
 30
0.0
 11
9.06760838183353
 21
5.1834309199844011
 31
0.0
  0
LINE
  5
9EAA
  8
0
 10
9.06760838183353
 20
5.1834309199844011
 30
0.0
 11
9.0671640313460422
 21
5.1831793662223591
 31
0.0
  0
LINE
  5
9EAB
  8
0
 10
9.0671640313460422
 20
5.1831793662223591
 30
0.0
 11
9.0666793919843442
 21
5.182983753516055
 31
0.0
  0
LINE
  5
9EAC
  8
0
 10
9.0666793919843442
 20
5.182983753516055
 30
0.0
 11
9.0661590334690558
 21
5.1828296932864051
 31
0.0
  0
LINE
  5
9EAD
  8
0
 10
9.0661590334690558
 20
5.1828296932864051
 30
0.0
 11
9.0656075255207718
 21
5.182702796954004
 31
0.0
  0
LINE
  5
9EAE
  8
0
 10
9.0656075255207718
 20
5.182702796954004
 30
0.0
 11
9.0650294378601046
 21
5.1825886759402211
 31
0.0
  0
LINE
  5
9EAF
  8
0
 10
9.0650294378601046
 20
5.1825886759402211
 30
0.0
 11
9.0644293402076563
 21
5.1824729416658739
 31
0.0
  0
LINE
  5
9EB0
  8
0
 10
9.0644293402076563
 20
5.1824729416658739
 30
0.0
 11
9.0638118022840342
 21
5.1823412055518912
 31
0.0
  0
LINE
  5
9EB1
  8
0
 10
9.0638118022840342
 20
5.1823412055518912
 30
0.0
 11
9.0631813938098382
 21
5.182179079019078
 31
0.0
  0
LINE
  5
9EB2
  8
0
 10
9.0631813938098382
 20
5.182179079019078
 30
0.0
 11
9.0625434541802363
 21
5.1819745265746633
 31
0.0
  0
LINE
  5
9EB3
  8
0
 10
9.0625434541802363
 20
5.1819745265746633
 30
0.0
 11
9.061906401488633
 21
5.1817249250714212
 31
0.0
  0
LINE
  5
9EB4
  8
0
 10
9.061906401488633
 20
5.1817249250714212
 30
0.0
 11
9.0612794235029881
 21
5.1814300044475203
 31
0.0
  0
LINE
  5
9EB5
  8
0
 10
9.0612794235029881
 20
5.1814300044475203
 30
0.0
 11
9.0606717079912542
 21
5.1810894946424932
 31
0.0
  0
LINE
  5
9EB6
  8
0
 10
9.0606717079912542
 20
5.1810894946424932
 30
0.0
 11
9.0600924427214053
 21
5.180703125594273
 31
0.0
  0
LINE
  5
9EB7
  8
0
 10
9.0600924427214053
 20
5.180703125594273
 30
0.0
 11
9.0595508154613924
 21
5.1802706272421792
 31
0.0
  0
LINE
  5
9EB8
  8
0
 10
9.0595508154613924
 20
5.1802706272421792
 30
0.0
 11
9.0590560139791751
 21
5.1797917295248173
 31
0.0
  0
LINE
  5
9EB9
  8
0
 10
9.0590560139791751
 20
5.1797917295248173
 30
0.0
 11
9.058617226042724
 21
5.1792661623809364
 31
0.0
  0
LINE
  5
9EBA
  8
0
 10
9.058617226042724
 20
5.1792661623809364
 30
0.0
 11
9.0582410454106324
 21
5.1786948196183831
 31
0.0
  0
LINE
  5
9EBB
  8
0
 10
9.0582410454106324
 20
5.1786948196183831
 30
0.0
 11
9.0579236898040314
 21
5.1780832505221452
 31
0.0
  0
LINE
  5
9EBC
  8
0
 10
9.0579236898040314
 20
5.1780832505221452
 30
0.0
 11
9.0576587829347126
 21
5.1774381682462227
 31
0.0
  0
LINE
  5
9EBD
  8
0
 10
9.0576587829347126
 20
5.1774381682462227
 30
0.0
 11
9.0574399485144355
 21
5.176766285944832
 31
0.0
  0
LINE
  5
9EBE
  8
0
 10
9.0574399485144355
 20
5.176766285944832
 30
0.0
 11
9.0572608102549914
 21
5.1760743167720831
 31
0.0
  0
LINE
  5
9EBF
  8
0
 10
9.0572608102549914
 20
5.1760743167720831
 30
0.0
 11
9.057114991868163
 21
5.1753689738820841
 31
0.0
  0
LINE
  5
9EC0
  8
0
 10
9.057114991868163
 20
5.1753689738820841
 30
0.0
 11
9.0569961170657152
 21
5.1746569704287131
 31
0.0
  0
LINE
  5
9EC1
  8
0
 10
9.0569961170657152
 20
5.1746569704287131
 30
0.0
 11
9.0568978095594304
 21
5.173945019566303
 31
0.0
  0
LINE
  5
9EC2
  8
0
 10
9.0568978095594304
 20
5.173945019566303
 30
0.0
 11
9.0568167832487632
 21
5.1732397446653513
 31
0.0
  0
LINE
  5
9EC3
  8
0
 10
9.0568167832487632
 20
5.1732397446653513
 30
0.0
 11
9.0567621127839288
 21
5.172547409962247
 31
0.0
  0
LINE
  5
9EC4
  8
0
 10
9.0567621127839288
 20
5.172547409962247
 30
0.0
 11
9.0567459630027916
 21
5.1718741899101124
 31
0.0
  0
LINE
  5
9EC5
  8
0
 10
9.0567459630027916
 20
5.1718741899101124
 30
0.0
 11
9.0567804987432634
 21
5.1712262589619513
 31
0.0
  0
LINE
  5
9EC6
  8
0
 10
9.0567804987432634
 20
5.1712262589619513
 30
0.0
 11
9.0568778848432121
 21
5.170609791570655
 31
0.0
  0
LINE
  5
9EC7
  8
0
 10
9.0568778848432121
 20
5.170609791570655
 30
0.0
 11
9.0570502861405267
 21
5.170030962189113
 31
0.0
  0
LINE
  5
9EC8
  8
0
 10
9.0570502861405267
 20
5.170030962189113
 30
0.0
 11
9.0573098674730872
 21
5.1694959452703371
 31
0.0
  0
LINE
  5
9EC9
  8
0
 10
9.0573098674730872
 20
5.1694959452703371
 30
0.0
 11
9.0576687936787863
 21
5.169010915267445
 31
0.0
  0
LINE
  5
9ECA
  8
0
 10
9.0664741928143968
 20
5.171295182383119
 30
0.0
 11
9.0664348946385562
 21
5.1697822026135292
 31
0.0
  0
ARC
  5
9ECB
  8
0
 10
8.9686055619606364
 20
5.2006021034058003
 30
0.0
 40
0.0702244316747751
 50
346.67496717791983
 51
1.400873055739229
  0
LINE
  5
9ECC
  8
0
 10
9.0645167489832357
 20
5.1826125840481154
 30
0.0
 11
9.0645167489832357
 21
5.1826125840481154
 31
0.0
  0
LINE
  5
9ECD
  8
0
 10
9.0664741928143968
 20
5.171295182383119
 30
0.0
 11
9.0664993210660132
 21
5.1719369418395891
 31
0.0
  0
LINE
  5
9ECE
  8
0
 10
9.0664993210660132
 20
5.1719369418395891
 30
0.0
 11
9.0665376752119506
 21
5.172547539781247
 31
0.0
  0
LINE
  5
9ECF
  8
0
 10
9.0665376752119506
 20
5.172547539781247
 30
0.0
 11
9.0665861069066001
 21
5.173133782462628
 31
0.0
  0
LINE
  5
9ED0
  8
0
 10
9.0665861069066001
 20
5.173133782462628
 30
0.0
 11
9.0666414678043417
 21
5.1737024761374641
 31
0.0
  0
LINE
  5
9ED1
  8
0
 10
9.0666414678043417
 20
5.1737024761374641
 30
0.0
 11
9.0667006095595681
 21
5.1742604270600578
 31
0.0
  0
LINE
  5
9ED2
  8
0
 10
9.0667006095595681
 20
5.1742604270600578
 30
0.0
 11
9.0667603838266686
 21
5.174814441484612
 31
0.0
  0
LINE
  5
9ED3
  8
0
 10
9.0667603838266686
 20
5.174814441484612
 30
0.0
 11
9.0668176422600233
 21
5.175371325665421
 31
0.0
  0
LINE
  5
9ED4
  8
0
 10
9.0668176422600233
 20
5.175371325665421
 30
0.0
 11
9.0668692365140302
 21
5.1759378858564551
 31
0.0
  0
LINE
  5
9ED5
  8
0
 10
9.0668692365140302
 20
5.1759378858564551
 30
0.0
 11
9.0669140394383216
 21
5.1765171836994979
 31
0.0
  0
LINE
  5
9ED6
  8
0
 10
9.0669140394383216
 20
5.1765171836994979
 30
0.0
 11
9.0669590086634795
 21
5.1770973023865281
 31
0.0
  0
LINE
  5
9ED7
  8
0
 10
9.0669590086634795
 20
5.1770973023865281
 30
0.0
 11
9.0670131230153501
 21
5.1776625804974401
 31
0.0
  0
LINE
  5
9ED8
  8
0
 10
9.0670131230153501
 20
5.1776625804974401
 30
0.0
 11
9.0670853613197728
 21
5.1781973566115731
 31
0.0
  0
LINE
  5
9ED9
  8
0
 10
9.0670853613197728
 20
5.1781973566115731
 30
0.0
 11
9.067184702402578
 21
5.1786859693086171
 31
0.0
  0
LINE
  5
9EDA
  8
0
 10
9.067184702402578
 20
5.1786859693086171
 30
0.0
 11
9.0673201250895996
 21
5.1791127571681264
 31
0.0
  0
LINE
  5
9EDB
  8
0
 10
9.0673201250895996
 20
5.1791127571681264
 30
0.0
 11
9.0675006082066822
 21
5.1794620587700111
 31
0.0
  0
LINE
  5
9EDC
  8
0
 10
9.0675006082066822
 20
5.1794620587700111
 30
0.0
 11
9.0677351305796563
 21
5.1797182126936132
 31
0.0
  0
LINE
  5
9EDD
  8
0
 10
9.0677351305796563
 20
5.1797182126936132
 30
0.0
 11
9.0680309054497208
 21
5.1798708809234313
 31
0.0
  0
LINE
  5
9EDE
  8
0
 10
9.0680309054497208
 20
5.1798708809234313
 30
0.0
 11
9.0683880837195261
 21
5.179931019062451
 31
0.0
  0
LINE
  5
9EDF
  8
0
 10
9.0683880837195261
 20
5.179931019062451
 30
0.0
 11
9.0688050507070717
 21
5.1799149061185972
 31
0.0
  0
LINE
  5
9EE0
  8
0
 10
9.0688050507070717
 20
5.1799149061185972
 30
0.0
 11
9.0692801917303711
 21
5.1798388210997901
 31
0.0
  0
LINE
  5
9EE1
  8
0
 10
9.0692801917303711
 20
5.1798388210997901
 30
0.0
 11
9.069811892107424
 21
5.1797190430133906
 31
0.0
  0
LINE
  5
9EE2
  8
0
 10
9.069811892107424
 20
5.1797190430133906
 30
0.0
 11
9.0703985371562421
 21
5.1795718508677711
 31
0.0
  0
LINE
  5
9EE3
  8
0
 10
9.0703985371562421
 20
5.1795718508677711
 30
0.0
 11
9.0710385121948356
 21
5.179413523670175
 31
0.0
  0
LINE
  5
9EE4
  8
0
 10
9.0710385121948356
 20
5.179413523670175
 30
0.0
 11
9.0717302025412057
 21
5.1792603404289812
 31
0.0
  0
LINE
  5
9EE5
  8
0
 10
9.0717302025412057
 20
5.1792603404289812
 30
0.0
 11
9.0724689377940102
 21
5.1791276301992131
 31
0.0
  0
LINE
  5
9EE6
  8
0
 10
9.0724689377940102
 20
5.1791276301992131
 30
0.0
 11
9.0732378246745746
 21
5.179026922227421
 31
0.0
  0
LINE
  5
9EE7
  8
0
 10
9.0732378246745746
 20
5.179026922227421
 30
0.0
 11
9.0740169141848401
 21
5.1789687958075774
 31
0.0
  0
LINE
  5
9EE8
  8
0
 10
9.0740169141848401
 20
5.1789687958075774
 30
0.0
 11
9.074786257326771
 21
5.1789638302341201
 31
0.0
  0
LINE
  5
9EE9
  8
0
 10
9.074786257326771
 20
5.1789638302341201
 30
0.0
 11
9.0755259051023351
 21
5.1790226048007071
 31
0.0
  0
LINE
  5
9EEA
  8
0
 10
9.0755259051023351
 20
5.1790226048007071
 30
0.0
 11
9.0762159085134808
 21
5.1791556988018783
 31
0.0
  0
LINE
  5
9EEB
  8
0
 10
9.0762159085134808
 20
5.1791556988018783
 30
0.0
 11
9.0768363185621777
 21
5.1793736915311683
 31
0.0
  0
LINE
  5
9EEC
  8
0
 10
9.0768363185621777
 20
5.1793736915311683
 30
0.0
 11
9.0773671862503811
 21
5.1796871622830141
 31
0.0
  0
LINE
  5
9EED
  8
0
 10
9.0773671862503811
 20
5.1796871622830141
 30
0.0
 11
9.0777937306995362
 21
5.1801023885599271
 31
0.0
  0
LINE
  5
9EEE
  8
0
 10
9.0777937306995362
 20
5.1801023885599271
 30
0.0
 11
9.0781218435089794
 21
5.1806084406991841
 31
0.0
  0
LINE
  5
9EEF
  8
0
 10
9.0781218435089794
 20
5.1806084406991841
 30
0.0
 11
9.0783625843975528
 21
5.1811900872459091
 31
0.0
  0
LINE
  5
9EF0
  8
0
 10
9.0783625843975528
 20
5.1811900872459091
 30
0.0
 11
9.0785270130840772
 21
5.1818320967458931
 31
0.0
  0
LINE
  5
9EF1
  8
0
 10
9.0785270130840772
 20
5.1818320967458931
 30
0.0
 11
9.0786261892873892
 21
5.182519237744712
 31
0.0
  0
LINE
  5
9EF2
  8
0
 10
9.0786261892873892
 20
5.182519237744712
 30
0.0
 11
9.0786711727262954
 21
5.1832362787878301
 31
0.0
  0
LINE
  5
9EF3
  8
0
 10
9.0786711727262954
 20
5.1832362787878301
 30
0.0
 11
9.0786730231196415
 21
5.183967988421041
 31
0.0
  0
LINE
  5
9EF4
  8
0
 10
9.0786730231196415
 20
5.183967988421041
 30
0.0
 11
9.0786428001862536
 21
5.184699135189585
 31
0.0
  0
LINE
  5
9EF5
  8
0
 10
9.0786428001862536
 20
5.184699135189585
 30
0.0
 11
9.0785896149398315
 21
5.185416595538296
 31
0.0
  0
LINE
  5
9EF6
  8
0
 10
9.0785896149398315
 20
5.185416595538296
 30
0.0
 11
9.0785147835736328
 21
5.1861156775083801
 31
0.0
  0
LINE
  5
9EF7
  8
0
 10
9.0785147835736328
 20
5.1861156775083801
 30
0.0
 11
9.0784176735757764
 21
5.1867937970403091
 31
0.0
  0
LINE
  5
9EF8
  8
0
 10
9.0784176735757764
 20
5.1867937970403091
 30
0.0
 11
9.0782976524343972
 21
5.1874483700738621
 31
0.0
  0
LINE
  5
9EF9
  8
0
 10
9.0782976524343972
 20
5.1874483700738621
 30
0.0
 11
9.0781540876376159
 21
5.1880768125494114
 31
0.0
  0
LINE
  5
9EFA
  8
0
 10
9.0781540876376159
 20
5.1880768125494114
 30
0.0
 11
9.0779863466735602
 21
5.188676540407525
 31
0.0
  0
LINE
  5
9EFB
  8
0
 10
9.0779863466735602
 20
5.188676540407525
 30
0.0
 11
9.0777937970303686
 21
5.189244969588227
 31
0.0
  0
LINE
  5
9EFC
  8
0
 10
9.0777937970303686
 20
5.189244969588227
 30
0.0
 11
9.0775758061961511
 21
5.189779516031761
 31
0.0
  0
LINE
  5
9EFD
  8
0
 10
9.0775758061961511
 20
5.189779516031761
 30
0.0
 11
9.0773323888584674
 21
5.190278552737821
 31
0.0
  0
LINE
  5
9EFE
  8
0
 10
9.0773323888584674
 20
5.190278552737821
 30
0.0
 11
9.077066148502503
 21
5.190744280941999
 31
0.0
  0
LINE
  5
9EFF
  8
0
 10
9.077066148502503
 20
5.190744280941999
 30
0.0
 11
9.0767803358128774
 21
5.1911798589399032
 31
0.0
  0
LINE
  5
9F00
  8
0
 10
9.0767803358128774
 20
5.1911798589399032
 30
0.0
 11
9.0764782014741918
 21
5.1915884450268051
 31
0.0
  0
LINE
  5
9F01
  8
0
 10
9.0764782014741918
 20
5.1915884450268051
 30
0.0
 11
9.0761629961710621
 21
5.1919731974977603
 31
0.0
  0
LINE
  5
9F02
  8
0
 10
9.0761629961710621
 20
5.1919731974977603
 30
0.0
 11
9.0758379705880952
 21
5.1923372746479091
 31
0.0
  0
LINE
  5
9F03
  8
0
 10
9.0758379705880952
 20
5.1923372746479091
 30
0.0
 11
9.0755063754099172
 21
5.192683834772537
 31
0.0
  0
LINE
  5
9F04
  8
0
 10
9.0755063754099172
 20
5.192683834772537
 30
0.0
 11
9.0751714613211281
 21
5.193016036167136
 31
0.0
  0
LINE
  5
9F05
  8
0
 10
9.0751714613211281
 20
5.193016036167136
 30
0.0
 11
9.0748356366047496
 21
5.1933346790658561
 31
0.0
  0
LINE
  5
9F06
  8
0
 10
9.0748356366047496
 20
5.1933346790658561
 30
0.0
 11
9.0744979399375136
 21
5.193631131457888
 31
0.0
  0
LINE
  5
9F07
  8
0
 10
9.0744979399375136
 20
5.193631131457888
 30
0.0
 11
9.074156567594537
 21
5.1938944032722221
 31
0.0
  0
LINE
  5
9F08
  8
0
 10
9.074156567594537
 20
5.1938944032722221
 30
0.0
 11
9.0738097158509596
 21
5.1941135044373778
 31
0.0
  0
LINE
  5
9F09
  8
0
 10
9.0738097158509596
 20
5.1941135044373778
 30
0.0
 11
9.0734555809819142
 21
5.194277444881318
 31
0.0
  0
LINE
  5
9F0A
  8
0
 10
9.0734555809819142
 20
5.194277444881318
 30
0.0
 11
9.0730923592625352
 21
5.194375234533477
 31
0.0
  0
LINE
  5
9F0B
  8
0
 10
9.0730923592625352
 20
5.194375234533477
 30
0.0
 11
9.0727182469679448
 21
5.1943958833218131
 31
0.0
  0
LINE
  5
9F0C
  8
0
 10
9.0727182469679448
 20
5.1943958833218131
 30
0.0
 11
9.0723314403732935
 21
5.1943284011750812
 31
0.0
  0
LINE
  5
9F0D
  8
0
 10
9.0723314403732935
 20
5.1943284011750812
 30
0.0
 11
9.0719322926902528
 21
5.194165697090166
 31
0.0
  0
LINE
  5
9F0E
  8
0
 10
9.0719322926902528
 20
5.194165697090166
 30
0.0
 11
9.0715297848767271
 21
5.1939162763382001
 31
0.0
  0
LINE
  5
9F0F
  8
0
 10
9.0715297848767271
 20
5.1939162763382001
 30
0.0
 11
9.0711350548271721
 21
5.1935925432590011
 31
0.0
  0
LINE
  5
9F10
  8
0
 10
9.0711350548271721
 20
5.1935925432590011
 30
0.0
 11
9.0707592404360327
 21
5.1932069021917151
 31
0.0
  0
LINE
  5
9F11
  8
0
 10
9.0707592404360327
 20
5.1932069021917151
 30
0.0
 11
9.0704134795977591
 21
5.1927717574764083
 31
0.0
  0
LINE
  5
9F12
  8
0
 10
9.0704134795977591
 20
5.1927717574764083
 30
0.0
 11
9.0701089102068142
 21
5.1922995134522081
 31
0.0
  0
LINE
  5
9F13
  8
0
 10
9.0701089102068142
 20
5.1922995134522081
 30
0.0
 11
9.0698566701576482
 21
5.1918025744587331
 31
0.0
  0
LINE
  5
9F14
  8
0
 10
9.0581377750551049
 20
5.1685808609697661
 30
0.0
 11
9.0587217037378593
 21
5.1682060285116851
 31
0.0
  0
LINE
  5
9F15
  8
0
 10
9.0587217037378593
 20
5.1682060285116851
 30
0.0
 11
9.0594240173224883
 21
5.1678854783649513
 31
0.0
  0
LINE
  5
9F16
  8
0
 10
9.0594240173224883
 20
5.1678854783649513
 30
0.0
 11
9.0602481534044035
 21
5.167618271000034
 31
0.0
  0
LINE
  5
9F17
  8
0
 10
9.0602481534044035
 20
5.167618271000034
 30
0.0
 11
9.0611975495790382
 21
5.167403466888568
 31
0.0
  0
LINE
  5
9F18
  8
0
 10
9.0611975495790382
 20
5.167403466888568
 30
0.0
 11
9.0622756434417955
 21
5.167240126501607
 31
0.0
  0
LINE
  5
9F19
  8
0
 10
9.0622756434417955
 20
5.167240126501607
 30
0.0
 11
9.0634858725881209
 21
5.1671273103100921
 31
0.0
  0
LINE
  5
9F1A
  8
0
 10
9.0634858725881209
 20
5.1671273103100921
 30
0.0
 11
9.0648316746134316
 21
5.167064078785188
 31
0.0
  0
LINE
  5
9F1B
  8
0
 10
9.0663439266389432
 20
5.1670225973773531
 30
0.0
 11
9.0648316746134316
 21
5.167064078785188
 31
0.0
  0
LINE
  5
9F1C
  8
0
 10
9.0877476053312343
 20
5.1487067364639643
 30
0.0
 11
9.0773743423996862
 21
5.1314206333058783
 31
0.0
  0
LINE
  5
9F1D
  8
0
 10
9.0773743423996862
 20
5.1314206333058783
 30
0.0
 11
9.0625902231030366
 21
5.1253126779402001
 31
0.0
  0
LINE
  5
9F1E
  8
0
 10
9.0625902231030366
 20
5.1253126779402001
 30
0.0
 11
9.0499238388373122
 21
5.1114702593754364
 31
0.0
  0
LINE
  5
9F1F
  8
0
 10
9.0576687936787863
 20
5.169010915267445
 30
0.0
 11
9.0581377750551049
 21
5.1685808609697661
 31
0.0
  0
LINE
  5
9F20
  8
0
 10
9.0664348946385562
 20
5.1697822026135292
 30
0.0
 11
9.0663439266389432
 21
5.1670225973773531
 31
0.0
  0
LINE
  5
9F21
  8
0
 10
9.1033322430244557
 20
5.1524102256638562
 30
0.0
 11
9.0877476053312343
 21
5.1487067364639643
 31
0.0
  0
LINE
  5
9F22
  8
0
 10
9.1075269594224828
 20
5.0889480381598551
 30
0.0
 11
9.0975736047771321
 21
5.0851659526081212
 31
0.0
  0
LINE
  5
9F23
  8
0
 10
9.0959623795680322
 20
5.0816909750230881
 30
0.0
 11
9.1086833446335191
 21
5.082134898861109
 31
0.0
  0
LINE
  5
9F24
  8
0
 10
9.0852871028777784
 20
5.0869889513202171
 30
0.0
 11
9.0830492900873665
 21
5.09438283032864
 31
0.0
  0
LINE
  5
9F25
  8
0
 10
9.0830492900873665
 20
5.09438283032864
 30
0.0
 11
9.0916337582745825
 21
5.1006901875493851
 31
0.0
  0
LINE
  5
9F26
  8
0
 10
9.0485869731150395
 20
5.1034774470575712
 30
0.0
 11
9.0387034818933891
 21
5.1051148710505441
 31
0.0
  0
LINE
  5
9F27
  8
0
 10
9.0387034818933891
 20
5.1051148710505441
 30
0.0
 11
9.0314733452843718
 21
5.0974844752433892
 31
0.0
  0
LINE
  5
9F28
  8
0
 10
9.0975736047771321
 20
5.0851659526081212
 30
0.0
 11
9.0852871028777784
 21
5.0869889513202171
 31
0.0
  0
LINE
  5
9F29
  8
0
 10
9.0916337582745825
 20
5.1006901875493851
 30
0.0
 11
9.1023163124048061
 21
5.1137604697335011
 31
0.0
  0
LINE
  5
9F2A
  8
0
 10
9.0499238388373122
 20
5.1114702593754364
 30
0.0
 11
9.0485869731150395
 21
5.1034774470575712
 31
0.0
  0
ARC
  5
9F2B
  8
0
 10
-9.2076870934572934
 20
5.2136789927614
 30
0.0
 40
0.0942857844919832
210
0.0
220
0.0
230
-1.0
 50
329.9239329999981
 51
348.9639769999971
  0
ARC
  5
9F2C
  8
0
 10
-9.1408299802077728
 20
5.1690995787445191
 30
0.0
 40
0.0149740604798358
210
0.0
220
0.0
230
-1.0
 50
235.944996
 51
349.72231199999862
  0
LINE
  5
9F2D
  8
0
 10
9.1220840225921034
 20
5.1267230458059831
 30
0.0
 11
9.12916424393776
 21
5.1290249000680861
 31
0.0
  0
LINE
  5
9F2E
  8
0
 10
9.12916424393776
 20
5.1290249000680861
 30
0.0
 11
9.1332148670244067
 21
5.1405378100987491
 31
0.0
  0
LINE
  5
9F2F
  8
0
 10
9.1332148670244067
 20
5.1405378100987491
 30
0.0
 11
9.1234812910661152
 21
5.1497736091631587
 31
0.0
  0
LINE
  5
9F30
  8
0
 10
9.1138750703072802
 20
5.1195453067647332
 30
0.0
 11
9.1220840225921034
 21
5.1267230458059831
 31
0.0
  0
LINE
  5
9F31
  8
0
 10
9.1234812910661152
 20
5.1497736091631587
 30
0.0
 11
9.114544594784407
 21
5.154697525046231
 31
0.0
  0
ARC
  5
9F32
  8
0
 10
-9.1466927705461352
 20
5.19848164856114
 30
0.0
 40
0.0147324494728711
210
0.0
220
0.0
230
-1.0
 50
251.1909500000001
 51
2.5488450000021312
  0
LINE
  5
9F33
  8
0
 10
9.17733507457935
 20
5.082945605673558
 30
0.0
 11
9.1684071112256031
 21
5.089680876364806
 31
0.0
  0
LINE
  5
9F34
  8
0
 10
9.1684071112256031
 20
5.089680876364806
 30
0.0
 11
9.1587907020508155
 21
5.087990327060079
 31
0.0
  0
LINE
  5
9F35
  8
0
 10
9.1587907020508155
 20
5.087990327060079
 30
0.0
 11
9.1575171500562718
 21
5.099450839522774
 31
0.0
  0
LINE
  5
9F36
  8
0
 10
9.1575171500562718
 20
5.099450839522774
 30
0.0
 11
9.1326523209148167
 21
5.096572612015275
 31
0.0
  0
LINE
  5
9F37
  8
0
 10
9.1326523209148167
 20
5.096572612015275
 30
0.0
 11
9.1276898346000834
 21
5.0933377899490324
 31
0.0
  0
LINE
  5
9F38
  8
0
 10
9.1276898346000834
 20
5.0933377899490324
 30
0.0
 11
9.1198178277858108
 21
5.09058182343301
 31
0.0
  0
ARC
  5
9F39
  8
0
 10
9.1637021379154486
 20
5.1242007839375683
 30
0.0
 40
0.0615680398475214
 50
61.781831376361247
 51
101.4854784804825
  0
ARC
  5
9F3A
  8
0
 10
9.0798945198608862
 20
5.233886988066728
 30
0.0
 40
0.0556600441134954
 50
49.067058000001552
 51
72.217435000000492
  0
ARC
  5
9F3B
  8
0
 10
9.1009798454432822
 20
5.277122581252911
 30
0.0
 40
0.0154272812539219
 50
355.59419036477749
 51
64.085314639206516
  0
ARC
  5
9F3C
  8
0
 10
9.0919358991296324
 20
5.2524093143367692
 30
0.0
 40
0.0416933429028272
 50
38.259234046839168
 51
103.3732192694921
  0
ARC
  5
9F3D
  8
0
 10
9.0968938918840454
 20
5.2473429745691611
 30
0.0
 40
0.0125419400422575
 50
14.036242999997681
 51
67.166345999999052
  0
LINE
  5
9F3E
  8
0
 10
9.0949246166284823
 20
5.2875195374050419
 30
0.0
 11
9.0968938918840454
 21
5.286887855615757
 31
0.0
  0
ARC
  5
9F3F
  8
0
 10
-9.0853344062375712
 20
5.2838458857088391
 30
0.0
 40
0.0103601635396065
210
0.0
220
0.0
230
-1.0
 50
266.63353899999942
 51
356.63353899999748
  0
ARC
  5
9F40
  8
0
 10
-9.0858751200272554
 20
5.2760051718862542
 30
0.0
 40
0.013067371208006
210
0.0
220
0.0
230
-1.0
 50
33.607863999999189
 51
112.1866780000003
  0
ARC
  5
9F41
  8
0
 10
-9.0287544937120217
 20
5.4061316204806626
 30
0.0
 40
0.125185066855579
210
0.0
220
0.0
230
-1.0
 50
244.6803130000001
 51
254.2075959999994
  0
LINE
  5
9F42
  8
0
 10
9.0855687717178029
 20
5.2889256775092681
 30
0.0
 11
9.0855687717178029
 21
5.2889256775092681
 31
0.0
  0
LINE
  5
9F43
  8
0
 10
9.0908099520701118
 20
5.288104643578432
 30
0.0
 11
9.0927246465259035
 21
5.2873237742699031
 31
0.0
  0
LINE
  5
9F44
  8
0
 10
9.0302289030497001
 20
5.2747920226433962
 30
0.0
 11
9.0275377057492356
 21
5.2759374916945481
 31
0.0
  0
ARC
  5
9F45
  8
0
 10
-9.1107348549607323
 20
5.284492850121973
 30
0.0
 40
0.0271179245557991
210
0.0
220
0.0
230
-1.0
 50
289.32416899999902
 51
336.09461099999959
  0
LINE
  5
9F46
  8
0
 10
9.0927246465259035
 20
5.2873237742699031
 30
0.0
 11
9.0949246166284823
 21
5.2875195374050419
 31
0.0
  0
ARC
  5
9F47
  8
0
 10
9.0924299949066594
 20
5.2573386720529243
 30
0.0
 40
0.0384190610833734
 50
3.9347819999985312
 51
32.93511599999924
  0
ARC
  5
9F48
  8
0
 10
8.8542503948111264
 20
5.2571391661748512
 30
0.0
 40
0.2765226418314224
 50
354.4404940156054
 51
0.5876029673891453
  0
ARC
  5
9F49
  8
0
 10
9.0703956604186633
 20
5.121887314079113
 30
0.0
 40
0.1498445210759986
 50
359.74307375487302
 51
5.3925213306160691
  0
ARC
  5
9F4A
  8
0
 10
9.2130949590981182
 20
5.126883149485252
 30
0.0
 40
0.0035477519847978
 50
120.9637570000009
 51
210.96375700000019
  0
ARC
  5
9F4B
  8
0
 10
-9.2312936532281356
 20
5.1083140336609132
 30
0.0
 40
0.0154747483496904
210
0.0
220
0.0
230
-1.0
 50
233.6197979999985
 51
325.30484599999869
  0
LINE
  5
9F4C
  8
0
 10
9.2137033530795112
 20
5.1043725721738147
 30
0.0
 11
9.2132412356414903
 21
5.1028173832523844
 31
0.0
  0
LINE
  5
9F4D
  8
0
 10
9.2132412356414903
 20
5.1028173832523844
 30
0.0
 11
9.2095741336412065
 21
5.1029280003399426
 31
0.0
  0
LINE
  5
9F4E
  8
0
 10
9.2095741336412065
 20
5.1029280003399426
 30
0.0
 11
9.2088369289723673
 21
5.1043725721738147
 31
0.0
  0
ARC
  5
9F4F
  8
0
 10
-9.2908471277249518
 20
5.1462294958985231
 30
0.0
 40
0.09207417048546
210
0.0
220
0.0
230
-1.0
 50
332.96088100000031
 51
352.04385489126952
  0
ARC
  5
9F50
  8
0
 10
9.2478647606997448
 20
5.1225052228942332
 30
0.0
 40
0.0276561801926207
 50
182.67315462523041
 51
254.49653585089101
  0
ARC
  5
9F51
  8
0
 10
9.1768962449492264
 20
5.1055893601366051
 30
0.0
 40
0.042116000587532
 50
351.69432399999738
 51
35.297143000000069
  0
ARC
  5
9F52
  8
0
 10
-9.1911935035119665
 20
5.111064905969096
 30
0.0
 40
0.0234842987793692
210
0.0
220
0.0
230
-1.0
 50
143.42696899999839
 51
196.55707099999711
  0
ARC
  5
9F53
  8
0
 10
8.9146282413876463
 20
5.325207146255023
 30
0.0
 40
0.0755029032056184
 50
97.267335394170019
 51
159.71996028223811
  0
ARC
  5
9F54
  8
0
 10
8.912714257921257
 20
5.3357245720143283
 30
0.0
 40
0.0501917757209271
 50
48.43557500000211
 51
97.847627999999531
  0
ARC
  5
9F55
  8
0
 10
8.9091892792295901
 20
5.3351145238872251
 30
0.0
 40
0.0651189530715311
 50
42.804549694953323
 51
93.620483886717864
  0
ARC
  5
9F56
  8
0
 10
-8.9036014475923047
 20
5.3899662430779891
 30
0.0
 40
0.0050527265703489
210
0.0
220
0.0
230
-1.0
 50
243.4349489999997
 51
3.945186000002348
  0
ARC
  5
9F57
  8
0
 10
8.8906512431677953
 20
5.404306438536536
 30
0.0
 40
0.0150257303036144
 50
301.75948000000051
 51
343.75679324223017
  0
LINE
  5
9F58
  8
0
 10
8.8985603649259062
 20
5.3903133769645111
 30
0.0
 11
8.8985880191977902
 21
5.3907180026268371
 31
0.0
  0
LINE
  5
9F59
  8
0
 10
8.8985880191977902
 20
5.3907180026268371
 30
0.0
 11
8.8982154142713874
 21
5.3913169359362882
 31
0.0
  0
LINE
  5
9F5A
  8
0
 10
8.8982154142713874
 20
5.3913169359362882
 30
0.0
 11
8.8985603649259062
 21
5.3915301649274161
 31
0.0
  0
LINE
  5
9F5B
  8
0
 10
8.8757169810476881
 20
5.3555101033356323
 30
0.0
 11
8.8757169810476881
 21
5.3555101033356323
 31
0.0
  0
ARC
  5
9F5C
  8
0
 10
-8.8826489701780886
 20
5.34547998029268
 30
0.0
 40
0.0294132291219636
210
0.0
220
0.0
230
-1.0
 50
142.10902499999841
 51
185.1118939999991
  0
ARC
  5
9F5D
  8
0
 10
8.9210702144934544
 20
5.3459013440668732
 30
0.0
 40
0.009619320150781
 50
198.43494899999851
 51
235.30484599999841
  0
ARC
  5
9F5E
  8
0
 10
-8.8918680311305813
 20
5.3568524357319802
 30
0.0
 40
0.012790828489191
210
0.0
220
0.0
230
-1.0
 50
25.34617599999936
 51
98.826550009906882
  0
ARC
  5
9F5F
  8
0
 10
8.9089030626095873
 20
5.3848378311321294
 30
0.0
 40
0.0215099293158295
 50
225.5154962313826
 51
261.86989799999952
  0
ARC
  5
9F60
  8
0
 10
8.955748671432854
 20
5.3769294371178331
 30
0.0
 40
0.0027210348043403
 50
63.434948999999889
 51
153.4349489999976
  0
ARC
  5
9F61
  8
0
 10
8.9758249450748249
 20
5.3605027996202352
 30
0.0
 40
0.0286003390774469
 50
141.91122700000059
 51
156.1612599999996
  0
ARC
  5
9F62
  8
0
 10
-8.9484479436561362
 20
5.374495861192254
 30
0.0
 40
0.0027210348043403
210
0.0
220
0.0
230
-1.0
 50
243.4349489999997
 51
333.43494899999757
  0
LINE
  5
9F63
  8
0
 10
9.694258185260324
 20
4.701622306187569
 30
0.0
 11
9.694258185260324
 21
4.332940647671303
 31
0.0
  0
ARC
  5
9F64
  8
0
 10
-9.0822691485227125
 20
4.5279280077318163
 30
0.0
 40
0.3018143568507184
210
0.0
220
0.0
230
-1.0
 50
171.01236299999761
 51
178.90273499999901
  0
LINE
  5
9F65
  8
0
 10
9.4180742442357754
 20
4.3633603467409321
 30
0.0
 11
9.4180742442357754
 21
4.681179977315308
 31
0.0
  0
LINE
  5
9F66
  8
0
 10
9.4436267914542853
 20
4.6906712145224629
 30
0.0
 11
9.4436267914542853
 21
4.3610228330230711
 31
0.0
  0
LINE
  5
9F67
  8
0
 10
9.4886239305254705
 20
4.3438917393365273
 30
0.0
 11
9.4886239305254705
 21
4.689454426559676
 31
0.0
  0
LINE
  5
9F68
  8
0
 10
9.5178086480324122
 20
4.6973482656937904
 30
0.0
 11
9.6821019495364133
 21
4.412900791584887
 31
0.0
  0
LINE
  5
9F69
  8
0
 10
9.5007801662493794
 20
4.6694240007896033
 30
0.0
 11
9.5007801662493794
 21
4.3451085272992032
 31
0.0
  0
LINE
  5
9F6A
  8
0
 10
9.6821019495364133
 20
4.412900791584887
 30
0.0
 11
9.6821019495364133
 21
4.7004055182248941
 31
0.0
  0
LINE
  5
9F6B
  8
0
 10
9.694258185260324
 20
4.332940647671303
 30
0.0
 11
9.5007801662493794
 21
4.6694240007896033
 31
0.0
  0
LINE
  5
9F6C
  8
0
 10
9.4095574562402717
 20
4.3341574356342081
 30
0.0
 11
9.4509275192309961
 21
4.3341574356342081
 31
0.0
  0
ARC
  5
9F6D
  8
0
 10
-9.3513554023456713
 20
4.3669765066615582
 30
0.0
 40
0.0668178150736841
210
0.0
220
0.0
230
-1.0
 50
183.1026619999983
 51
209.41774699999741
  0
ARC
  5
9F6E
  8
0
 10
9.4966203815632024
 20
4.3610228330230711
 30
0.0
 40
0.0530052340128713
 50
180.0
 51
210.45326099999829
  0
LINE
  5
9F6F
  8
0
 10
9.4813232027487544
 20
4.3341574356342081
 30
0.0
 11
9.506864106063313
 21
4.3341574356342081
 31
0.0
  0
ARC
  5
9F70
  8
0
 10
9.4290020480929471
 20
4.3810030444574251
 30
0.0
 40
0.0702280234430713
 50
318.16036199999797
 51
328.09984299999712
  0
ARC
  5
9F71
  8
0
 10
-9.5241596698931996
 20
4.3509319347623432
 30
0.0
 40
0.0240934205047591
210
0.0
220
0.0
230
-1.0
 50
315.87690799999848
 51
346.0138840000003
  0
ARC
  5
9F72
  8
0
 10
-9.0628012688621329
 20
4.5251902348156801
 30
0.0
 40
0.3213397282870517
210
0.0
220
0.0
230
-1.0
 50
178.48115000000081
 51
185.21407099999681
  0
ARC
  5
9F73
  8
0
 10
-9.4886472183333712
 20
4.6864124566527581
 30
0.0
 40
0.0452212842222257
210
0.0
220
0.0
230
-1.0
 50
5.4037910000000497
 51
33.476277999999901
  0
ARC
  5
9F74
  8
0
 10
9.4080131834788876
 20
4.6552329928502969
 30
0.0
 40
0.0875745293527411
 50
23.00259699999771
 51
39.856534999998651
  0
ARC
  5
9F75
  8
0
 10
-9.3521253554943673
 20
4.681179977315308
 30
0.0
 40
0.0659561661813763
210
0.0
220
0.0
230
-1.0
 50
152.77314599999701
 51
180.0
  0
ARC
  5
9F76
  8
0
 10
-9.1030411454257028
 20
4.5291011310547411
 30
0.0
 40
0.2811216840433869
210
0.0
220
0.0
230
-1.0
 50
162.1588269999971
 51
170.58718400000211
  0
LINE
  5
9F77
  8
0
 10
9.4107742442030542
 20
4.7113558821458801
 30
0.0
 11
9.4509275192309961
 21
4.7113558821458801
 31
0.0
  0
ARC
  5
9F78
  8
0
 10
9.5425963363102007
 20
4.708835704684585
 30
0.0
 40
0.0273202373869322
 50
174.70655800000009
 51
204.8639990000004
  0
LINE
  5
9F79
  8
0
 10
9.4752392629348243
 20
4.7113558821458801
 30
0.0
 11
9.5153932657067664
 21
4.7113558821458801
 31
0.0
  0
ARC
  5
9F7A
  8
0
 10
-9.7240687626045794
 20
4.689758623550345
 30
0.0
 40
0.032084777334516
210
0.0
220
0.0
230
-1.0
 50
21.700536999999041
 51
42.310230000000203
  0
ARC
  5
9F7B
  8
0
 10
9.6078793392944615
 20
4.6663354552667871
 30
0.0
 40
0.0816688868180469
 50
24.655898999999469
 51
33.453308999999557
  0
LINE
  5
9F7C
  8
0
 10
9.676018009722485
 20
4.7113558821458801
 30
0.0
 11
9.7003421250742541
 21
4.7113558821458801
 31
0.0
  0
LINE
  5
9F7D
  8
0
 10
9.8098282984291014
 20
4.6967551543364152
 30
0.0
 11
9.8098282984291014
 21
4.3597099828526762
 31
0.0
  0
LINE
  5
9F7E
  8
0
 10
9.8353801179036147
 20
4.3582901543148864
 30
0.0
 11
9.8353801179036147
 21
4.6967551543364152
 31
0.0
  0
LINE
  5
9F7F
  8
0
 10
9.8025275706523871
 20
4.3341574356342081
 30
0.0
 11
9.8426808456803272
 21
4.3341574356342081
 31
0.0
  0
ARC
  5
9F80
  8
0
 10
9.7224233334276313
 20
4.370863387348888
 30
0.0
 40
0.0881130599104335
 50
335.38143000000059
 51
352.72777799999682
  0
ARC
  5
9F81
  8
0
 10
-9.8787784034136514
 20
4.3582901543148864
 30
0.0
 40
0.0434215733179375
210
0.0
220
0.0
230
-1.0
 50
326.23571499999832
 51
0.0
  0
LINE
  5
9F82
  8
0
 10
9.7149202928197891
 20
4.7113558821458801
 30
0.0
 11
9.9290713355501445
 21
4.7113558821458801
 31
0.0
  0
LINE
  5
9F83
  8
0
 10
9.8353801179036147
 20
4.6967551543364152
 30
0.0
 11
9.9144698799967141
 21
4.6967551543364152
 31
0.0
  0
ARC
  5
9F84
  8
0
 10
-9.7380385363687232
 20
4.6778949409132311
 30
0.0
 40
0.0202240056733397
210
0.0
220
0.0
230
-1.0
 50
15.708638000001001
 51
68.838739999999788
  0
ARC
  5
9F85
  8
0
 10
-10.164516167629239
 20
4.7557679150436334
 30
0.0
 40
0.4517849287520911
210
0.0
220
0.0
230
-1.0
 50
350.77868099999978
 51
354.35850299999771
  0
LINE
  5
9F86
  8
0
 10
9.8098282984291014
 20
4.6967551543364152
 30
0.0
 11
9.7307378085920089
 21
4.6967551543364152
 31
0.0
  0
ARC
  5
9F87
  8
0
 10
-9.9046489747587927
 20
4.6775470792828164
 30
0.0
 40
0.0215725152995613
210
0.0
220
0.0
230
-1.0
 50
117.0812150000009
 51
164.33997099999809
  0
ARC
  5
9F88
  8
0
 10
9.7830123876320076
 20
4.7161764583812511
 30
0.0
 40
0.1461389997577909
 50
347.02738699999958
 51
358.1097970000003
  0
TEXT
  5
9F89
  8
0
 10
21.669328232630122
 20
584.14806785389828
 30
0.0
 40
0.0625
  1

 72
     1
 11
21.669328232630122
 21
584.1793178538984
 31
0.0
 73
     2
  0
TEXT
  5
9F8A
  8
0
 10
8.5271769300088618
 20
3.7594078453406601
 30
0.0
 40
0.0625
  1
ANACONDA DRIVE
 72
     4
 11
8.9378912157231483
 21
3.7906578453406601
 31
0.0
  0
TEXT
  5
9F8B
  8
0
 10
8.7280697871517194
 20
3.6344078453406601
 30
0.0
 40
0.0625
  1
TARBORO
 72
     4
 11
8.9378912157231483
 21
3.6656578453406601
 31
0.0
  0
TEXT
  5
9F8C
  8
0
 10
8.5316412157231483
 20
3.5094078453406601
 30
0.0
 40
0.0625
  1
NORTH CAROLINA
 72
     4
 11
8.9378912157231483
 21
3.5406578453406601
 31
0.0
  0
TEXT
  5
9F8D
  8
0
 10
8.7994983585802906
 20
3.3844078453406601
 30
0.0
 40
0.0625
  1
27886
 72
     4
 11
8.9378912157231483
 21
3.4156578453406601
 31
0.0
  0
TEXT
  5
9F8E
  8
0
 10
8.6194388347707651
 20
3.1344078453406601
 30
0.0
 40
0.0625
  1
800.662.5550
 72
     4
 11
8.9378912157231483
 21
3.1656578453406601
 31
0.0
  0
TEXT
  5
9F8F
  8
0
 10
21.669328232630122
 20
584.02676125358312
 30
0.0
 40
0.0625
  1

 72
     4
 11
21.669328232630122
 21
584.02676125358312
 31
0.0
  0
TEXT
  5
9F90
  8
0
 10
8.5480102633421957
 20
2.8948245120073262
 30
0.0
 40
0.0625
  1
focalpointap.com
 72
     4
 11
8.9378912157231483
 21
2.9156578453406601
 31
0.0
  0
LINE
  5
9F91
  8
0
 10
0.0
 20
0.53125
 30
0.0
 11
10.0
 21
0.53125
 31
0.0
  0
LINE
  5
9F92
  8
0
 10
8.6977615261436174
 20
4.878123722851468
 30
0.0
 11
8.7430907357535919
 21
4.9234529324614451
 31
0.0
  0
LINE
  5
9F93
  8
0
 10
9.1211848324679874
 20
4.8787149358496951
 30
0.0
 11
9.0724953636382857
 21
4.9274044046794012
 31
0.0
  0
LINE
  5
9F94
  8
0
 10
9.0950924443954904
 20
4.876523052674731
 30
0.0
 11
9.0561884835523241
 21
4.9154270135178972
 31
0.0
  0
LINE
  5
9F95
  8
0
 10
9.0919060929586397
 20
4.8514251328641214
 30
0.0
 11
9.0626031550832931
 21
4.880728070739468
 31
0.0
  0
LINE
  5
9F96
  8
0
 10
9.0893204148180633
 20
4.8257265397572331
 30
0.0
 11
9.0790862927129758
 21
4.8359606618623241
 31
0.0
  0
LINE
  5
9F97
  8
0
 10
9.0786130490101993
 20
4.808149634317636
 30
0.0
 11
8.9572680134300935
 21
4.9294946698977427
 31
0.0
  0
LINE
  5
9F98
  8
0
 10
9.0599725284106434
 20
4.7985058836697281
 30
0.0
 11
8.9393953914300663
 21
4.9190830206503033
 31
0.0
  0
LINE
  5
9F99
  8
0
 10
9.0300949924409348
 20
4.800099148391979
 30
0.0
 11
8.9304862921211967
 21
4.8997078487117181
 31
0.0
  0
LINE
  5
9F9A
  8
0
 10
8.9902916150253063
 20
4.8116182545601429
 30
0.0
 11
8.9267988307759705
 21
4.8751110388094787
 31
0.0
  0
LINE
  5
9F9B
  8
0
 10
8.9602510744796344
 20
4.813374523858351
 30
0.0
 11
8.9233284584025956
 21
4.850297139935396
 31
0.0
  0
LINE
  5
9F9C
  8
0
 10
8.9402911812239392
 20
4.8050501458665851
 30
0.0
 11
8.9206384497347333
 21
4.8247028773557972
 31
0.0
  0
LINE
  5
9F9D
  8
0
 10
8.9184484440733591
 20
4.798608611769704
 30
0.0
 11
8.8590719738096713
 21
4.8579850820333972
 31
0.0
  0
LINE
  5
9F9E
  8
0
 10
8.8850560472021751
 20
4.8037167373934251
 30
0.0
 11
8.8111667960315199
 21
4.877605988564083
 31
0.0
  0
LINE
  5
9F9F
  8
0
 10
8.8431688765458532
 20
4.8173196368022868
 30
0.0
 11
8.7967850600567576
 21
4.8637034532913841
 31
0.0
  0
LINE
  5
9FA0
  8
0
 10
8.8236808985382105
 20
4.8085233435624701
 30
0.0
 11
8.7858230412975367
 21
4.8463812008031431
 31
0.0
  0
LINE
  5
9FA1
  8
0
 10
8.8018896983202204
 20
4.8020302725329982
 30
0.0
 11
8.6685416971101148
 21
4.9353782737431011
 31
0.0
  0
LINE
  5
9FA2
  8
0
 10
8.7770155759536834
 20
4.798620123652074
 30
0.0
 11
8.7298418414124246
 21
4.8457938581933311
 31
0.0
  0
LINE
  5
9FA3
  8
0
 10
8.6737380339381982
 20
4.8736133944200972
 30
0.0
 11
8.4903023524918488
 21
5.0570490758664484
 31
0.0
  0
LINE
  5
9FA4
  8
0
 10
8.6460390411884536
 20
4.8730281159223772
 30
0.0
 11
8.6295259044907873
 21
4.8895412526200399
 31
0.0
  0
LINE
  5
9FA5
  8
0
 10
9.1556698473236189
 20
4.87251419224153
 30
0.0
 11
9.0927240453099518
 21
4.9354599942551962
 31
0.0
  0
LINE
  5
9FA6
  8
0
 10
9.1809791959308154
 20
4.875489114881792
 30
0.0
 11
9.1542175940596771
 21
4.902250716752933
 31
0.0
  0
LINE
  5
9FA7
  8
0
 10
9.1928851488814018
 20
4.8918674331786711
 30
0.0
 11
9.1789119364638854
 21
4.9058406455961849
 31
0.0
  0
LINE
  5
9FA8
  8
0
 10
9.2005246438266912
 20
4.9125122094808393
 30
0.0
 11
9.1177154590096876
 21
4.9953213942978412
 31
0.0
  0
LINE
  5
9FA9
  8
0
 10
9.2186721673373668
 20
4.9226489572176302
 30
0.0
 11
9.1630450500344072
 21
4.9782760745205854
 31
0.0
  0
LINE
  5
9FAA
  8
0
 10
9.243844684972764
 20
4.925760710829695
 30
0.0
 11
9.1658920082549216
 21
5.003713387547541
 31
0.0
  0
LINE
  5
9FAB
  8
0
 10
9.2669977336123779
 20
4.9308919334375441
 30
0.0
 11
9.2352725692679964
 21
4.9626170977819219
 31
0.0
  0
LINE
  5
9FAC
  8
0
 10
9.2871742358401725
 20
4.9389997024572061
 30
0.0
 11
9.1926788393206902
 21
5.0334950989766867
 31
0.0
  0
LINE
  5
9FAD
  8
0
 10
9.3033259511492261
 20
4.9511322583956172
 30
0.0
 11
9.2215485208016474
 21
5.0329096887431932
 31
0.0
  0
LINE
  5
9FAE
  8
0
 10
9.315894591100351
 20
4.9668478896919552
 30
0.0
 11
9.2730242343483162
 21
5.0097182464439882
 31
0.0
  0
LINE
  5
9FAF
  8
0
 10
9.3245407054587801
 20
4.9864860465809882
 30
0.0
 11
9.2807450564163592
 21
5.0302816956234082
 31
0.0
  0
LINE
  5
9FB0
  8
0
 10
9.3276235744728933
 20
5.011687448814337
 30
0.0
 11
9.2446581392589202
 21
5.0946528840283083
 31
0.0
  0
LINE
  5
9FB1
  8
0
 10
9.3148189342669436
 20
5.052776360267746
 30
0.0
 11
9.3036239423897573
 21
5.0639713521449341
 31
0.0
  0
LINE
  5
9FB2
  8
0
 10
9.1161924828957197
 20
5.2796870828864311
 30
0.0
 11
9.1033775716644101
 21
5.2925019941177442
 31
0.0
  0
LINE
  5
9FB3
  8
0
 10
8.7254295731677942
 20
4.8775074986281819
 30
0.0
 11
8.7591423957057142
 21
4.9112203211661027
 31
0.0
  0
LINE
  5
9FB4
  8
0
 10
8.7295691273686096
 20
4.8533627815815361
 30
0.0
 11
8.7707979280114312
 21
4.8945915822243631
 31
0.0
  0
LINE
  5
9FB5
  8
0
 10
8.7317489295866526
 20
4.827258312552118
 30
0.0
 11
8.7661175816510344
 21
4.861626964616498
 31
0.0
  0
LINE
  5
9FB6
  8
0
 10
8.7419397195285988
 20
4.8091648312466031
 30
0.0
 11
8.7687956168610306
 21
4.8360207285790331
 31
0.0
  0
LINE
  5
9FB7
  8
0
 10
8.759705242193581
 20
4.7986460826641251
 30
0.0
 11
8.8323680190351617
 21
4.871308859505703
 31
0.0
  0
LINE
  5
9FB8
  8
0
 10
8.7891124145082191
 20
4.799768983731302
 30
0.0
 11
8.8494440659329232
 21
4.8601006351560043
 31
0.0
  0
LINE
  5
9FB9
  8
0
 10
8.827766428342926
 20
4.8101387263185451
 30
0.0
 11
8.8702596018852091
 21
4.8526318998608291
 31
0.0
  0
LINE
  5
9FBA
  8
0
 10
8.8599339368291332
 20
4.8140219635572894
 30
0.0
 11
8.8844553296948785
 21
4.838543356423032
 31
0.0
  0
LINE
  5
9FBB
  8
0
 10
8.8797784053407671
 20
4.8055821608214631
 30
0.0
 11
8.9003551791663345
 21
4.8261589346470259
 31
0.0
  0
LINE
  5
9FBC
  8
0
 10
8.9014085018784534
 20
4.7989279861116829
 30
0.0
 11
9.0153753143077378
 21
4.9128947985409681
 31
0.0
  0
LINE
  5
9FBD
  8
0
 10
8.9334947899849784
 20
4.8027300029707538
 30
0.0
 11
9.0219703778512237
 21
4.8912055908369938
 31
0.0
  0
LINE
  5
9FBE
  8
0
 10
8.9768331643703636
 20
4.817784106108669
 30
0.0
 11
9.0344677113934591
 21
4.875418653131768
 31
0.0
  0
LINE
  5
9FBF
  8
0
 10
8.9964107964876057
 20
4.80907746697845
 30
0.0
 11
9.0482452426894966
 21
4.8609119131803391
 31
0.0
  0
LINE
  5
9FC0
  8
0
 10
9.0180151380732632
 20
4.802397537316649
 30
0.0
 11
9.0607830340482902
 21
4.8451654332916751
 31
0.0
  0
LINE
  5
9FC1
  8
0
 10
9.0426381756484808
 20
4.7987363036444011
 30
0.0
 11
9.0714102962734007
 21
4.82750842426932
 31
0.0
  0
LINE
  5
9FC2
  8
0
 10
9.1460654811172102
 20
4.8738793378656782
 30
0.0
 11
9.2345940501014052
 21
4.9624079068498652
 31
0.0
  0
LINE
  5
9FC3
  8
0
 10
9.1728293001178969
 20
4.8723588856188931
 30
0.0
 11
9.1932157002847354
 21
4.8927452857857343
 31
0.0
  0
LINE
  5
9FC4
  8
0
 10
9.2571791386532016
 20
4.9284244529067349
 30
0.0
 11
9.3269932026421447
 21
4.9982385168956851
 31
0.0
  0
LINE
  5
9FC5
  8
0
 10
8.6635843026370658
 20
4.8722307705923749
 30
0.0
 11
8.703612829011794
 21
4.9122592969671039
 31
0.0
  0
LINE
  5
9FC6
  8
0
 10
8.6393382278386728
 20
4.8762689670414483
 30
0.0
 11
8.6947845491799303
 21
4.931715288382704
 31
0.0
  0
LINE
  5
9FC7
  8
0
 10
8.6281011831434977
 20
4.8933161935937362
 30
0.0
 11
8.6790958055132261
 21
4.9443108159634619
 31
0.0
  0
LINE
  5
9FC8
  8
0
 10
8.6205324357486948
 20
4.9140317174463952
 30
0.0
 11
8.6426536629490585
 21
4.936152944646758
 31
0.0
  0
LINE
  5
9FC9
  8
0
 10
8.6106143577047973
 20
4.932397910649958
 30
0.0
 11
8.6357721972939334
 21
4.9575557502390941
 31
0.0
  0
LINE
  5
9FCA
  8
0
 10
8.5890918427358933
 20
4.939159666928516
 30
0.0
 11
8.6453728855020593
 21
4.995440709694682
 31
0.0
  0
LINE
  5
9FCB
  8
0
 10
8.5667271799444151
 20
4.9450792753845043
 30
0.0
 11
8.595022197033213
 21
4.9733742924732951
 31
0.0
  0
LINE
  5
9FCC
  8
0
 10
8.5473494155233958
 20
4.9539857822109452
 30
0.0
 11
8.6297064765772529
 21
5.0363428432648014
 31
0.0
  0
LINE
  5
9FCD
  8
0
 10
8.5304407753514226
 20
4.9653614132864323
 30
0.0
 11
8.6040213627578748
 21
5.038942000692888
 31
0.0
  0
LINE
  5
9FCE
  8
0
 10
8.5157767508865376
 20
4.9789816600690084
 30
0.0
 11
8.5521325917343987
 21
5.015337500916865
 31
0.0
  0
LINE
  5
9FCF
  8
0
 10
8.5033181575985601
 20
4.9948073380284921
 30
0.0
 11
8.5301234521651281
 21
5.0216126325950601
 31
0.0
  0
LINE
  5
9FD0
  8
0
 10
8.4947403391361291
 20
5.0145137908135231
 30
0.0
 11
8.5200695250804088
 21
5.039842976757801
 31
0.0
  0
LINE
  5
9FD1
  8
0
 10
8.4893179051310241
 20
5.0373756280558801
 30
0.0
 11
8.5607407305205765
 21
5.1087984534454334
 31
0.0
  0
LINE
  5
9FD2
  8
0
 10
8.6956396979483657
 20
5.2719816921206819
 30
0.0
 11
8.7048140964673628
 21
5.2811560906396791
 31
0.0
  0
LINE
  5
9FD3
  8
0
 10
8.9836642777597042
 20
5.3273624742800632
 30
0.0
 11
8.9272662006756551
 21
5.383760551364106
 31
0.0
  0
LINE
  5
9FD4
  8
0
 10
8.8314100988412356
 20
5.3228992792711667
 30
0.0
 11
8.8985492365192176
 21
5.3900384169491451
 31
0.0
  0
LINE
  5
9FD5
  8
0
 10
8.6895651364108293
 20
5.2376228593356799
 30
0.0
 11
8.7405841587791961
 21
5.2886418817040513
 31
0.0
  0
LINE
  5
9FD6
  8
0
 10
8.6922025658542221
 20
5.2119760175316161
 30
0.0
 11
8.7184842388095767
 21
5.2382576904869724
 31
0.0
  0
LINE
  5
9FD7
  8
0
 10
8.6141945981629782
 20
5.162252321087835
 30
0.0
 11
8.6193823994882806
 21
5.1674401224131374
 31
0.0
  0
LINE
  5
9FD8
  8
0
 10
8.5773293782226272
 20
4.9417377788882044
 30
0.0
 11
8.4911958625903932
 21
5.027871294520434
 31
0.0
  0
LINE
  5
9FD9
  8
0
 10
9.2233542348591921
 20
4.922883820360191
 30
0.0
 11
9.3261174073553423
 21
5.0256469928563412
 31
0.0
  0
LINE
  5
9FDA
  8
0
 10
9.2142306531203708
 20
5.125080370166855
 30
0.0
 11
9.2102750493462722
 21
5.1290359739409563
 31
0.0
  0
LINE
  5
9FDB
  8
0
 10
9.0799455409692662
 20
5.2876497535654252
 30
0.0
 11
9.0769848243636861
 21
5.2906104701710044
 31
0.0
  0
LINE
  5
9FDC
  8
0
 10
9.1118231629561848
 20
5.2274878603310411
 30
0.0
 11
9.0544104451750815
 21
5.2849005781121452
 31
0.0
  0
LINE
  5
9FDD
  8
0
 10
8.7525205821113392
 20
5.0743041350565044
 30
0.0
 11
8.7800977988022968
 21
5.1018813517474602
 31
0.0
  0
LINE
  5
9FDE
  8
0
 10
8.7335923636306472
 20
5.083660187823269
 30
0.0
 11
8.7651846224008008
 21
5.1152524465934244
 31
0.0
  0
LINE
  5
9FDF
  8
0
 10
8.7168540948665818
 20
5.0952061903066674
 30
0.0
 11
8.7503285681199401
 21
5.1286806635600231
 31
0.0
  0
LINE
  5
9FE0
  8
0
 10
8.70116013971694
 20
5.1077965064044912
 30
0.0
 11
8.735529601127423
 21
5.1421659678149698
 31
0.0
  0
LINE
  5
9FE1
  8
0
 10
8.6861188308716724
 20
5.1210394688066803
 30
0.0
 11
8.720787689401293
 21
5.1557083273362991
 31
0.0
  0
LINE
  5
9FE2
  8
0
 10
8.6286570574929957
 20
5.1166842695975321
 30
0.0
 11
8.6033884373688512
 21
5.1419528897216731
 31
0.0
  0
LINE
  5
9FE3
  8
0
 10
8.6352684870765888
 20
5.138357111261401
 30
0.0
 11
8.612912190491091
 21
5.1607134078468979
 31
0.0
  0
LINE
  5
9FE4
  8
0
 10
8.6717244902680761
 20
5.1349293994505452
 30
0.0
 11
8.7061028037220574
 21
5.1693077129045291
 31
0.0
  0
LINE
  5
9FE5
  8
0
 10
8.6809977791973658
 20
5.1724869596273022
 30
0.0
 11
8.7134977661748856
 21
5.2049869466048211
 31
0.0
  0
LINE
  5
9FE6
  8
0
 10
8.6126801579244407
 20
5.104376897918625
 30
0.0
 11
8.6016493887083012
 21
5.115407667134761
 31
0.0
  0
LINE
  5
9FE7
  8
0
 10
8.5843621402533579
 20
5.104410644342245
 30
0.0
 11
8.5768229353028431
 21
5.1119498492927571
 31
0.0
  0
LINE
  5
9FE8
  8
0
 10
8.6129057254064225
 20
5.1043949058363562
 30
0.0
 11
8.6295871378239131
 21
5.121076318253845
 31
0.0
  0
LINE
  5
9FE9
  8
0
 10
8.5623454801744092
 20
5.0981430331737281
 30
0.0
 11
8.5537700393028508
 21
5.10671847404529
 31
0.0
  0
LINE
  5
9FEA
  8
0
 10
8.5458334506831068
 20
5.0863707914175711
 30
0.0
 11
8.5340125437658561
 21
5.098191698334821
 31
0.0
  0
LINE
  5
9FEB
  8
0
 10
8.5312846453544964
 20
5.0726353254987231
 30
0.0
 11
8.5169032836900591
 21
5.087016687163155
 31
0.0
  0
LINE
  5
9FEC
  8
0
 10
8.5846459542121565
 20
5.1044194058895469
 30
0.0
 11
8.6414117856423101
 21
5.1611852373197031
 31
0.0
  0
LINE
  5
9FED
  8
0
 10
8.5219829216900411
 20
5.0536527779157172
 30
0.0
 11
8.5021699279550695
 21
5.0734657716506923
 31
0.0
  0
LINE
  5
9FEE
  8
0
 10
8.6436678829268452
 20
5.0168206304213001
 30
0.0
 11
8.6218929790674412
 21
5.0385955342807041
 31
0.0
  0
LINE
  5
9FEF
  8
0
 10
8.6447200033156566
 20
4.9874842387850231
 30
0.0
 11
8.5935258795410618
 21
5.0386783625596161
 31
0.0
  0
LINE
  5
9FF0
  8
0
 10
8.6681137698922832
 20
4.989897322837443
 30
0.0
 11
8.6877719520188776
 21
5.009555504964041
 31
0.0
  0
LINE
  5
9FF1
  8
0
 10
8.6390069320511653
 20
4.9649130388020524
 30
0.0
 11
8.5725067745224965
 21
5.031413196330722
 31
0.0
  0
LINE
  5
9FF2
  8
0
 10
8.6885121419073847
 20
4.9820114236050843
 30
0.0
 11
8.7125711329823012
 21
5.006070414679999
 31
0.0
  0
LINE
  5
9FF3
  8
0
 10
8.6794034586774576
 20
4.981085054670686
 30
0.0
 11
8.6686869647053744
 21
4.9918015486427691
 31
0.0
  0
LINE
  5
9FF4
  8
0
 10
8.7341369268780031
 20
4.971067666080776
 30
0.0
 11
8.7543483118279166
 21
4.991279051030693
 31
0.0
  0
LINE
  5
9FF5
  8
0
 10
8.7135864930361127
 20
4.9788015034863511
 30
0.0
 11
8.7347281027235741
 21
4.9999431131738099
 31
0.0
  0
LINE
  5
9FF6
  8
0
 10
8.7088661338087068
 20
4.979906650786897
 30
0.0
 11
8.6789904890955842
 21
5.0097822955000204
 31
0.0
  0
LINE
  5
9FF7
  8
0
 10
8.7516425331274892
 20
4.9602890010828009
 30
0.0
 11
8.7716510012161475
 21
4.9802974691714601
 31
0.0
  0
LINE
  5
9FF8
  8
0
 10
8.7670994184904263
 20
4.947461615198276
 30
0.0
 11
8.78685803293431
 21
4.9672202296421633
 31
0.0
  0
LINE
  5
9FF9
  8
0
 10
8.7784734376251183
 20
4.930551363085506
 30
0.0
 11
8.8000376134037026
 21
4.9521155388640921
 31
0.0
  0
LINE
  5
9FFA
  8
0
 10
8.7834395845573265
 20
4.9072332387702531
 30
0.0
 11
8.8110229795886053
 21
4.93481663380153
 31
0.0
  0
LINE
  5
9FFB
  8
0
 10
8.7706042234536437
 20
4.8898842898944972
 30
0.0
 11
8.7362478925848936
 21
4.9242406207632481
 31
0.0
  0
LINE
  5
9FFC
  8
0
 10
8.7879607050678423
 20
4.8834700880333104
 30
0.0
 11
8.8063077490468196
 21
4.9018171320122841
 31
0.0
  0
LINE
  5
9FFD
  8
0
 10
8.7610622940528184
 20
4.8711419480478551
 30
0.0
 11
8.7197094919975964
 21
4.9124947501030789
 31
0.0
  0
LINE
  5
9FFE
  8
0
 10
8.807530639961886
 20
4.9095264158811771
 30
0.0
 11
8.7105387981185451
 21
5.006518257724518
 31
0.0
  0
LINE
  5
9FFF
  8
0
 10
8.8111113447880136
 20
4.9342299823025151
 30
0.0
 11
8.7537354546030262
 21
4.9916058724874972
 31
0.0
  0
LINE
  5
A000
  8
0
 10
8.8905698543584997
 20
4.9860792373239651
 30
0.0
 11
8.9150843535933184
 21
5.010593736558782
 31
0.0
  0
LINE
  5
A001
  8
0
 10
8.6412872991300969
 20
5.1606225704553532
 30
0.0
 11
8.6282719687905018
 21
5.17363790079495
 31
0.0
  0
LINE
  5
A002
  8
0
 10
8.7580195864523311
 20
5.0721745543805827
 30
0.0
 11
8.6772390460896283
 21
5.1529550947432892
 31
0.0
  0
LINE
  5
A003
  8
0
 10
8.9097788087754246
 20
5.0335724629883503
 30
0.0
 11
8.9501560146633832
 21
5.0739496688763124
 31
0.0
  0
LINE
  5
A004
  8
0
 10
8.8946002599614431
 20
5.0466781854218334
 30
0.0
 11
8.9126518099425613
 21
5.064729735402949
 31
0.0
  0
LINE
  5
A005
  8
0
 10
8.8626938225857721
 20
5.0430560192936227
 30
0.0
 11
8.8878535661798725
 21
5.0682157628877187
 31
0.0
  0
LINE
  5
A006
  8
0
 10
8.8155706441727375
 20
5.0242171121280492
 30
0.0
 11
8.8388514271583212
 21
5.0474978951136391
 31
0.0
  0
LINE
  5
A007
  8
0
 10
8.8031143996475105
 20
5.040045138850286
 30
0.0
 11
8.8251804513920593
 21
5.0621111905948331
 31
0.0
  0
LINE
  5
A008
  8
0
 10
8.7928446218437522
 20
5.0580596322939924
 30
0.0
 11
8.8100956713997292
 21
5.0753106818499667
 31
0.0
  0
LINE
  5
A009
  8
0
 10
8.7738610899925256
 20
5.067360371690226
 30
0.0
 11
8.7950681349755442
 21
5.0885674166732411
 31
0.0
  0
LINE
  5
A00A
  8
0
 10
8.7904853552877764
 20
5.168837450727862
 30
0.0
 11
8.8433234464443427
 21
5.2216755418844274
 31
0.0
  0
LINE
  5
A00B
  8
0
 10
8.7129205727933208
 20
5.2021263817819747
 30
0.0
 11
8.6920407110442959
 21
5.2230062435310041
 31
0.0
  0
LINE
  5
A00C
  8
0
 10
8.7789395968424344
 20
5.1855759635299874
 30
0.0
 11
8.8023186005344591
 21
5.2089549672220112
 31
0.0
  0
LINE
  5
A00D
  8
0
 10
8.7036868884568932
 20
5.1830757948709421
 30
0.0
 11
8.6899226257114108
 21
5.1968400576164271
 31
0.0
  0
LINE
  5
A00E
  8
0
 10
8.7685306692311702
 20
5.2034513071661781
 30
0.0
 11
8.7887845000421621
 21
5.2237051379771691
 31
0.0
  0
LINE
  5
A00F
  8
0
 10
8.7711242806463972
 20
5.2343291898288671
 30
0.0
 11
8.7956305659216536
 21
5.2588354751041271
 31
0.0
  0
LINE
  5
A010
  8
0
 10
8.7205781802621551
 20
5.2510373168080671
 30
0.0
 11
8.6972856296304197
 21
5.274329867439806
 31
0.0
  0
LINE
  5
A011
  8
0
 10
8.716671670277476
 20
5.2266595555452851
 30
0.0
 11
8.6903372965615038
 21
5.2529939292612564
 31
0.0
  0
LINE
  5
A012
  8
0
 10
8.7581289502101392
 20
5.2496181306400711
 30
0.0
 11
8.7738241002316872
 21
5.2653132806616201
 31
0.0
  0
LINE
  5
A013
  8
0
 10
8.7629449339834409
 20
5.2827183856608393
 30
0.0
 11
8.7652024950736536
 21
5.2849759467510484
 31
0.0
  0
LINE
  5
A014
  8
0
 10
8.7274913829891752
 20
5.2724083853285091
 30
0.0
 11
8.7137483544757721
 21
5.2861514138419112
 31
0.0
  0
LINE
  5
A015
  8
0
 10
8.7435381479740215
 20
5.2846458915911283
 30
0.0
 11
8.7392835517527558
 21
5.2889004878123931
 31
0.0
  0
LINE
  5
A016
  8
0
 10
8.7760323339830801
 20
5.280435976829521
 30
0.0
 11
8.7718034037243982
 21
5.2846649070882084
 31
0.0
  0
LINE
  5
A017
  8
0
 10
8.7877167284304356
 20
5.2792059088603667
 30
0.0
 11
8.7935406670583856
 21
5.2850298474883193
 31
0.0
  0
LINE
  5
A018
  8
0
 10
8.8161102637058857
 20
5.2793151728883538
 30
0.0
 11
8.8616339604997592
 21
5.3248388696822291
 31
0.0
  0
LINE
  5
A019
  8
0
 10
8.8059780733375987
 20
5.2787745087224751
 30
0.0
 11
8.7984296775389144
 21
5.2863229045211551
 31
0.0
  0
LINE
  5
A01A
  8
0
 10
8.9120256284702943
 20
5.3469462664053031
 30
0.0
 11
8.9417468541666096
 21
5.3766674921016149
 31
0.0
  0
LINE
  5
A01B
  8
0
 10
8.9080513572460376
 20
5.314687723933587
 30
0.0
 11
8.9179553915156742
 21
5.3245917582032272
 31
0.0
  0
LINE
  5
A01C
  8
0
 10
8.8645788571902226
 20
5.3333108098597011
 30
0.0
 11
8.8445587078106183
 21
5.3533309592393001
 31
0.0
  0
LINE
  5
A01D
  8
0
 10
8.8738055221233374
 20
5.352368416174043
 30
0.0
 11
8.8548476782196381
 21
5.3713262600777432
 31
0.0
  0
LINE
  5
A01E
  8
0
 10
8.9014540066172056
 20
5.3646589157996729
 30
0.0
 11
8.9218694099562033
 21
5.3850743191386732
 31
0.0
  0
LINE
  5
A01F
  8
0
 10
8.8861594772200565
 20
5.368298732324785
 30
0.0
 11
8.8690540449758331
 21
5.3854041645690112
 31
0.0
  0
LINE
  5
A020
  8
0
 10
8.8585547338547901
 20
5.3110506619476681
 30
0.0
 11
8.8365872379127222
 21
5.3330181578897351
 31
0.0
  0
LINE
  5
A021
  8
0
 10
8.9053525081343192
 20
5.2837046035744066
 30
0.0
 11
8.9298671436232109
 21
5.3082192390632947
 31
0.0
  0
LINE
  5
A022
  8
0
 10
8.8479485054880112
 20
5.2933726190669841
 30
0.0
 11
8.8265509812239031
 21
5.3147701433310921
 31
0.0
  0
LINE
  5
A023
  8
0
 10
8.8311063573524695
 20
5.281930495955061
 30
0.0
 11
8.8147636479130487
 21
5.298273205394481
 31
0.0
  0
LINE
  5
A024
  8
0
 10
8.8334673784327542
 20
5.2512852036273134
 30
0.0
 11
8.8207043786611656
 21
5.264048203398902
 31
0.0
  0
LINE
  5
A025
  8
0
 10
8.906378919249887
 20
5.2564467434425106
 30
0.0
 11
8.9314972687731942
 21
5.2815650929658231
 31
0.0
  0
LINE
  5
A026
  8
0
 10
8.9078840194237774
 20
5.2296675723689372
 30
0.0
 11
8.9328283226214609
 21
5.2546118755666242
 31
0.0
  0
LINE
  5
A027
  8
0
 10
8.8450225642130889
 20
5.2114457465995132
 30
0.0
 11
8.7981020661078269
 21
5.2583662447047823
 31
0.0
  0
LINE
  5
A028
  8
0
 10
8.9098543138378243
 20
5.203353595535523
 30
0.0
 11
8.931185423498734
 21
5.2246847051964354
 31
0.0
  0
LINE
  5
A029
  8
0
 10
8.8531176656883321
 20
5.175066373876815
 30
0.0
 11
8.803898854055582
 21
5.224285185509566
 31
0.0
  0
LINE
  5
A02A
  8
0
 10
8.9122681549359601
 20
5.1774831653862012
 30
0.0
 11
8.9255464294326021
 21
5.190761439882837
 31
0.0
  0
LINE
  5
A02B
  8
0
 10
8.9151059371194492
 20
5.152036676322223
 30
0.0
 11
8.9378570113392062
 21
5.1747877505419844
 31
0.0
  0
LINE
  5
A02C
  8
0
 10
8.8615027438101173
 20
5.1383970245075661
 30
0.0
 11
8.7715497194328371
 21
5.228350048884848
 31
0.0
  0
LINE
  5
A02D
  8
0
 10
8.9174581191692912
 20
5.126104587124602
 30
0.0
 11
8.9730726195048653
 21
5.1817190874601771
 31
0.0
  0
LINE
  5
A02E
  8
0
 10
8.9228028212827013
 20
5.103165017990551
 30
0.0
 11
8.9673645206268198
 21
5.1477267173346712
 31
0.0
  0
LINE
  5
A02F
  8
0
 10
8.8694812895398805
 20
5.1021342075303426
 30
0.0
 11
8.768748369956965
 21
5.2028671271132572
 31
0.0
  0
LINE
  5
A030
  8
0
 10
8.8335738437415863
 20
5.0249045683387861
 30
0.0
 11
8.6936226260645881
 21
5.1648557860157851
 31
0.0
  0
LINE
  5
A031
  8
0
 10
8.8716387783714801
 20
5.0434081762038172
 30
0.0
 11
8.8600306827167454
 21
5.0550162718585501
 31
0.0
  0
LINE
  5
A032
  8
0
 10
8.8386643125676052
 20
5.0480983707602309
 30
0.0
 11
8.8210336474442723
 21
5.0657290358835692
 31
0.0
  0
LINE
  5
A033
  8
0
 10
8.9282286945457585
 20
5.0237380775112221
 30
0.0
 11
8.9620089780677112
 21
5.0575183610331749
 31
0.0
  0
LINE
  5
A034
  8
0
 10
8.9096471215433812
 20
5.0336841042793772
 30
0.0
 11
8.8390301430040381
 21
5.1043010828187221
 31
0.0
  0
LINE
  5
A035
  8
0
 10
8.9440739672139458
 20
5.01129907893195
 30
0.0
 11
8.9819513833968418
 21
5.049176495114847
 31
0.0
  0
LINE
  5
A036
  8
0
 10
8.8813486442439
 20
4.9771297678364732
 30
0.0
 11
8.8737298644682383
 21
4.984748547612134
 31
0.0
  0
LINE
  5
A037
  8
0
 10
8.9021815104025652
 20
4.9694066221205713
 30
0.0
 11
8.9345222769935848
 21
5.0017473887115891
 31
0.0
  0
LINE
  5
A038
  8
0
 10
8.912080604181984
 20
4.951021444652528
 30
0.0
 11
8.9508240536664854
 21
4.989764894137025
 31
0.0
  0
LINE
  5
A039
  8
0
 10
8.9281204967885923
 20
4.938777066011669
 30
0.0
 11
8.9976571465488995
 21
5.008313715771977
 31
0.0
  0
LINE
  5
A03A
  8
0
 10
8.9330041683026025
 20
4.915376466278218
 30
0.0
 11
8.9351799772664737
 21
4.917552275242091
 31
0.0
  0
LINE
  5
A03B
  8
0
 10
8.9266867215503645
 20
4.8807747482785171
 30
0.0
 11
9.0333337808991327
 21
4.9874218076272872
 31
0.0
  0
LINE
  5
A03C
  8
0
 10
8.9237226398939704
 20
4.8495263953746619
 30
0.0
 11
9.0347801675207364
 21
4.9605839230014306
 31
0.0
  0
LINE
  5
A03D
  8
0
 10
8.8024695916666911
 20
5.1525374158593129
 30
0.0
 11
8.819640698998457
 21
5.1697085231910789
 31
0.0
  0
LINE
  5
A03E
  8
0
 10
8.8148863047729797
 20
5.1366698577181431
 30
0.0
 11
8.8531480650284173
 21
5.174931617973578
 31
0.0
  0
LINE
  5
A03F
  8
0
 10
8.827730774765131
 20
5.1212300564628306
 30
0.0
 11
8.8583909193107768
 21
5.1518902010084791
 31
0.0
  0
LINE
  5
A040
  8
0
 10
8.8390505874229444
 20
5.104265597873181
 30
0.0
 11
8.8636404849610901
 21
5.1288554954113321
 31
0.0
  0
LINE
  5
A041
  8
0
 10
8.8496860591105921
 20
5.086616798313365
 30
0.0
 11
8.8687193023253972
 21
5.1056500415281763
 31
0.0
  0
LINE
  5
A042
  8
0
 10
8.8609023450922084
 20
5.069548813047521
 30
0.0
 11
8.8737273121776976
 21
5.0823737801330111
 31
0.0
  0
LINE
  5
A043
  8
0
 10
9.0129092332685126
 20
5.1367028874814382
 30
0.0
 11
9.1109786317099068
 21
5.2347722859228361
 31
0.0
  0
LINE
  5
A044
  8
0
 10
8.9520969127506405
 20
5.104371398061966
 30
0.0
 11
8.9166300935810892
 21
5.13983821723152
 31
0.0
  0
LINE
  5
A045
  8
0
 10
8.9581447247618726
 20
5.1266078572982012
 30
0.0
 11
8.912851185423996
 21
5.1719013966360734
 31
0.0
  0
LINE
  5
A046
  8
0
 10
9.0380434911350278
 20
5.190121416595419
 30
0.0
 11
9.1049104867355002
 21
5.2569884121958941
 31
0.0
  0
LINE
  5
A047
  8
0
 10
8.9668952124936006
 20
5.1461416408139291
 30
0.0
 11
8.9383627383529696
 21
5.174674114954561
 31
0.0
  0
LINE
  5
A048
  8
0
 10
8.9705865088446366
 20
5.1707346157103586
 30
0.0
 11
8.9475153068383335
 21
5.1938058177166591
 31
0.0
  0
LINE
  5
A049
  8
0
 10
9.0519949928508723
 20
5.2323571895587211
 30
0.0
 11
9.0885439467451903
 21
5.2689061434530391
 31
0.0
  0
LINE
  5
A04A
  8
0
 10
8.9775220797346567
 20
5.192083316067805
 30
0.0
 11
8.9527818790228828
 21
5.2168235167795753
 31
0.0
  0
LINE
  5
A04B
  8
0
 10
8.9860175828753857
 20
5.2118720841745363
 30
0.0
 11
8.9555001315064828
 21
5.24238953554344
 31
0.0
  0
LINE
  5
A04C
  8
0
 10
9.0268905266376471
 20
5.2355369945929571
 30
0.0
 11
9.0848495688849091
 21
5.2934960368402191
 31
0.0
  0
LINE
  5
A04D
  8
0
 10
8.9892813513693568
 20
5.2368925869280227
 30
0.0
 11
8.9539921042033015
 21
5.2721818340940789
 31
0.0
  0
LINE
  5
A04E
  8
0
 10
9.02126408757122
 20
5.2331941219736251
 30
0.0
 11
9.0027800125803346
 21
5.2516781969645123
 31
0.0
  0
LINE
  5
A04F
  8
0
 10
8.9291947151048561
 20
5.2121264094501374
 30
0.0
 11
8.9076254370592132
 21
5.2336956874957821
 31
0.0
  0
LINE
  5
A050
  8
0
 10
8.9530158980461234
 20
5.2182309084963601
 30
0.0
 11
8.9921455395997736
 21
5.2573605500500111
 31
0.0
  0
LINE
  5
A051
  8
0
 10
8.9321630813779578
 20
5.237442314424503
 30
0.0
 11
8.9060644979315224
 21
5.263540897870933
 31
0.0
  0
LINE
  5
A052
  8
0
 10
8.9553517940624676
 20
5.2488510757601681
 30
0.0
 11
8.9789563419422151
 21
5.2724556236399192
 31
0.0
  0
LINE
  5
A053
  8
0
 10
8.9324326745222749
 20
5.2654569925276444
 30
0.0
 11
8.9055935839996323
 21
5.292296083050287
 31
0.0
  0
LINE
  5
A054
  8
0
 10
8.9537650314737842
 20
5.2755485844189449
 30
0.0
 11
8.9719853993140113
 21
5.2937689522591711
 31
0.0
  0
LINE
  5
A055
  8
0
 10
8.9306457041795682
 20
5.2955282341178131
 30
0.0
 11
8.9087367468192742
 21
5.3174371914781
 31
0.0
  0
LINE
  5
A056
  8
0
 10
8.9506869362460275
 20
5.3007547604386511
 30
0.0
 11
8.9824132901719747
 21
5.3324811143645938
 31
0.0
  0
LINE
  5
A057
  8
0
 10
8.9253763888088216
 20
5.1876604644987081
 30
0.0
 11
8.9098700452237392
 21
5.2031668080837932
 31
0.0
  0
LINE
  5
A058
  8
0
 10
8.9892199949803775
 20
5.0847293779458411
 30
0.0
 11
9.11379350410302
 21
5.2093028870684872
 31
0.0
  0
LINE
  5
A059
  8
0
 10
8.9989295281858777
 20
5.066154639903881
 30
0.0
 11
9.1178461003560631
 21
5.1850712120740701
 31
0.0
  0
LINE
  5
A05A
  8
0
 10
9.1153260955003965
 20
5.1542669359709423
 30
0.0
 11
9.1263487377461594
 21
5.1652895782167052
 31
0.0
  0
LINE
  5
A05B
  8
0
 10
8.9854060988253632
 20
5.0427779407397884
 30
0.0
 11
8.9698098238188742
 21
5.0583742157462712
 31
0.0
  0
LINE
  5
A05C
  8
0
 10
9.0832065765158472
 20
5.0938631457389283
 30
0.0
 11
9.0856013994289508
 21
5.0962579686520311
 31
0.0
  0
LINE
  5
A05D
  8
0
 10
9.03950012751773
 20
5.0218724254933491
 30
0.0
 11
9.0994400369444541
 21
5.0818123349200732
 31
0.0
  0
LINE
  5
A05E
  8
0
 10
9.0162109469278242
 20
5.0685416351322461
 30
0.0
 11
8.9911888266989468
 21
5.0935637553611199
 31
0.0
  0
LINE
  5
A05F
  8
0
 10
9.0251057258129759
 20
5.0879311274945511
 30
0.0
 11
9.001324707147015
 21
5.1117121461605164
 31
0.0
  0
LINE
  5
A060
  8
0
 10
9.0374884983456738
 20
5.1038326262093241
 30
0.0
 11
9.0103885612408501
 21
5.130932563314146
 31
0.0
  0
LINE
  5
A061
  8
0
 10
9.0538473449743702
 20
5.1157580508280871
 30
0.0
 11
9.0202383824111756
 21
5.1493670133912843
 31
0.0
  0
LINE
  5
A062
  8
0
 10
9.0696572828573636
 20
5.1282323841925539
 30
0.0
 11
9.0307491813037704
 21
5.167140485746148
 31
0.0
  0
LINE
  5
A063
  8
0
 10
9.0838920820997995
 20
5.1422818561975747
 30
0.0
 11
9.0377635842785828
 21
5.188410354018794
 31
0.0
  0
LINE
  5
A064
  8
0
 10
9.1022945728781508
 20
5.1521636366666943
 30
0.0
 11
9.0754422520586449
 21
5.179015957486202
 31
0.0
  0
LINE
  5
A065
  8
0
 10
9.1308053098707642
 20
5.0953686284266171
 30
0.0
 11
9.1090456314411554
 21
5.117128306856217
 31
0.0
  0
LINE
  5
A066
  8
0
 10
9.1120070334212961
 20
5.057598362381162
 30
0.0
 11
9.0905826850730396
 21
5.0790227107294212
 31
0.0
  0
LINE
  5
A067
  8
0
 10
9.1829054287962322
 20
5.0804249130294652
 30
0.0
 11
9.2081754667064182
 21
5.1056949509396574
 31
0.0
  0
LINE
  5
A068
  8
0
 10
9.0778878014265274
 20
5.0351490518810014
 30
0.0
 11
9.0551776572470342
 21
5.0578591960604911
 31
0.0
  0
LINE
  5
A069
  8
0
 10
9.0605329926572562
 20
5.0242195894028141
 30
0.0
 11
9.0393454355681513
 21
5.045407146491919
 31
0.0
  0
LINE
  5
A06A
  8
0
 10
9.1629108948660196
 20
5.0887146503467111
 30
0.0
 11
9.2008730020411758
 21
5.1266767575218699
 31
0.0
  0
LINE
  5
A06B
  8
0
 10
9.0346016306231682
 20
4.993582408941978
 30
0.0
 11
9.0224687852521122
 21
5.0057152543130332
 31
0.0
  0
LINE
  5
A06C
  8
0
 10
9.0479249065300404
 20
5.0085434042825732
 30
0.0
 11
9.0400286435143435
 21
5.0164396672982674
 31
0.0
  0
LINE
  5
A06D
  8
0
 10
9.0946630759047711
 20
5.0466580486502224
 30
0.0
 11
9.0716759358810268
 21
5.0696451886739684
 31
0.0
  0
LINE
  5
A06E
  8
0
 10
9.1198179434853834
 20
5.0780717235645341
 30
0.0
 11
9.1187957641994632
 21
5.079093902850456
 31
0.0
  0
LINE
  5
A06F
  8
0
 10
9.1437717097936009
 20
5.0978597365217571
 30
0.0
 11
9.1921426197324028
 21
5.1462306464605581
 31
0.0
  0
LINE
  5
A070
  8
0
 10
9.2036205219882401
 20
5.0728557349740111
 30
0.0
 11
9.224959717005996
 21
5.094194929991767
 31
0.0
  0
LINE
  5
A071
  8
0
 10
9.1653200360441431
 20
5.0891381735006931
 30
0.0
 11
9.1578309173844552
 21
5.096627292160381
 31
0.0
  0
LINE
  5
A072
  8
0
 10
9.2111619584342819
 20
5.0715805223580244
 30
0.0
 11
9.0272234587410374
 21
5.2555190220512644
 31
0.0
  0
LINE
  5
A073
  8
0
 10
9.2512863818647642
 20
5.0639530523556111
 30
0.0
 11
9.2714864290543222
 21
5.0841530995451691
 31
0.0
  0
LINE
  5
A074
  8
0
 10
9.2277679920745062
 20
5.0687189338128142
 30
0.0
 11
9.2514949480638222
 21
5.0924458898021321
 31
0.0
  0
LINE
  5
A075
  8
0
 10
9.2684028730296557
 20
5.052785272273038
 30
0.0
 11
9.2895890480355714
 21
5.0739714472789581
 31
0.0
  0
LINE
  5
A076
  8
0
 10
9.2454276486213676
 20
5.0655991034184034
 30
0.0
 11
9.1534500152023437
 21
5.1575767368374281
 31
0.0
  0
LINE
  5
A077
  8
0
 10
9.2824944197864472
 20
5.0385925477823692
 30
0.0
 11
9.3059757868452557
 21
5.0620739148411804
 31
0.0
  0
LINE
  5
A078
  8
0
 10
9.0370016996430866
 20
4.9345211838763161
 30
0.0
 11
9.0820684469134232
 21
4.9795879311466571
 31
0.0
  0
LINE
  5
A079
  8
0
 10
9.0176794254026085
 20
4.925651800420157
 30
0.0
 11
8.9548755643465086
 21
4.9884556614762552
 31
0.0
  0
LINE
  5
A07A
  8
0
 10
9.0614205044025304
 20
4.9306557173883032
 30
0.0
 11
9.1273702839393849
 21
4.996605496925155
 31
0.0
  0
LINE
  5
A07B
  8
0
 10
9.0591568032793894
 20
4.9001077450176931
 30
0.0
 11
9.0689564550066155
 21
4.9099073967449218
 31
0.0
  0
LINE
  5
A07C
  8
0
 10
9.062974370148515
 20
4.8756410406393531
 30
0.0
 11
9.1221735029304511
 21
4.9348401734212963
 31
0.0
  0
LINE
  5
A07D
  8
0
 10
9.0185909188309701
 20
4.8964560357443281
 30
0.0
 11
8.9057699262238756
 21
5.0092770283514252
 31
0.0
  0
LINE
  5
A07E
  8
0
 10
9.0717150159487332
 20
4.8560974151921181
 30
0.0
 11
9.1293830678347021
 21
4.913765467078087
 31
0.0
  0
LINE
  5
A07F
  8
0
 10
8.9730978216406161
 20
5.3096446591516884
 30
0.0
 11
8.8871932459960625
 21
5.395549234796241
 31
0.0
  0
LINE
  5
A080
  8
0
 10
8.9998113455180135
 20
5.2933106272157122
 30
0.0
 11
9.0026084584778712
 21
5.296107740175569
 31
0.0
  0
LINE
  5
A081
  8
0
 10
9.0151917656939116
 20
5.2804067761441491
 30
0.0
 11
9.0200136510173579
 21
5.2852286614675963
 31
0.0
  0
LINE
  5
A082
  8
0
 10
9.0274097027470113
 20
5.264340441949785
 30
0.0
 11
9.0475493644805951
 21
5.284480103683368
 31
0.0
  0
LINE
  5
A083
  8
0
 10
9.1037930698275709
 20
5.2841552665354223
 30
0.0
 11
9.1097453642160886
 21
5.2901075609239401
 31
0.0
  0
LINE
  5
A084
  8
0
 10
9.1151191879864086
 20
5.1959075640533614
 30
0.0
 11
9.026683961598124
 21
5.2843427904416389
 31
0.0
  0
LINE
  5
A085
  8
0
 10
9.1949611087683021
 20
5.0029285582816172
 30
0.0
 11
9.1746322650817742
 21
5.0232574019681451
 31
0.0
  0
LINE
  5
A086
  8
0
 10
9.2220149551740942
 20
4.9781130831700171
 30
0.0
 11
9.2594701147704903
 21
5.0155682427664141
 31
0.0
  0
LINE
  5
A087
  8
0
 10
9.2092238118806726
 20
4.9936062111240549
 30
0.0
 11
9.2413636418089791
 21
5.0257460410523631
 31
0.0
  0
LINE
  5
A088
  8
0
 10
9.1566375970612182
 20
4.9410199963046031
 30
0.0
 11
9.184152626164737
 21
4.9685350254081211
 31
0.0
  0
LINE
  5
A089
  8
0
 10
9.1200482438915262
 20
4.9647043381685441
 30
0.0
 11
9.0972055942462546
 21
4.987546987813813
 31
0.0
  0
LINE
  5
A08A
  8
0
 10
9.1415773005180139
 20
4.954243971008859
 30
0.0
 11
9.1652867020791433
 21
4.9779533725699903
 31
0.0
  0
LINE
  5
A08B
  8
0
 10
9.1241761083898876
 20
4.965127050128193
 30
0.0
 11
9.1923763385232409
 21
5.0333272802615481
 31
0.0
  0
LINE
  5
A08C
  8
0
 10
9.1737935682406224
 20
4.9298916962365444
 30
0.0
 11
9.1964145125874115
 21
4.9525126405833362
 31
0.0
  0
LINE
  5
A08D
  8
0
 10
9.1232537813383541
 20
4.9332145294742524
 30
0.0
 11
9.111901521354504
 21
4.944566789458098
 31
0.0
  0
LINE
  5
A08E
  8
0
 10
8.6004601832714496
 20
4.9788122787115361
 30
0.0
 11
8.6425195155893881
 21
5.020871611029472
 31
0.0
  0
LINE
  5
A08F
  8
0
 10
8.5932295362046212
 20
4.982406163401131
 30
0.0
 11
8.5582217588754101
 21
5.0174139407303482
 31
0.0
  0
LINE
  5
A090
  8
0
 10
8.6856832778067368
 20
5.1727951342736311
 30
0.0
 11
8.6788218490332536
 21
5.1796565630471232
 31
0.0
  0
LINE
  5
A091
  8
0
 10
8.6545496560876742
 20
5.1756444847452432
 30
0.0
 11
8.6496564237506863
 21
5.1805377170822311
 31
0.0
  0
LINE
  5
A092
  8
0
 10
8.6563663670581086
 20
5.176139818735499
 30
0.0
 11
8.6611658223750947
 21
5.180939274052486
 31
0.0
  0
LINE
  5
A093
  8
0
 10
8.8235211721335052
 20
5.173588996326135
 30
0.0
 11
8.8479783604858184
 21
5.1980461846784412
 31
0.0
  0
LINE
  5
A094
  8
0
 10
8.9171498610582312
 20
5.3373083484866122
 30
0.0
 11
8.9121452663517342
 21
5.34231294319311
 31
0.0
  0
LINE
  5
A095
  8
0
 10
8.924584619899365
 20
5.3312209865869109
 30
0.0
 11
8.9640369529644968
 21
5.3706733196520471
 31
0.0
  0
LINE
  5
A096
  8
0
 10
8.9764566782701127
 20
5.2780015312747262
 30
0.0
 11
8.9496798136049769
 21
5.304778395939862
 31
0.0
  0
LINE
  5
A097
  8
0
 10
8.9380737811325623
 20
5.3163844284122792
 30
0.0
 11
8.9254374997275647
 21
5.3290207098172786
 31
0.0
  0
LINE
  5
A098
  8
0
 10
8.9379476003404807
 20
5.3162996957805673
 30
0.0
 11
8.9747027620290112
 21
5.353054857469095
 31
0.0
  0
LINE
  5
A099
  8
0
 10
8.9412517825287701
 20
5.178182521731542
 30
0.0
 11
8.9887897184319581
 21
5.2257204576347309
 31
0.0
  0
LINE
  5
A09A
  8
0
 10
8.9976667379400421
 20
5.234597477142815
 30
0.0
 11
9.0121950149765091
 21
5.2491257541792811
 31
0.0
  0
LINE
  5
A09B
  8
0
 10
9.0690841500991102
 20
5.185374059445734
 30
0.0
 11
9.0403928865971999
 21
5.214065322947639
 31
0.0
  0
LINE
  5
A09C
  8
0
 10
9.2146517296177315
 20
5.1121712138509681
 30
0.0
 11
9.2178588350160169
 21
5.115378319249249
 31
0.0
  0
LINE
  5
A09D
  8
0
 10
9.1087756451462081
 20
5.0891140219037121
 30
0.0
 11
9.0941368748490881
 21
5.1037527922008321
 31
0.0
  0
LINE
  5
A09E
  8
0
 10
9.1059927818845843
 20
5.0883650798602051
 30
0.0
 11
9.1739441906348382
 21
5.1563164886104564
 31
0.0
  0
LINE
  5
A09F
  8
0
 10
9.0932081434337686
 20
4.934159085172074
 30
0.0
 11
9.1065922488830644
 21
4.947543190621368
 31
0.0
  0
LINE
  5
A0A0
  8
0
 10
9.0874285088773892
 20
4.9407555306877571
 30
0.0
 11
9.0631357379691764
 21
4.9650483015959699
 31
0.0
  0
LINE
  5
A0A1
  8
0
 10
9.0665091731395862
 20
4.9333905951780972
 30
0.0
 11
9.0477491918261528
 21
4.9521505764915341
 31
0.0
  0
LINE
  5
A0A2
  8
0
 10
9.0741559139598547
 20
4.9151068556981601
 30
0.0
 11
9.0862366981669567
 21
4.9271876399052621
 31
0.0
  0
LINE
  5
A0A3
  8
0
 10
9.1896514755141432
 20
4.9740338747575281
 30
0.0
 11
9.1981972793218212
 21
4.982579678565207
 31
0.0
  0
LINE
  5
A0A4
  8
0
 10
9.2023692313822352
 20
4.9584673593781581
 30
0.0
 11
9.2112643438968487
 21
4.9673624718927689
 31
0.0
  0
LINE
  5
A0A5
  8
0
 10
9.1572640577469944
 20
4.9840570668079982
 30
0.0
 11
9.1425872436933222
 21
4.998733880861673
 31
0.0
  0
LINE
  5
A0A6
  8
0
 10
9.1676074288414249
 20
4.9802740993322701
 30
0.0
 11
9.2203448417627101
 21
5.0330115122535561
 31
0.0
  0
LINE
  5
A0A7
  8
0
 10
9.0345217997914151
 20
4.9653779685262673
 30
0.0
 11
8.9270634776183826
 21
5.072836290699299
 31
0.0
  0
LINE
  5
A0A8
  8
0
 10
9.0288995784606598
 20
4.9427159186095651
 30
0.0
 11
8.9075433076979849
 21
5.06407218937224
 31
0.0
  0
LINE
  5
A0A9
  8
0
 10
9.0893585421474103
 20
5.0434465688755683
 30
0.0
 11
9.1213530632764872
 21
5.0754410900046381
 31
0.0
  0
LINE
  5
A0AA
  8
0
 10
9.1552677493315144
 20
5.0991904602133271
 30
0.0
 11
9.1263486791401114
 21
5.1281095304047284
 31
0.0
  0
LINE
  5
A0AB
  8
0
 10
8.9423602915841656
 20
5.0858237479809842
 30
0.0
 11
8.9188157649726065
 21
5.1093682745925433
 31
0.0
  0
LINE
  5
A0AC
  8
0
 10
8.9302593623485702
 20
5.0823372878089632
 30
0.0
 11
8.9520482079501171
 21
5.1041261334105039
 31
0.0
  0
LINE
  5
A0AD
  8
0
 10
8.9541246759724533
 20
4.9364969739480706
 30
0.0
 11
9.0234172571953195
 21
5.0057895551709404
 31
0.0
  0
LINE
  5
A0AE
  8
0
 10
8.9505801499836632
 20
4.936182533344172
 30
0.0
 11
8.8904256318346757
 21
4.9963370514931631
 31
0.0
  0
LINE
  5
A0AF
  8
0
 10
9.0788140140502946
 20
4.8349121420462149
 30
0.0
 11
9.0917788995534341
 21
4.8478770275493561
 31
0.0
  0
LINE
  5
A0B0
  8
0
 10
9.2283769766661496
 20
4.9695126903837741
 30
0.0
 11
9.2221890483785742
 21
4.9757006186713451
 31
0.0
  0
LINE
  5
A0B1
  8
0
 10
9.2351521393816967
 20
4.9629659961301593
 30
0.0
 11
9.3188661545858729
 21
5.0466800113343364
 31
0.0
  0
LINE
  5
A0B2
  8
0
 10
8.7967711153617945
 20
5.2316917532968041
 30
0.0
 11
8.8275499643718298
 21
5.2624706023068351
 31
0.0
  0
LINE
  5
A0B3
  8
0
 10
8.8074585933940348
 20
5.214094960081586
 30
0.0
 11
8.8368353175475232
 21
5.2434716842350708
 31
0.0
  0
LINE
  5
A0B4
  8
0
 10
8.7959798060951364
 20
5.2322042334700098
 30
0.0
 11
8.7591900356375323
 21
5.268994003927614
 31
0.0
  0
LINE
  5
A0B5
  8
0
 10
9.0371359923322743
 20
4.9344795047379471
 30
0.0
 11
9.0368420025786556
 21
4.9347734944915711
 31
0.0
  0
LINE
  5
A0B6
  8
0
 10
8.8028683669494612
 20
4.8859044176461444
 30
0.0
 11
8.7836615966410196
 21
4.905111187954585
 31
0.0
  0
LINE
  5
A0B7
  8
0
 10
8.7969700366702774
 20
4.864195148388279
 30
0.0
 11
8.8098525372874814
 21
4.877077649005483
 31
0.0
  0
LINE
  5
A0B8
  8
0
 10
8.6975577034700535
 20
4.8780779961357039
 30
0.0
 11
8.6057260441796721
 21
4.9699096554260871
 31
0.0
  0
LINE
  5
A0B9
  8
0
 10
8.558075835015245
 20
5.0212807441977132
 30
0.0
 11
8.5665691736079221
 21
5.029774082790393
 31
0.0
  0
LINE
  5
A0BA
  8
0
 10
9.1223481659643042
 20
4.8784462939602271
 30
0.0
 11
9.1482551082946557
 21
4.9043532362905804
 31
0.0
  0
LINE
  5
A0BB
  8
0
 10
9.1005644398726488
 20
4.9559038709399603
 30
0.0
 11
9.0790299231737155
 21
4.9774383876388972
 31
0.0
  0
LINE
  5
A0BC
  8
0
 10
9.1315043149742472
 20
5.1421608841973292
 30
0.0
 11
9.1437580134938852
 21
5.1544145827169681
 31
0.0
  0
LINE
  5
A0BD
  8
0
 10
9.0987926897892155
 20
5.109449259012286
 30
0.0
 11
9.1038929776280941
 21
5.1145495468511752
 31
0.0
  0
TEXT
  5
A0BE
  8
0
 10
8.9545306423117577
 20
4.9863483316003334
 30
0.0
 40
0.000001
  1
S
 72
     1
 11
8.9545309756450902
 21
4.986348831600333
 31
0.0
 73
     2
  0
LINE
  5
A0BF
  8
0
 10
8.9547512681097636
 20
4.9936921085803041
 30
0.0
 11
8.9851204917805401
 21
5.0240613322510841
 31
0.0
  0
LINE
  5
A0C0
  8
0
 10
8.9545309786896272
 20
4.9863488524874331
 30
0.0
 11
8.9545309786896272
 21
4.9863483314740371
 31
0.0
  0
ARC
  5
A0C1
  8
0
 10
4.3694566895637887
 20
3.80406110084086
 30
0.0
 40
0.3473003396217271
 50
329.4342343526281
 51
42.617270792517509
  0
ARC
  5
A0C2
  8
0
 10
5.3210552775698643
 20
2.678379026540481
 30
0.0
 40
1.8475815640092359
 50
140.30262641887819
 51
158.9803624673726
  0
ARC
  5
A0C3
  8
0
 10
2.2038425629153959
 20
3.8761908601419961
 30
0.0
 40
2.0036558055117162
 50
296.52260843503171
 51
338.98036246738059
  0
ARC
  5
A0C4
  8
0
 10
2.2038425629138438
 20
3.876190860141377
 30
0.0
 40
1.491844778512406
 50
303.60132495122423
 51
338.98036246745488
  0
LINE
  5
A0C5
  8
0
 10
2.3051496070365922
 20
2.608766135658259
 30
0.0
 11
2.0641042518120489
 21
2.3214994675922922
 31
0.0
  0
ARC
  5
A0C6
  8
0
 10
2.4485905654550102
 20
1.456443938433521
 30
0.0
 40
0.1696428582000995
 50
99.008941791388835
 51
180.00000000000301
  0
LINE
  5
A0C7
  8
0
 10
2.0641042518120489
 20
2.3214994675922922
 30
0.0
 11
2.0244834199554398
 21
1.414033223883524
 31
0.0
  0
LINE
  5
A0C8
  8
0
 10
2.0244834199554398
 20
1.414033223883524
 30
0.0
 11
2.247451644054971
 21
1.414033223883524
 31
0.0
  0
ARC
  5
A0C9
  8
0
 10
2.247451644055483
 20
1.445529287083918
 30
0.0
 40
0.0314960632003931
 50
269.99999999906919
 51
359.99999999834529
  0
LINE
  5
A0CA
  8
0
 10
2.278947707255877
 20
1.4455292870830081
 30
0.0
 11
2.2789477072549111
 21
1.4564439384335111
 31
0.0
  0
ARC
  5
A0CB
  8
0
 10
2.5755699231496769
 20
1.9306554814697801
 30
0.0
 40
0.2537964020314844
 50
246.9005926536837
 51
30.614878567008009
  0
ARC
  5
A0CC
  8
0
 10
2.4170945022554551
 20
1.6551015929667401
 30
0.0
 40
0.0314960631992912
 50
279.00894179044781
 51
0.0000000000129258
  0
ARC
  5
A0CD
  8
0
 10
2.9766480676421869
 20
2.452573308140495
 30
0.0
 40
0.3973119953679418
 50
246.49473208405351
 51
271.05222368599442
  0
ARC
  5
A0CE
  8
0
 10
2.4682756049559962
 20
1.6791002625900771
 30
0.0
 40
0.0196850395002259
 50
66.900592656406729
 51
180.00000000001671
  0
LINE
  5
A0CF
  8
0
 10
2.448590565454746
 20
1.6551015929667461
 30
0.0
 11
2.44859056545577
 21
1.6791002625900711
 31
0.0
  0
ARC
  5
A0D0
  8
0
 10
2.8109657775038541
 20
2.069900047522093
 30
0.0
 40
0.0197000000000652
 50
68.497098021027597
 51
210.48804114422541
  0
ARC
  5
A0D1
  8
0
 10
2.979278979846808
 20
2.3224416812722741
 30
0.0
 40
0.2671541074008984
 50
271.00058732812198
 51
296.5226084352845
  0
ARC
  5
A0D2
  8
0
 10
2.3956272977661901
 20
2.5328463387372939
 30
0.0
 40
0.118110237000361
 50
84.368596914916836
 51
140.00000000000441
  0
LINE
  5
A0D3
  8
0
 10
2.9011898481595142
 20
2.6016787548665139
 30
0.0
 11
2.4072172612093059
 21
2.6503865481622761
 31
0.0
  0
ARC
  5
A0D4
  8
0
 10
2.9205064538993701
 20
2.797579103907549
 30
0.0
 40
0.196850395000133
 50
264.36859691451463
 51
303.60132495079432
  0
ARC
  5
A0D5
  8
0
 10
5.3210552775690481
 20
2.6783790265414482
 30
0.0
 40
1.3357705370075901
 50
138.22019315165309
 51
158.9803624674303
  0
ARC
  5
A0D6
  8
0
 10
4.4843324524316364
 20
3.4259651069119279
 30
0.0
 40
0.2137232859216002
 50
58.858559190024842
 51
138.2201931515647
  0
ARC
  5
A0D7
  8
0
 10
4.6224918705248967
 20
3.6546205076660732
 30
0.0
 40
0.0534308214806769
 50
238.8585591903944
 51
329.43423435195672
  0
LINE
  5
A0D8
  8
0
 10
5.114837129481411
 20
4.8072702596268924
 30
0.0
 11
5.2656571558015717
 21
4.7806766197559387
 31
0.0
  0
LINE
  5
A0D9
  8
0
 10
5.2609221752704318
 20
6.1313187127430124
 30
0.0
 11
5.0207957054967771
 21
5.8451471297135118
 31
0.0
  0
ARC
  5
A0DA
  8
0
 10
4.874803389946873
 20
4.662515639511656
 30
0.0
 40
0.5251687323700192
 50
109.9409854897237
 51
179.9999999999998
  0
ARC
  5
A0DB
  8
0
 10
4.6285572640263526
 20
5.341245678449587
 30
0.0
 40
0.1968503949995756
 50
289.94098548974313
 51
349.07744154722218
  0
ARC
  5
A0DC
  8
0
 10
4.1527842625764411
 20
4.598533170247233
 30
0.0
 40
0.1968503950002423
 50
294.78667540349488
 51
0.000000000013969
  0
ARC
  5
A0DD
  8
0
 10
4.4451682861674531
 20
3.9653694983949368
 30
0.0
 40
0.500562432960896
 50
114.7866754032862
 51
178.45080288596071
  0
ARC
  5
A0DE
  8
0
 10
3.7480103768352602
 20
3.984224260587562
 30
0.0
 40
0.1968503949981075
 50
320.30262641908138
 51
358.450802886296
  0
LINE
  5
A0DF
  8
0
 10
4.8614456845759637
 20
4.1037272045573614
 30
0.0
 11
4.8614456845764469
 21
4.6561883053823472
 31
0.0
  0
LINE
  5
A0E0
  8
0
 10
4.6395186690412888
 20
4.0722311413569692
 30
0.0
 11
4.8299496213764517
 21
4.0722311413560579
 31
0.0
  0
ARC
  5
A0E1
  8
0
 10
4.639518669041939
 20
4.0525461018565512
 30
0.0
 40
0.0196850395004172
 50
90.000000001891024
 51
222.6172707943611
  0
ARC
  5
A0E2
  8
0
 10
4.8299496213755724
 20
4.103727204556451
 30
0.0
 40
0.0314960632003931
 50
270.00000000160281
 51
0.0000000016544991
  0
LINE
  5
A0E3
  8
0
 10
4.3496346575768516
 20
4.662515639511656
 30
0.0
 11
4.3496346575766811
 21
4.5985331702472809
 31
0.0
  0
LINE
  5
A0E4
  8
0
 10
4.8811307240768924
 20
4.675873344881909
 30
0.0
 11
5.0529981134998083
 21
4.675873344881909
 31
0.0
  0
ARC
  5
A0E5
  8
0
 10
4.8811307240766801
 20
4.6561883053816793
 30
0.0
 40
0.0196850395002315
 50
89.999999999379526
 51
179.9999999980559
  0
ARC
  5
A0E6
  8
0
 10
5.0529981134995046
 20
4.707369408082104
 30
0.0
 40
0.0314960632001951
 50
270.00000000054769
 51
354.99999999971118
  0
ARC
  5
A0E7
  8
0
 10
5.1114188582449502
 20
4.787884280108833
 30
0.0
 40
0.0196850395001036
 50
80.000000000097145
 51
174.99999999952141
  0
LINE
  5
A0E8
  8
0
 10
5.0843743246702884
 20
4.7046243453001058
 30
0.0
 11
5.091808726263233
 21
4.7895999443476462
 31
0.0
  0
ARC
  5
A0E9
  8
0
 10
5.337496427229083
 20
5.2044360181011147
 30
0.0
 40
0.5251687323698105
 50
137.43525212017221
 51
169.07744154706839
  0
ARC
  5
A0EA
  8
0
 10
4.8057196603561021
 20
5.6928263235977621
 30
0.0
 40
0.19685039500078
 50
317.43525212008967
 51
14.038462776623369
  0
ARC
  5
A0EB
  8
0
 10
5.1112733962263608
 20
5.769227332793081
 30
0.0
 40
0.1181102370000076
 50
140.00000000019921
 51
194.0384627770909
  0
ARC
  5
A0EC
  8
0
 10
5.2745313986168654
 20
5.613709758412166
 30
0.0
 40
0.4007311611022728
 50
279.48669026467161
 51
353.12197342294161
  0
ARC
  5
A0ED
  8
0
 10
5.3438237613596611
 20
5.199043205391205
 30
0.0
 40
0.0196850394998984
 50
99.486690266966448
 51
180.00000000242991
  0
ARC
  5
A0EE
  8
0
 10
5.2818939441688464
 20
4.8727600224322689
 30
0.0
 40
0.0935039375905357
 50
260.00000000000358
 51
44.999999999901469
  0
LINE
  5
A0EF
  8
0
 10
5.3480112125068722
 20
4.9388772907700691
 30
0.0
 11
5.2280103408818182
 21
5.0588781623951196
 31
0.0
  0
LINE
  5
A0F0
  8
0
 10
5.2419297658000037
 20
5.0924826268142329
 30
0.0
 11
5.2926426586597959
 21
5.0924826268124139
 31
0.0
  0
ARC
  5
A0F1
  8
0
 10
5.2419297658002861
 20
5.0727975873138913
 30
0.0
 40
0.0196850395003437
 50
90.000000000816897
 51
225.00000000062499
  0
LINE
  5
A0F2
  8
0
 10
5.3241387218588248
 20
5.123978690012807
 30
0.0
 11
5.3241387218597627
 21
5.199043205390371
 31
0.0
  0
ARC
  5
A0F3
  8
0
 10
5.2926426586587727
 20
5.1239786900124651
 30
0.0
 40
0.0314960632000521
 50
270.00000000186128
 51
0.0000000006204372
  0
ARC
  5
A0F4
  8
0
 10
5.9787122832029871
 20
5.9401580193472601
 30
0.0
 40
0.0314960632002539
 50
282.2234986294331
 51
0.0000000005848913
  0
ARC
  5
A0F5
  8
0
 10
6.070225870932676
 20
5.5177297571667561
 30
0.0
 40
0.4007311611019646
 50
102.2234986279792
 51
173.12197342283571
  0
LINE
  5
A0F6
  8
0
 10
6.0102083464032408
 20
6.1640332534830291
 30
0.0
 11
5.2609221752706894
 21
6.1313187127430124
 31
0.0
  0
LINE
  5
A0F7
  8
0
 10
5.2609221752706894
 20
6.1313187127430124
 30
0.0
 11
5.2609221752704318
 21
6.1313187127430124
 31
0.0
  0
LINE
  5
A0F8
  8
0
 10
6.0102083464032408
 20
5.9401580193475798
 30
0.0
 11
6.0102083464032408
 21
6.1640332534830291
 31
0.0
  0
LINE
  5
A0F9
  8
0
 10
6.0102083464032408
 20
6.2890332534830291
 30
0.0
 11
6.0102083464032408
 21
6.6120034032766251
 31
0.0
  0
LINE
  5
A0FA
  8
0
 10
2.0244834199554398
 20
1.539033223883524
 30
0.0
 11
2.0244834199554398
 21
6.6120034032766251
 31
0.0
  0
LINE
  5
A0FB
  8
0
 10
5.8852083464032408
 20
6.5807534032766251
 30
0.0
 11
2.1494834199554398
 21
6.5807534032766251
 31
0.0
  0
SOLID
  5
A0FC
  8
0
 10
5.8852083464032408
 20
6.6015867366099581
 30
0.0
 11
5.8852083464032408
 21
6.559920069943292
 31
0.0
 12
6.0102083464032408
 22
6.5807534032766251
 32
0.0
 13
6.0102083464032408
 23
6.5807534032766251
 33
0.0
  0
SOLID
  5
A0FD
  8
0
 10
2.1494834199554398
 20
6.6015867366099581
 30
0.0
 11
2.1494834199554398
 21
6.559920069943292
 31
0.0
 12
2.0244834199554398
 22
6.5807534032766251
 32
0.0
 13
2.0244834199554398
 23
6.5807534032766251
 33
0.0
  0
LINE
  5
A0FE
  8
0
 10
5.8852083464032408
 20
6.16403325348303
 30
0.0
 11
1.4602540896751901
 21
6.16403325348303
 31
0.0
  0
LINE
  5
A0FF
  8
0
 10
1.8994834199554389
 20
1.414033223883524
 30
0.0
 11
1.4602540896751881
 21
1.414033223883524
 31
0.0
  0
LINE
  5
A100
  8
0
 10
1.4915040896751881
 20
6.03903325348303
 30
0.0
 11
1.4915040896751881
 21
1.539033223883524
 31
0.0
  0
SOLID
  5
A101
  8
0
 10
1.4706707563418551
 20
6.03903325348303
 30
0.0
 11
1.512337423008522
 21
6.03903325348303
 31
0.0
 12
1.4915040896751881
 22
6.16403325348303
 32
0.0
 13
1.4915040896751881
 23
6.16403325348303
 33
0.0
  0
SOLID
  5
A102
  8
0
 10
1.4706707563418551
 20
1.539033223883524
 30
0.0
 11
1.512337423008522
 21
1.539033223883524
 31
0.0
 12
1.4915040896751881
 22
1.414033223883524
 32
0.0
 13
1.4915040896751881
 23
1.414033223883524
 33
0.0
  0
LINE
  5
A103
  8
0
 10
6.1059638853796221
 20
6.0836847827113791
 30
0.0
 11
6.8866985302139838
 21
5.4285703584026157
 31
0.0
  0
LINE
  5
A104
  8
0
 10
2.120238958931822
 20
1.3336847531118741
 30
0.0
 11
2.9009736037661842
 21
0.6785703288031117
 31
0.0
  0
LINE
  5
A105
  8
0
 10
6.7824111746982414
 20
5.3529019371191451
 30
0.0
 11
2.9573831897937382
 21
0.7944129854724062
 31
0.0
  0
SOLID
  5
A106
  8
0
 10
6.7664519182021774
 20
5.3662933489144233
 30
0.0
 11
6.7983704311943054
 21
5.339510525323873
 31
0.0
 12
6.8627596454698887
 22
5.4486574760955291
 32
0.0
 13
6.8627596454698887
 23
5.4486574760955291
 33
0.0
  0
SOLID
  5
A107
  8
0
 10
2.941423933297675
 20
0.8078043972676809
 30
0.0
 11
2.973342446289803
 21
0.7810215736771315
 31
0.0
 12
2.8770347190220891
 22
0.6986574464960241
 32
0.0
 13
2.8770347190220891
 23
0.6986574464960241
 33
0.0
  0
TEXT
  5
A108
  8
0
 10
1.3754326611037591
 20
3.464628476778516
 30
0.0
 40
0.125
  1
4 3/4"
 50
90.0
  0
TEXT
  5
A109
  8
0
 10
4.5801101476959412
 20
2.90887790814278
 30
0.0
 40
0.125
  1
6 1/4"
 50
49.999988295684723
  0
TEXT
  5
A10A
  8
0
 10
3.934012549846007
 20
6.655158165181386
 30
0.0
 40
0.125
  1
4"
  0
ENDSEC
  0
EOF
